  0
SECTION
  2
HEADER
  9
$ACADVER
  1
AC1015
  9
$ACADMAINTVER
 70
    20
  9
$DWGCODEPAGE
  3
ANSI_932
  9
$INSBASE
 10
0.0
 20
0.0
 30
0.0
  9
$EXTMIN
 10
-863.7093999922539
 20
-425.2811462552466
 30
0.0
  9
$EXTMAX
 10
864.0623262979849
 20
667.3619616938952
 30
50.0
  9
$LIMMIN
 10
-2970.0
 20
-2100.0
  9
$LIMMAX
 10
2970.0
 20
2100.0
  9
$ORTHOMODE
 70
     1
  9
$REGENMODE
 70
     0
  9
$FILLMODE
 70
     1
  9
$QTEXTMODE
 70
     0
  9
$MIRRTEXT
 70
     0
  9
$LTSCALE
 40
20.0
  9
$ATTMODE
 70
     1
  9
$TEXTSIZE
 40
64.0
  9
$TRACEWID
 40
0.05
  9
$TEXTSTYLE
  7
STANDARD
  9
$CLAYER
  8
0
  9
$CELTYPE
  6
ByLayer
  9
$CECOLOR
 62
   256
  9
$CELTSCALE
 40
1.0
  9
$DISPSILH
 70
     0
  9
$DIMSCALE
 40
1.0
  9
$DIMASZ
 40
0.12
  9
$DIMEXO
 40
0.05
  9
$DIMDLI
 40
0.5
  9
$DIMRND
 40
0.0
  9
$DIMDLE
 40
0.0
  9
$DIMEXE
 40
0.1
  9
$DIMTP
 40
0.1
  9
$DIMTM
 40
0.1
  9
$DIMTXT
 40
0.12
  9
$DIMCEN
 40
0.0
  9
$DIMTSZ
 40
0.0
  9
$DIMTOL
 70
     0
  9
$DIMLIM
 70
     0
  9
$DIMTIH
 70
     1
  9
$DIMTOH
 70
     1
  9
$DIMSE1
 70
     0
  9
$DIMSE2
 70
     0
  9
$DIMTAD
 70
     0
  9
$DIMZIN
 70
     7
  9
$DIMBLK
  1

  9
$DIMASO
 70
     1
  9
$DIMSHO
 70
     0
  9
$DIMPOST
  1

  9
$DIMAPOST
  1
mm
  9
$DIMALT
 70
     0
  9
$DIMALTD
 70
     2
  9
$DIMALTF
 40
25.4
  9
$DIMLFAC
 40
1.0
  9
$DIMTOFL
 70
     0
  9
$DIMTVP
 40
0.0
  9
$DIMTIX
 70
     0
  9
$DIMSOXD
 70
     0
  9
$DIMSAH
 70
     0
  9
$DIMBLK1
  1

  9
$DIMBLK2
  1

  9
$DIMSTYLE
  2
AM_ANSI
  9
$DIMCLRD
 70
   256
  9
$DIMCLRE
 70
   256
  9
$DIMCLRT
 70
     2
  9
$DIMTFAC
 40
0.71
  9
$DIMGAP
 40
0.06
  9
$DIMJUST
 70
     0
  9
$DIMSD1
 70
     0
  9
$DIMSD2
 70
     0
  9
$DIMTOLJ
 70
     1
  9
$DIMTZIN
 70
     7
  9
$DIMALTZ
 70
     0
  9
$DIMALTTZ
 70
     0
  9
$DIMUPT
 70
     0
  9
$DIMDEC
 70
     4
  9
$DIMTDEC
 70
     4
  9
$DIMALTU
 70
     2
  9
$DIMALTTD
 70
     4
  9
$DIMTXSTY
  7
STANDARD
  9
$DIMAUNIT
 70
     0
  9
$DIMADEC
 70
     0
  9
$DIMALTRND
 40
0.0
  9
$DIMAZIN
 70
     2
  9
$DIMDSEP
 70
    46
  9
$DIMATFIT
 70
     3
  9
$DIMFRAC
 70
     0
  9
$DIMLDRBLK
  1

  9
$DIMLUNIT
 70
     2
  9
$DIMLWD
 70
    -1
  9
$DIMLWE
 70
    -1
  9
$DIMTMOVE
 70
     0
  9
$LUNITS
 70
     2
  9
$LUPREC
 70
     4
  9
$SKETCHINC
 40
0.1
  9
$FILLETRAD
 40
4.0
  9
$AUNITS
 70
     1
  9
$AUPREC
 70
     3
  9
$MENU
  1
ACAD
  9
$ELEVATION
 40
0.0
  9
$PELEVATION
 40
0.0
  9
$THICKNESS
 40
50.0
  9
$LIMCHECK
 70
     0
  9
$CHAMFERA
 40
0.0
  9
$CHAMFERB
 40
0.0
  9
$CHAMFERC
 40
0.0
  9
$CHAMFERD
 40
0.0
  9
$SKPOLY
 70
     0
  9
$TDCREATE
 40
2452321.396199653
  9
$TDUCREATE
 40
2452321.021199653
  9
$TDUPDATE
 40
2456213.490925648
  9
$TDUUPDATE
 40
2456213.115925649
  9
$TDINDWG
 40
1.0427690162
  9
$TDUSRTIMER
 40
1.0427632523
  9
$USRTIMER
 70
     1
  9
$ANGBASE
 50
0.0
  9
$ANGDIR
 70
     0
  9
$PDMODE
 70
     3
  9
$PDSIZE
 40
-2.0
  9
$PLINEWID
 40
0.0
  9
$SPLFRAME
 70
     0
  9
$SPLINETYPE
 70
     6
  9
$SPLINESEGS
 70
     8
  9
$HANDSEED
  5
3558
  9
$SURFTAB1
 70
     6
  9
$SURFTAB2
 70
     6
  9
$SURFTYPE
 70
     6
  9
$SURFU
 70
     6
  9
$SURFV
 70
     6
  9
$UCSBASE
  2

  9
$UCSNAME
  2

  9
$UCSORG
 10
0.0
 20
0.0
 30
0.0
  9
$UCSXDIR
 10
1.0
 20
0.0
 30
0.0
  9
$UCSYDIR
 10
0.0
 20
1.0
 30
0.0
  9
$UCSORTHOREF
  2

  9
$UCSORTHOVIEW
 70
     0
  9
$UCSORGTOP
 10
0.0
 20
0.0
 30
0.0
  9
$UCSORGBOTTOM
 10
0.0
 20
0.0
 30
0.0
  9
$UCSORGLEFT
 10
0.0
 20
0.0
 30
0.0
  9
$UCSORGRIGHT
 10
0.0
 20
0.0
 30
0.0
  9
$UCSORGFRONT
 10
0.0
 20
0.0
 30
0.0
  9
$UCSORGBACK
 10
0.0
 20
0.0
 30
0.0
  9
$PUCSBASE
  2

  9
$PUCSNAME
  2

  9
$PUCSORG
 10
0.0
 20
0.0
 30
0.0
  9
$PUCSXDIR
 10
1.0
 20
0.0
 30
0.0
  9
$PUCSYDIR
 10
0.0
 20
1.0
 30
0.0
  9
$PUCSORTHOREF
  2

  9
$PUCSORTHOVIEW
 70
     0
  9
$PUCSORGTOP
 10
0.0
 20
0.0
 30
0.0
  9
$PUCSORGBOTTOM
 10
0.0
 20
0.0
 30
0.0
  9
$PUCSORGLEFT
 10
0.0
 20
0.0
 30
0.0
  9
$PUCSORGRIGHT
 10
0.0
 20
0.0
 30
0.0
  9
$PUCSORGFRONT
 10
0.0
 20
0.0
 30
0.0
  9
$PUCSORGBACK
 10
0.0
 20
0.0
 30
0.0
  9
$USERI1
 70
     0
  9
$USERI2
 70
     0
  9
$USERI3
 70
     0
  9
$USERI4
 70
     0
  9
$USERI5
 70
     0
  9
$USERR1
 40
20.0
  9
$USERR2
 40
0.0
  9
$USERR3
 40
0.0
  9
$USERR4
 40
0.0
  9
$USERR5
 40
0.0
  9
$WORLDVIEW
 70
     1
  9
$SHADEDGE
 70
     3
  9
$SHADEDIF
 70
    70
  9
$TILEMODE
 70
     1
  9
$MAXACTVP
 70
    64
  9
$PINSBASE
 10
0.0
 20
0.0
 30
0.0
  9
$PLIMCHECK
 70
     0
  9
$PEXTMIN
 10
1.000000000000000E+20
 20
1.000000000000000E+20
 30
1.000000000000000E+20
  9
$PEXTMAX
 10
-1.000000000000000E+20
 20
-1.000000000000000E+20
 30
-1.000000000000000E+20
  9
$PLIMMIN
 10
0.0
 20
0.0
  9
$PLIMMAX
 10
12.0
 20
9.0
  9
$UNITMODE
 70
     0
  9
$VISRETAIN
 70
     1
  9
$PLINEGEN
 70
     0
  9
$PSLTSCALE
 70
     1
  9
$TREEDEPTH
 70
  3020
  9
$CMLSTYLE
  2
Standard
  9
$CMLJUST
 70
     0
  9
$CMLSCALE
 40
1.0
  9
$PROXYGRAPHICS
 70
     1
  9
$MEASUREMENT
 70
     0
  9
$CELWEIGHT
370
    -1
  9
$ENDCAPS
280
     0
  9
$JOINSTYLE
280
     0
  9
$LWDISPLAY
290
     0
  9
$INSUNITS
 70
     0
  9
$HYPERLINKBASE
  1

  9
$STYLESHEET
  1

  9
$XEDIT
290
     1
  9
$CEPSNTYPE
380
     0
  9
$PSTYLEMODE
290
     1
  9
$FINGERPRINTGUID
  2
{61A847E4-7890-4DDC-B774-723D1CB6478B}
  9
$VERSIONGUID
  2
{4E64BC8A-EB1D-4FEB-A067-812E3777D7E0}
  9
$EXTNAMES
290
     1
  9
$PSVPSCALE
 40
0.0
  9
$OLESTARTUP
290
     0
  0
ENDSEC
  0
SECTION
  2
CLASSES
  0
CLASS
  1
ACDBDICTIONARYWDFLT
  2
AcDbDictionaryWithDefault
  3
ObjectDBX Classes
 90
        0
280
     0
281
     0
  0
CLASS
  1
MATERIAL
  2
AcDbMaterial
  3
ObjectDBX Classes
 90
     1153
280
     0
281
     0
  0
CLASS
  1
VISUALSTYLE
  2
AcDbVisualStyle
  3
ObjectDBX Classes
 90
     4095
280
     0
281
     0
  0
CLASS
  1
SCALE
  2
AcDbScale
  3
ObjectDBX Classes
 90
     1153
280
     0
281
     0
  0
CLASS
  1
TABLESTYLE
  2
AcDbTableStyle
  3
ObjectDBX Classes
 90
     4095
280
     0
281
     0
  0
CLASS
  1
MLEADERSTYLE
  2
AcDbMLeaderStyle
  3
ACDB_MLEADERSTYLE_CLASS
 90
     4095
280
     0
281
     0
  0
CLASS
  1
AMGSETTINGSOBJ
  2
AmgSettingsObj
  3
"AcadM|Product Description: AutoCAD Mechanical|Company: Autodesk, Inc."
 90
     1024
280
     0
281
     0
  0
CLASS
  1
ACME_DOCUMENT
  2
AcMeDbDoc
  3
AcMeServices
 90
     1024
280
     0
281
     0
  0
CLASS
  1
ACMESCOPE
  2
AcMeScope
  3
AcMeServices
 90
     1024
280
     0
281
     0
  0
CLASS
  1
ACMECOMMANDHISTORY
  2
AcMeCommandHistory
  3
AcMeServices
 90
     1024
280
     0
281
     0
  0
CLASS
  1
ACIMSYSVARMAN
  2
AcImSysVarManager
  3
AcMeServices
 90
     1024
280
     0
281
     0
  0
CLASS
  1
ACIMREALSYSVAR
  2
AcImRealSysVar
  3
AcMeServices
 90
     1024
280
     0
281
     0
  0
CLASS
  1
ACIMINTSYSVAR
  2
AcImIntSysVar
  3
AcMeServices
 90
     1024
280
     0
281
     0
  0
CLASS
  1
ACMEDRAWINGMAN
  2
AcMeDrawingMan
  3
AcMeServices
 90
     1024
280
     0
281
     0
  0
CLASS
  1
ACMEVIEW
  2
AcMeView
  3
AcMeServices
 90
     1024
280
     0
281
     0
  0
CLASS
  1
ACDBENTITYCACHE
  2
AcMeEntityCache
  3
AcMeServices
 90
     1024
280
     0
281
     0
  0
CLASS
  1
GSMANAGER
  2
AcMeGSManager
  3
AcMeServices
 90
     1024
280
     0
281
     0
  0
CLASS
  1
AMDTINTERNALREACTOR
  2
AmdtInternalReactor
  3
AcMeServices
 90
     1024
280
     0
281
     0
  0
CLASS
  1
ACMESTATEMGR
  2
AcMeStateMgr
  3
AcMeServices
 90
     1024
280
     0
281
     0
  0
CLASS
  1
ACGREFMASTER
  2
AcGrefMaster
  3
AcAttribServices
 90
     1024
280
     0
281
     0
  0
CLASS
  1
AM_DRAWING_MGR
  2
AcDmDwgMgr
  3
AcMechDwgViewMgmt
 90
     1024
280
     0
281
     0
  0
CLASS
  1
AM_DWG_DOCUMENT
  2
AcDmDwgDocument
  3
AcMechDwgViewMgmt
 90
     1024
280
     0
281
     0
  0
CLASS
  1
AM_DWG_SHEET
  2
AcDmSheet
  3
AcMechDwgViewMgmt
 90
     1024
280
     0
281
     0
  0
CLASS
  1
AM_VIEWDIMPARMAP
  2
AcDmViewDimParMap
  3
AcMechDwgViewMgmt
 90
     1024
280
     0
281
     0
  0
CLASS
  1
AM_DWGMGR_NAME
  2
AcDmDwgMgrName
  3
AcMechDwgViewMgmt
 90
     1024
280
     0
281
     0
  0
CLASS
  1
ACME_DATABASE
  2
AcMeDbDatabase
  3
AcMeServices
 90
     1024
280
     0
281
     0
  0
CLASS
  1
ACRFINSADJUSTERMGR
  2
AcRfInsAdjusterMgr
  3
AcMeServices
 90
     1024
280
     0
281
     0
  0
CLASS
  1
ACGREFACADMASTER
  2
AcGrefacadMaster
  3
AcGrefServices
 90
     1024
280
     0
281
     0
  0
CLASS
  1
AMDTMENUSTATEMGR
  2
AmdtMenuStateMgr
  3
McadcomServices
 90
     1024
280
     0
281
     0
  0
CLASS
  1
AMDTMCOMMENUSTATE
  2
AmdtMcomMenuState
  3
McadcomServices
 90
     1024
280
     0
281
     0
  0
CLASS
  1
AMIMASTER
  2
AmiMaster
  3
AmiServices
 90
     1024
280
     0
281
     0
  0
CLASS
  1
ASAPP
  2
AcAsAppObject
  3
AutoSurfServices
 90
     1024
280
     0
281
     0
  0
CLASS
  1
IM_STATIC_MAN
  2
AcImStaticVarManager
  3
AcMeServices
 90
     1024
280
     0
281
     0
  0
CLASS
  1
ACIMSTRSYSVAR
  2
AcImStrSysVar
  3
AcMeServices
 90
     1024
280
     0
281
     0
  0
CLASS
  1
ACIMDBLSTATICVAR
  2
AcImDblStaticVar
  3
AcMeServices
 90
     1024
280
     0
281
     0
  0
CLASS
  1
ACIMSTRSTATICVAR
  2
AcImStrStaticVar
  3
AcMeServices
 90
     1024
280
     0
281
     0
  0
CLASS
  1
ACIMINTSTATICVAR
  2
AcImIntStaticVar
  3
AcMeServices
 90
     1024
280
     0
281
     0
  0
CLASS
  1
ACASGREFMASTER
  2
AcAsGrefMaster
  3
AutoSurfResolverServices
 90
     1024
280
     0
281
     0
  0
CLASS
  1
ACADGREFMODULE
  2
AcAdGrefModule
  3
AdGrefServices
 90
     1024
280
     0
281
     0
  0
CLASS
  1
AMDTMAPISURFMOUDULE
  2
AmdtMApiSurfModule
  3
MApiSurfServices
 90
     1024
280
     0
281
     0
  0
CLASS
  1
MAPIAMMOUDLE
  2
MApiAmModule
  3
MApiAmServices
 90
     1024
280
     0
281
     0
  0
CLASS
  1
AMDTADMENUSTATE
  2
AmdtAdMenuState
  3
DesignerServices
 90
     1024
280
     0
281
     0
  0
CLASS
  1
ADAPPL
  2
AcAdAppl
  3
DesignerServices
 90
     1024
280
     0
281
     0
  0
CLASS
  1
DEPMGR
  2
AcAdDepMgr
  3
DesignerServices
 90
     1024
280
     0
281
     0
  0
CLASS
  1
PARAMMGR
  2
AcAdParamMgr
  3
DesignerServices
 90
     1024
280
     0
281
     0
  0
CLASS
  1
PARAMSCOPE
  2
AcAdParamScope
  3
DesignerServices
 90
     1024
280
     0
281
     0
  0
CLASS
  1
NAMEDAPPL
  2
AcAdNamedAppl
  3
DesignerServices
 90
     1024
280
     0
281
     0
  0
CLASS
  1
AMDTDMMENUSTATE
  2
AmdtDmMenuState
  3
AcMechDwgViewMgmt
 90
     1024
280
     0
281
     0
  0
CLASS
  1
MAPIADMODULE
  2
MApiAdModule
  3
MApiAdServices
 90
     1024
280
     0
281
     0
  0
CLASS
  1
AMDTAMMENUSTATE
  2
AmdtAmMenuState
  3
DesignerAssemblies
 90
     1024
280
     0
281
     0
  0
CLASS
  1
ACAMPROJECT
  2
AcAmProject
  3
DesignerAssemblies
 90
     1024
280
     0
281
     0
  0
CLASS
  1
ACAMGRCOMPDEF
  2
AcAmGrCompDef
  3
DesignerAssemblies
 90
     1024
280
     0
281
     0
  0
CLASS
  1
ACCMCONTEXT
  2
AcCmContext
  3
DesignerAssemblies
 90
     1024
280
     0
281
     0
  0
CLASS
  1
ACAMCOMPDEF
  2
AcAmCompDef
  3
DesignerAssemblies
 90
     1024
280
     0
281
     0
  0
CLASS
  1
ACAMCOMPDEFMGR
  2
AcAmCompDefMgr
  3
DesignerAssemblies
 90
     1024
280
     0
281
     0
  0
CLASS
  1
AMCONTEXTMGR
  2
AcAmContextMgr
  3
DesignerAssemblies
 90
     1024
280
     0
281
     0
  0
CLASS
  1
ACAMCONTEXTMODELER
  2
AcAmContextModeler
  3
DesignerAssemblies
 90
     1024
280
     0
281
     0
  0
CLASS
  1
ACMDATADICTIONARY
  2
AcmDataDictionary
  3
"AcmSymBB|Product Description: AutoCAD Mechanical|Company: Autodesk, Inc."
 90
     1024
280
     0
281
     0
  0
CLASS
  1
ACMDATAENTRYBLOCK
  2
AcmDataEntryBlock
  3
AcmSymBB|Product Description: AutoCAD Mechanical|Company: Autodesk, Inc.
 90
     1024
280
     0
281
     0
  0
CLASS
  1
ACRFATTGENMGR
  2
AcRfAttGeneralMgr
  3
AcAttribServices
 90
     1024
280
     0
281
     0
  0
CLASS
  1
ACRFOBJATTMGR
  2
AcRfObjAttGroupMgr
  3
AcAttribServices
 90
     1024
280
     0
281
     0
  0
CLASS
  1
ACRFMCADAPIATTHOLDER
  2
AcRfMCADAPIAttHolder
  3
AcAttribServices
 90
     1024
280
     0
281
     0
  0
CLASS
  1
AMDTSYSATTR
  2
AmdtSystemAttribute
  3
AcAttribServices
 90
     1024
280
     0
281
     0
  0
CLASS
  1
CATALOGSTATE
  2
AcAmCatalogState
  3
DesignerAssemblies
 90
     1024
280
     0
281
     0
  0
CLASS
  1
ACAMGRCOMPDEFSET
  2
AcAmGrCompDefSet
  3
DesignerAssemblies
 90
     1024
280
     0
281
     0
  0
CLASS
  1
AMDTBROWSERDBTAB
  2
AmdtBrowserDbTab
  3
McadcomServices
 90
     1024
280
     0
281
     0
  0
CLASS
  1
CBROWSERAPPOBJECT
  2
CBrowserAppObject
  3
McadcomServices
 90
     1024
280
     0
281
     0
  0
CLASS
  1
DM_PLACEHOLDER
  2
AcDmSelsetPlaceholder
  3
AcMechDwgViewMgmt
 90
     1024
280
     0
281
     0
  0
CLASS
  1
ACMSTANDARDANSI
  2
AcmStandardANSI
  3
"Amdt_StdImp|Product Description: AutoCAD Mechanical|Company: Autodesk, Inc."
 90
     1024
280
     0
281
     0
  0
CLASS
  1
ACMSURFSTANDARDANSI
  2
AcmSurfTextStdANSI
  3
"Amdt_StdImp|Product Description: AutoCAD Mechanical|Company: Autodesk, Inc."
 90
     1024
280
     0
281
     0
  0
CLASS
  1
ACMFCFSTANDARDANSI
  2
AcmFCFStdANSI
  3
"Amdt_StdImp|Product Description: AutoCAD Mechanical|Company: Autodesk, Inc."
 90
     1024
280
     0
281
     0
  0
CLASS
  1
ACMWELDSTANDARDANSI
  2
AcmWeldingStdANSI
  3
"Amdt_StdImp|Product Description: AutoCAD Mechanical|Company: Autodesk, Inc."
 90
     1024
280
     0
281
     0
  0
CLASS
  1
ACMIDSTANDARDANSI
  2
AcmIdStdANSI
  3
"Amdt_StdImp|Product Description: AutoCAD Mechanical|Company: Autodesk, Inc."
 90
     1024
280
     0
281
     0
  0
CLASS
  1
ACMDATUMSTANDARDANSI
  2
AcmDatumStdANSI
  3
"Amdt_StdImp|Product Description: AutoCAD Mechanical|Company: Autodesk, Inc."
 90
     1024
280
     0
281
     0
  0
CLASS
  1
ACMBOMSTANDARDANSI
  2
AcmBOMStdANSI
  3
"Amdt_StdImp|Product Description: AutoCAD Mechanical|Company: Autodesk, Inc."
 90
     1024
280
     0
281
     0
  0
CLASS
  1
ACMDETAILSTANDARDANSI
  2
AmdtDetailSymStdANSI
  3
"Amdt_StdImp|Product Description: AutoCAD Mechanical|Company: Autodesk, Inc."
 90
     1024
280
     0
281
     0
  0
CLASS
  1
ACMSECTIONSTANDARDANSI
  2
AmdtSectionSymStdANSI
  3
"Amdt_StdImp|Product Description: AutoCAD Mechanical|Company: Autodesk, Inc."
 90
     1024
280
     0
281
     0
  0
CLASS
  1
ACMCENTERLINESTANDARDANSI
  2
AmdtCenterLineStdANSI
  3
"Amdt_StdImp|Product Description: AutoCAD Mechanical|Company: Autodesk, Inc."
 90
     1024
280
     0
281
     0
  0
CLASS
  1
ACMTHREADLINESTANDARDANSI
  2
AmdtThreadLineStdANSI
  3
"Amdt_StdImp|Product Description: AutoCAD Mechanical|Company: Autodesk, Inc."
 90
     1024
280
     0
281
     0
  0
CLASS
  1
ACMNOTESTANDARDANSI
  2
AmdtNoteStdANSI
  3
"Amdt_StdImp|Product Description: AutoCAD Mechanical|Company: Autodesk, Inc."
 90
     1024
280
     0
281
     0
  0
CLASS
  1
ACMTAPERSTANDARDANSI
  2
AcmTaperStdANSI
  3
"Amdt_StdImp|Product Description: AutoCAD Mechanical|Company: Autodesk, Inc."
 90
     1024
280
     0
281
     0
  0
CLASS
  1
ACMANOOTATIONVIEWSTANDARDANSI
  2
AmdtAnViewStdANSI
  3
"Amdt_StdImp|Product Description: AutoCAD Mechanical|Company: Autodesk, Inc."
 90
     1024
280
     0
281
     0
  0
CLASS
  1
ACAMGLAYSTD
  2
AcAmgLayStd
  3
"AmgLay|Product Description: AutoCAD Mechanical|Company: Autodesk, Inc."
 90
     1024
280
     0
281
     0
  0
CLASS
  1
ACAMGDIMSTD
  2
AcAmgDimStd
  3
"AmgDim|Product Description: AutoCAD Mechanical|Company: Autodesk, Inc."
 90
     1024
280
     0
281
     0
  0
CLASS
  1
ACAMGHOLECHARTSTDANSI
  2
AcAmgHoleChartStdANSI
  3
AmgDim|Product Description: AutoCAD Mechanical|Company: Autodesk, Inc.
 90
     1024
280
     0
281
     0
  0
CLASS
  1
AMGOBJPROPCFG
  2
AmgObjPropCfg
  3
"AmgLay|Product Description: AutoCAD Mechanical|Company: Autodesk, Inc."
 90
     1025
280
     0
281
     0
  0
CLASS
  1
ACAMGTITLESTD
  2
AcAmgTitleStd
  3
"AmgTitle|Product Description: AutoCAD Mechanical|Company: Autodesk, Inc."
 90
     4095
280
     0
281
     0
  0
CLASS
  1
AMDTNOTETEMPLATEDB
  2
AmdtNoteTemplateDB
  3
AcmSymBB|Product Description: AutoCAD Mechanical|Company: Autodesk, Inc.
 90
     1024
280
     0
281
     0
  0
CLASS
  1
LAYER_INDEX
  2
AcDbLayerIndex
  3
ObjectDBX Classes
 90
        0
280
     0
281
     0
  0
CLASS
  1
IDBUFFER
  2
AcDbIdBuffer
  3
ObjectDBX Classes
 90
        0
280
     0
281
     0
  0
CLASS
  1
DICTIONARYVAR
  2
AcDbDictionaryVar
  3
ObjectDBX Classes
 90
        0
280
     0
281
     0
  0
CLASS
  1
CELLSTYLEMAP
  2
AcDbCellStyleMap
  3
ObjectDBX Classes
 90
     1152
280
     0
281
     0
  0
CLASS
  1
ACDBPLACEHOLDER
  2
AcDbPlaceHolder
  3
ObjectDBX Classes
 90
        0
280
     0
281
     0
  0
CLASS
  1
LAYOUT
  2
AcDbLayout
  3
ObjectDBX Classes
 90
        0
280
     0
281
     0
  0
ENDSEC
  0
SECTION
  2
TABLES
  0
TABLE
  2
VPORT
  5
32FF
330
0
100
AcDbSymbolTable
 70
     1
  0
VPORT
  5
336F
330
32FF
100
AcDbSymbolTableRecord
100
AcDbViewportTableRecord
  2
*ACTIVE
 70
     0
 10
0.0
 20
0.0
 11
1.0
 21
1.0
 12
0.0
 22
0.0
 13
0.0
 23
0.0
 14
1.0
 24
1.0
 15
0.0
 25
0.0
 16
0.0
 26
0.0
 36
1.0
 17
-24.47203209678672
 27
120.9640602126755
 37
0.0
 40
1100.216852456334
 41
1.712555066079295
 42
50.0
 43
0.0
 44
0.0
 50
0.0
 51
0.0
 71
     0
 72
   100
 73
     1
 74
     0
 75
     0
 76
     0
 77
     0
 78
     0
281
     0
 65
     0
110
0.0
120
0.0
130
0.0
111
1.0
121
0.0
131
0.0
112
0.0
122
1.0
132
0.0
 79
     0
146
0.0
  0
ENDTAB
  0
TABLE
  2
LTYPE
  5
32FC
330
0
100
AcDbSymbolTable
 70
    19
  0
LTYPE
  5
3359
330
32FC
100
AcDbSymbolTableRecord
100
AcDbLinetypeTableRecord
  2
ByBlock
 70
     0
  3

 72
    65
 73
     0
 40
0.0
  0
LTYPE
  5
335A
330
32FC
100
AcDbSymbolTableRecord
100
AcDbLinetypeTableRecord
  2
ByLayer
 70
     0
  3

 72
    65
 73
     0
 40
0.0
  0
LTYPE
  5
335B
330
32FC
100
AcDbSymbolTableRecord
100
AcDbLinetypeTableRecord
  2
CONTINUOUS
 70
     0
  3
実線
 72
    65
 73
     0
 40
0.0
  0
LTYPE
  5
3370
330
32FC
100
AcDbSymbolTableRecord
100
AcDbLinetypeTableRecord
  2
DASHDOT
 70
     0
  3
____ _ ____ _ ____ _ ____ _ ____ _ ____ _ ____
 72
    65
 73
     4
 40
5.5
 49
4.0
 74
     0
 49
-0.6
 74
     0
 49
0.3
 74
     0
 49
-0.6
 74
     0
  0
LTYPE
  5
3371
330
32FC
100
AcDbSymbolTableRecord
100
AcDbLinetypeTableRecord
  2
HIDDEN
 70
     0
  3
Hidden __ __ __ __ __ __ __ __ __ __ __ __ __ _
 72
    65
 73
     2
 40
0.375
 49
0.25
 74
     0
 49
-0.125
 74
     0
  0
LTYPE
  5
3372
330
32FC
100
AcDbSymbolTableRecord
100
AcDbLinetypeTableRecord
  2
PHANTOM2
 70
     0
  3
Phantom (.5x) ___ _ _ ___ _ _ ___ _ _ ___ _ _
 72
    65
 73
     6
 40
1.25
 49
0.625
 74
     0
 49
-0.125
 74
     0
 49
0.125
 74
     0
 49
-0.125
 74
     0
 49
0.125
 74
     0
 49
-0.125
 74
     0
  0
LTYPE
  5
3373
330
32FC
100
AcDbSymbolTableRecord
100
AcDbLinetypeTableRecord
  2
CENTER
 70
     0
  3
Center ____ _ ____ _ ____ _ ____ _ ____ _ ____
 72
    65
 73
     4
 40
2.0
 49
1.25
 74
     0
 49
-0.25
 74
     0
 49
0.25
 74
     0
 49
-0.25
 74
     0
  0
LTYPE
  5
3374
330
32FC
100
AcDbSymbolTableRecord
100
AcDbLinetypeTableRecord
  2
ASULTYPE
 70
     0
  3
実線
 72
    65
 73
     2
 40
3.0
 49
2.5
 74
     0
 49
0.5
 74
     0
  0
LTYPE
  5
3375
330
32FC
100
AcDbSymbolTableRecord
100
AcDbLinetypeTableRecord
  2
ASVLTYPE
 70
     0
  3
__ __ __ __ __ __ __ __ __ __ __ __ __ __ __ __ __ __ __ __ __
 72
    65
 73
     2
 40
0.75
 49
0.5
 74
     0
 49
-0.25
 74
     0
  0
LTYPE
  5
3376
330
32FC
100
AcDbSymbolTableRecord
100
AcDbLinetypeTableRecord
  2
AM_ISO02W050
 70
     0
  3
__ __ __ __ __ __ __ __ __ __ __ __ __ __ __
 72
    65
 73
     2
 40
7.5
 49
6.0
 74
     0
 49
-1.5
 74
     0
  0
LTYPE
  5
3377
330
32FC
100
AcDbSymbolTableRecord
100
AcDbLinetypeTableRecord
  2
AM_ISO08W050
 70
     0
  3
____ . ____ . ____ . ____ . ____ . ____ . ____
 72
    65
 73
     4
 40
18.0
 49
12.0
 74
     0
 49
-1.5
 74
     0
 49
3.0
 74
     0
 49
-1.5
 74
     0
  0
LTYPE
  5
3378
330
32FC
100
AcDbSymbolTableRecord
100
AcDbLinetypeTableRecord
  2
AM_ISO09W050
 70
     0
  3
_____ . . _____ . . _____ . . ____ .. ____
 72
    65
 73
     6
 40
22.5
 49
12.0
 74
     0
 49
-1.5
 74
     0
 49
3.0
 74
     0
 49
-1.5
 74
     0
 49
3.0
 74
     0
 49
-1.5
 74
     0
  0
LTYPE
  5
3379
330
32FC
100
AcDbSymbolTableRecord
100
AcDbLinetypeTableRecord
  2
AMCONSTR
 70
     0
  3
_______________________
 72
    65
 73
     2
 40
9999.0
 49
9999.0
 74
     0
 49
0.0
 74
     0
  0
LTYPE
  5
337A
330
32FC
100
AcDbSymbolTableRecord
100
AcDbLinetypeTableRecord
  2
AM_ISO08W050X2
 70
     0
  3
__ . __ . __ . __ . __ . __
 72
    65
 73
     4
 40
9.0
 49
6.0
 74
     0
 49
-0.75
 74
     0
 49
1.5
 74
     0
 49
-0.75
 74
     0
  0
LTYPE
  5
337B
330
32FC
100
AcDbSymbolTableRecord
100
AcDbLinetypeTableRecord
  2
AM_ISO02W050X2
 70
     0
  3
 _ _ _ _ _ _ _ _ _ _ _ _
 72
    65
 73
     2
 40
3.75
 49
3.0
 74
     0
 49
-0.75
 74
     0
  0
LTYPE
  5
337C
330
32FC
100
AcDbSymbolTableRecord
100
AcDbLinetypeTableRecord
  2
AMZIGZAG
 70
     0
  3
/\/-/\/-/\/-/\/-/\/-/\/
 72
    65
 73
     2
 40
11.0001
 49
0.0001
 74
     0
 49
-11.0
 74
     0
  0
LTYPE
  5
337D
330
32FC
100
AcDbSymbolTableRecord
100
AcDbLinetypeTableRecord
  2
CENTER2
 70
     0
  3
Center (.5x) ___ _ ___ _ ___ _ ___ _ ___ _ ___
 72
    65
 73
     4
 40
1.125
 49
0.75
 74
     0
 49
-0.125
 74
     0
 49
0.125
 74
     0
 49
-0.125
 74
     0
  0
LTYPE
  5
337E
330
32FC
100
AcDbSymbolTableRecord
100
AcDbLinetypeTableRecord
  2
HIDDEN2
 70
     0
  3
Hidden (.5x) _ _ _ _ _ _ _ _ _ _ _ _ _ _ _ _ _
 72
    65
 73
     2
 40
0.1875
 49
0.125
 74
     0
 49
-0.0625
 74
     0
  0
LTYPE
  5
337F
330
32FC
100
AcDbSymbolTableRecord
100
AcDbLinetypeTableRecord
  2
AMZIGZAG2
 70
     0
  3
/\/-/\/-/\/-/\/-/\/-/\/
 72
    65
 73
     2
 40
0.4401
 49
0.0001
 74
     0
 49
-0.4400000000000003
 74
     0
  0
LTYPE
  5
3380
330
32FC
100
AcDbSymbolTableRecord
100
AcDbLinetypeTableRecord
  2
ACANSTGB
 70
     0
  3
__ . . __ . .
 72
    65
 73
     6
 40
0.35433070866
 49
0.15748031496
 74
     0
 49
-0.03937007874
 74
     0
 49
0.03937007874
 74
     0
 49
-0.03937007874
 74
     0
 49
0.03937007874
 74
     0
 49
-0.03937007874
 74
     0
  0
LTYPE
  5
3381
330
32FC
100
AcDbSymbolTableRecord
100
AcDbLinetypeTableRecord
  2
ACANSTGL
 70
     0
  3
_ _ _ _ _
 72
    65
 73
     2
 40
0.11811023622
 49
0.07874015748
 74
     0
 49
-0.03937007874
 74
     0
  0
ENDTAB
  0
TABLE
  2
LAYER
  5
32F9
330
0
100
AcDbSymbolTable
 70
    12
  0
LAYER
  5
3353
102
{ACAD_XDICTIONARY
360
3517
102
}
330
32F9
100
AcDbSymbolTableRecord
100
AcDbLayerTableRecord
  2
0
 70
     0
 62
     7
  6
CONTINUOUS
370
    -3
390
3306
  0
LAYER
  5
3382
102
{ACAD_XDICTIONARY
360
3519
102
}
330
32F9
100
AcDbSymbolTableRecord
100
AcDbLayerTableRecord
  2
OUTLINE
 70
     0
 62
     3
  6
CONTINUOUS
370
    -3
390
3306
  0
LAYER
  5
3383
102
{ACAD_XDICTIONARY
360
351B
102
}
330
32F9
100
AcDbSymbolTableRecord
100
AcDbLayerTableRecord
  2
SIZE
 70
     0
 62
    30
  6
CONTINUOUS
370
    -3
390
3306
  0
LAYER
  5
3384
102
{ACAD_XDICTIONARY
360
351D
102
}
330
32F9
100
AcDbSymbolTableRecord
100
AcDbLayerTableRecord
  2
BASIS
 70
     0
 62
     6
  6
DASHDOT
370
    -3
390
3306
  0
LAYER
  5
3385
102
{ACAD_XDICTIONARY
360
351F
102
}
330
32F9
100
AcDbSymbolTableRecord
100
AcDbLayerTableRecord
  2
DETAIL
 70
     0
 62
     5
  6
CONTINUOUS
370
    -3
390
3306
  0
LAYER
  5
3386
102
{ACAD_XDICTIONARY
360
3521
102
}
330
32F9
100
AcDbSymbolTableRecord
100
AcDbLayerTableRecord
  2
ARRANGE
 70
     0
 62
     1
  6
CONTINUOUS
370
    -3
390
3306
  0
LAYER
  5
3387
330
32F9
100
AcDbSymbolTableRecord
100
AcDbLayerTableRecord
  2
DEFPOINTS
 70
     0
 62
     7
  6
CONTINUOUS
290
     0
370
    -3
390
3306
  0
LAYER
  5
3388
102
{ACAD_XDICTIONARY
360
3523
102
}
330
32F9
100
AcDbSymbolTableRecord
100
AcDbLayerTableRecord
  2
ETC
 70
     0
 62
    61
  6
CONTINUOUS
370
    -3
390
3306
  0
LAYER
  5
3389
102
{ACAD_XDICTIONARY
360
3525
102
}
330
32F9
100
AcDbSymbolTableRecord
100
AcDbLayerTableRecord
  2
FIX
 70
     0
 62
    11
  6
CONTINUOUS
370
    -3
390
3306
  0
LAYER
  5
338A
102
{ACAD_XDICTIONARY
360
3527
102
}
330
32F9
100
AcDbSymbolTableRecord
100
AcDbLayerTableRecord
  2
NOTE
 70
     0
 62
     4
  6
CONTINUOUS
370
    -3
390
3306
  0
LAYER
  5
338B
102
{ACAD_XDICTIONARY
360
3529
102
}
330
32F9
100
AcDbSymbolTableRecord
100
AcDbLayerTableRecord
  2
SERVICESPACE
 70
     0
 62
     2
  6
DASHDOT
370
    -3
390
3306
  0
LAYER
  5
338C
102
{ACAD_XDICTIONARY
360
352B
102
}
330
32F9
100
AcDbSymbolTableRecord
100
AcDbLayerTableRecord
  2
SYMBOLLINE
 70
     0
 62
    15
  6
CONTINUOUS
370
    -3
390
3306
  0
ENDTAB
  0
TABLE
  2
STYLE
  5
32FA
330
0
100
AcDbSymbolTable
 70
     5
  0
STYLE
  5
3354
330
32FA
100
AcDbSymbolTableRecord
100
AcDbTextStyleTableRecord
  2
STANDARD
 70
     0
 40
64.0
 41
0.9
 50
0.0
 71
     0
 42
64.0
  3
SIMPLEX.shx
  4
BIGFONT.shx
  0
STYLE
  5
3358
330
32FA
100
AcDbSymbolTableRecord
100
AcDbTextStyleTableRecord
  2
ANNOTATIVE
 70
     0
 40
0.0
 41
1.0
 50
0.0
 71
     0
 42
0.2
  3
txt
  4

1001
ACADANNOTATIVE
1000
AnnotativeData
1002
{
1070
     1
1070
     1
1002
}
  0
STYLE
  5
338D
330
32FA
100
AcDbSymbolTableRecord
100
AcDbTextStyleTableRecord
  2

 70
     1
 40
0.0
 41
1.0
 50
0.0
 71
     0
 42
64.0
  3
genltshp.shx
  4

  0
STYLE
  5
338E
330
32FA
100
AcDbSymbolTableRecord
100
AcDbTextStyleTableRecord
  2
ACANSTS
 70
     0
 40
1.0
 41
1.0
 50
0.0
 71
     0
 42
64.0
  3
romans.shx
  4
extfont.shx
  0
STYLE
  5
338F
330
32FA
100
AcDbSymbolTableRecord
100
AcDbTextStyleTableRecord
  2
ACANSGDT
 70
     0
 40
0.0
 41
1.0
 50
0.0
 71
     0
 42
64.0
  3
amgdt.shx
  4

  0
ENDTAB
  0
TABLE
  2
VIEW
  5
32FD
330
0
100
AcDbSymbolTable
 70
     1
  0
VIEW
  5
3390
330
32FD
100
AcDbSymbolTableRecord
100
AcDbViewTableRecord
  2
ALL
 70
     0
 40
4282.619807999997
 10
0.0
 20
41.30990399999999
 41
5940.0
 11
0.0
 21
0.0
 31
1.0
 12
0.0
 22
0.0
 32
0.0
 42
50.0
 43
0.0
 44
0.0
 50
0.0
 71
     0
281
     0
 72
     1
110
0.0
120
0.0
130
0.0
111
1.0
121
0.0
131
0.0
112
0.0
122
1.0
132
0.0
 79
     0
146
0.0
  0
ENDTAB
  0
TABLE
  2
UCS
  5
32FE
330
0
100
AcDbSymbolTable
 70
     0
  0
ENDTAB
  0
TABLE
  2
APPID
  5
3300
330
0
100
AcDbSymbolTable
 70
    32
  0
APPID
  5
3355
330
3300
100
AcDbSymbolTableRecord
100
AcDbRegAppTableRecord
  2
ACAD
 70
     0
  0
APPID
  5
335C
330
3300
100
AcDbSymbolTableRecord
100
AcDbRegAppTableRecord
  2
ACADANNOTATIVE
 70
     0
  0
APPID
  5
3366
330
3300
100
AcDbSymbolTableRecord
100
AcDbRegAppTableRecord
  2
ACAD_MLEADERVER
 70
     0
  0
APPID
  5
3391
330
3300
100
AcDbSymbolTableRecord
100
AcDbRegAppTableRecord
  2
GENIUS_GENDIM_13
 70
     0
  0
APPID
  5
3392
330
3300
100
AcDbSymbolTableRecord
100
AcDbRegAppTableRecord
  2
GENIUS_GENDTOL_13
 70
     0
  0
APPID
  5
3393
330
3300
100
AcDbSymbolTableRecord
100
AcDbRegAppTableRecord
  2
GENIUS_GE3DTOL_13
 70
     0
  0
APPID
  5
3394
330
3300
100
AcDbSymbolTableRecord
100
AcDbRegAppTableRecord
  2
MCAD_NO_VIS
 70
     0
  0
APPID
  5
3395
330
3300
100
AcDbSymbolTableRecord
100
AcDbRegAppTableRecord
  2
ACAD_TEMP_GRAPHIC
 70
     0
  0
APPID
  5
3396
330
3300
100
AcDbSymbolTableRecord
100
AcDbRegAppTableRecord
  2
AD_DRAW
 70
     0
  0
APPID
  5
3397
330
3300
100
AcDbSymbolTableRecord
100
AcDbRegAppTableRecord
  2
ACATTRIBSERVICES
 70
     0
  0
APPID
  5
3398
330
3300
100
AcDbSymbolTableRecord
100
AcDbRegAppTableRecord
  2
ASURF_PCURVE_APPNAME
 70
     0
  0
APPID
  5
3399
330
3300
100
AcDbSymbolTableRecord
100
AcDbRegAppTableRecord
  2
AMG_3D2D_5_0
 70
     0
  0
APPID
  5
339A
330
3300
100
AcDbSymbolTableRecord
100
AcDbRegAppTableRecord
  2
DESIGNERASSEMBLIES
 70
     0
  0
APPID
  5
339B
330
3300
100
AcDbSymbolTableRecord
100
AcDbRegAppTableRecord
  2
ACADM_DIM_EDIT
 70
     0
  0
APPID
  5
339C
330
3300
100
AcDbSymbolTableRecord
100
AcDbRegAppTableRecord
  2
AMDT_DM_ADJ
 70
     0
  0
APPID
  5
339D
330
3300
100
AcDbSymbolTableRecord
100
AcDbRegAppTableRecord
  2
ACAD_DSTYLE_DIMARC_LENGTH_
 70
     0
  0
APPID
  5
339E
330
3300
100
AcDbSymbolTableRecord
100
AcDbRegAppTableRecord
  2
ACAD_DSTYLE_DIMJOGGED_JOGA
 70
     0
  0
APPID
  5
339F
330
3300
100
AcDbSymbolTableRecord
100
AcDbRegAppTableRecord
  2
ACAD_PSEXT
 70
     0
  0
APPID
  5
33A0
330
3300
100
AcDbSymbolTableRecord
100
AcDbRegAppTableRecord
  2
ACAD_EXEMPT_FROM_CAD_STANDARDS
 70
     0
  0
APPID
  5
33A1
330
3300
100
AcDbSymbolTableRecord
100
AcDbRegAppTableRecord
  2
ACAD_DSTYLE_DIMJAG
 70
     0
  0
APPID
  5
33A2
330
3300
100
AcDbSymbolTableRecord
100
AcDbRegAppTableRecord
  2
ACAD_DSTYLE_DIMTALN
 70
     0
  0
APPID
  5
33A3
330
3300
100
AcDbSymbolTableRecord
100
AcDbRegAppTableRecord
  2
AMG_3D2D_5_00
 70
     0
  0
APPID
  5
33A4
330
3300
100
AcDbSymbolTableRecord
100
AcDbRegAppTableRecord
  2
AMG_3D2D_5_01
 70
     0
  0
APPID
  5
33A5
330
3300
100
AcDbSymbolTableRecord
100
AcDbRegAppTableRecord
  2
AMG_3D2D_5_02
 70
     0
  0
APPID
  5
33A6
330
3300
100
AcDbSymbolTableRecord
100
AcDbRegAppTableRecord
  2
AMG_3D2D_5_03
 70
     0
  0
APPID
  5
33A7
330
3300
100
AcDbSymbolTableRecord
100
AcDbRegAppTableRecord
  2
AMG_3D2D_5_04
 70
     0
  0
APPID
  5
33A8
330
3300
100
AcDbSymbolTableRecord
100
AcDbRegAppTableRecord
  2
AMG_3D2D_5_05
 70
     0
  0
APPID
  5
34BE
330
3300
100
AcDbSymbolTableRecord
100
AcDbRegAppTableRecord
  2
AMG_3D2D_5.0
 70
     0
  0
APPID
  5
3554
330
3300
100
AcDbSymbolTableRecord
100
AcDbRegAppTableRecord
  2
ACAD_DSTYLE_DIMARC_LENGTH_SYMBOL
 70
     0
  0
APPID
  5
3555
330
3300
100
AcDbSymbolTableRecord
100
AcDbRegAppTableRecord
  2
ACAD_DSTYLE_DIM_LINETYPE
 70
     0
  0
APPID
  5
3556
330
3300
100
AcDbSymbolTableRecord
100
AcDbRegAppTableRecord
  2
ACAD_DSTYLE_DIM_EXT1_LINETYPE
 70
     0
  0
APPID
  5
3557
330
3300
100
AcDbSymbolTableRecord
100
AcDbRegAppTableRecord
  2
ACAD_DSTYLE_DIM_EXT2_LINETYPE
 70
     0
  0
ENDTAB
  0
TABLE
  2
DIMSTYLE
  5
3301
330
0
100
AcDbSymbolTable
 70
    10
100
AcDbDimStyleTable
 71
     1
340
33A9
  0
DIMSTYLE
105
3356
330
3301
100
AcDbSymbolTableRecord
100
AcDbDimStyleTableRecord
  2
STANDARD
 70
     0
 41
12.0
 42
20.0
 44
20.0
 77
     1
 78
     8
140
64.0
141
0.0
147
10.0
275
     1
279
     2
284
     7
285
     7
286
     7
340
3354
  0
DIMSTYLE
105
3357
330
3301
100
AcDbSymbolTableRecord
100
AcDbDimStyleTableRecord
  2
ANNOTATIVE
 70
     0
275
     1
279
     2
284
     7
285
     7
286
     7
340
3354
1001
ACADANNOTATIVE
1000
AnnotativeData
1002
{
1070
     1
1070
     1
1002
}
  0
DIMSTYLE
105
33A9
330
3301
100
AcDbSymbolTableRecord
100
AcDbDimStyleTableRecord
  2
AM_ANSI
 70
     0
  4
mm
 41
0.12
 42
0.05
 43
0.5
 44
0.1
 47
0.1
 48
0.1
 78
     7
 79
     2
140
0.12
141
0.0
146
0.71
147
0.06
176
   256
177
   256
178
     2
274
     4
284
     7
340
3354
371
    -1
372
    -1
1001
ACAD_DSTYLE_DIMARC_LENGTH_SYMBOL
1070
   379
1070
     1
1001
ACAD_DSTYLE_DIM_LINETYPE
1070
   380
1005
3359
1001
ACAD_DSTYLE_DIM_EXT1_LINETYPE
1070
   381
1005
3359
1001
ACAD_DSTYLE_DIM_EXT2_LINETYPE
1070
   382
1005
3359
  0
DIMSTYLE
105
33AA
330
3301
100
AcDbSymbolTableRecord
100
AcDbDimStyleTableRecord
  2
AM_ANSI$3
 70
     0
  4
mm
 41
0.12
 42
0.05
 43
0.5
 44
0.1
 47
0.1
 48
0.1
 78
     7
 79
     2
140
0.12
141
0.0
146
0.71
147
0.06
176
   256
177
   256
178
     2
274
     4
284
     7
288
     1
289
     0
340
3354
371
    -1
372
    -1
1001
ACAD_DSTYLE_DIMARC_LENGTH_SYMBOL
1070
   379
1070
     1
1001
ACAD_DSTYLE_DIM_LINETYPE
1070
   380
1005
3359
1001
ACAD_DSTYLE_DIM_EXT1_LINETYPE
1070
   381
1005
3359
1001
ACAD_DSTYLE_DIM_EXT2_LINETYPE
1070
   382
1005
3359
  0
DIMSTYLE
105
33AB
330
3301
100
AcDbSymbolTableRecord
100
AcDbDimStyleTableRecord
  2
AM_ANSI$4
 70
     0
  4
mm
 41
0.12
 42
0.05
 43
0.5
 44
0.1
 47
0.1
 48
0.1
 78
     7
 79
     2
140
0.12
141
0.0
146
0.71
147
0.06
176
   256
177
   256
178
     2
274
     4
284
     7
340
3354
371
    -1
372
    -1
1001
ACAD_DSTYLE_DIMARC_LENGTH_SYMBOL
1070
   379
1070
     1
1001
ACAD_DSTYLE_DIM_LINETYPE
1070
   380
1005
3359
1001
ACAD_DSTYLE_DIM_EXT1_LINETYPE
1070
   381
1005
3359
1001
ACAD_DSTYLE_DIM_EXT2_LINETYPE
1070
   382
1005
3359
  0
DIMSTYLE
105
33AC
330
3301
100
AcDbSymbolTableRecord
100
AcDbDimStyleTableRecord
  2
AM_ANSI$7
 70
     0
  4
mm
 41
0.12
 42
0.05
 43
0.5
 44
0.1
 47
0.1
 48
0.1
 78
     7
 79
     2
140
0.12
141
0.0
146
0.71
147
0.06
176
   256
177
   256
178
     2
274
     4
284
     7
340
3354
371
    -1
372
    -1
1001
ACAD_DSTYLE_DIMARC_LENGTH_SYMBOL
1070
   379
1070
     1
1001
ACAD_DSTYLE_DIM_LINETYPE
1070
   380
1005
3359
1001
ACAD_DSTYLE_DIM_EXT1_LINETYPE
1070
   381
1005
3359
1001
ACAD_DSTYLE_DIM_EXT2_LINETYPE
1070
   382
1005
3359
  0
DIMSTYLE
105
33AD
330
3301
100
AcDbSymbolTableRecord
100
AcDbDimStyleTableRecord
  2
AM_ANSI$SF
 70
     0
  4
mm
 41
0.12
 42
0.05
 43
0.5
 44
0.1
 47
0.1
 48
0.1
 75
     1
 76
     1
 78
     7
 79
     2
140
0.12
141
0.0
146
0.71
147
0.06
176
   256
177
   256
178
     2
274
     4
284
     7
340
3354
371
    -1
372
    -1
1001
ACAD_DSTYLE_DIMARC_LENGTH_SYMBOL
1070
   379
1070
     1
1001
ACAD_DSTYLE_DIM_LINETYPE
1070
   380
1005
3359
1001
ACAD_DSTYLE_DIM_EXT1_LINETYPE
1070
   381
1005
3359
1001
ACAD_DSTYLE_DIM_EXT2_LINETYPE
1070
   382
1005
3359
  0
DIMSTYLE
105
33AE
330
3301
100
AcDbSymbolTableRecord
100
AcDbDimStyleTableRecord
  2
AM_ANSI$SH
 70
     0
  4
mm
 41
0.12
 42
0.05
 43
0.5
 44
0.1
 47
0.1
 48
0.1
 75
     1
 76
     1
 78
     7
 79
     2
140
0.12
141
0.0
146
0.71
147
0.06
173
     1
176
   256
177
   256
178
     2
274
     4
284
     7
340
3354
343
33CE
371
    -1
372
    -1
1001
ACAD_DSTYLE_DIMARC_LENGTH_SYMBOL
1070
   379
1070
     1
1001
ACAD_DSTYLE_DIM_LINETYPE
1070
   380
1005
3359
1001
ACAD_DSTYLE_DIM_EXT1_LINETYPE
1070
   381
1005
3359
1001
ACAD_DSTYLE_DIM_EXT2_LINETYPE
1070
   382
1005
3359
  0
DIMSTYLE
105
33AF
330
3301
100
AcDbSymbolTableRecord
100
AcDbDimStyleTableRecord
  2
STANDARD1
 70
     0
 40
6.0
 41
2.5
 42
0.625
 43
6.0
 44
1.25
 47
1.0
 48
0.5
 77
     1
 78
     8
140
2.5
141
0.0
146
0.6
147
1.0
173
     1
275
     1
279
     2
284
     7
285
     7
286
     7
340
3354
  0
DIMSTYLE
105
33B0
330
3301
100
AcDbSymbolTableRecord
100
AcDbDimStyleTableRecord
  2
STANDARD$0
 70
     0
 41
12.0
 42
20.0
 44
20.0
 73
     0
 74
     0
 77
     1
 78
     8
140
64.0
141
0.0
147
10.0
275
     1
279
     2
284
     7
285
     7
286
     7
340
3354
  0
ENDTAB
  0
TABLE
  2
BLOCK_RECORD
  5
32F8
330
0
100
AcDbSymbolTable
 70
    67
  0
BLOCK_RECORD
  5
336B
102
{ACAD_XDICTIONARY
360
352D
102
}
330
32F8
100
AcDbSymbolTableRecord
100
AcDbBlockTableRecord
  2
*Model_Space
340
336E
  0
BLOCK_RECORD
  5
3367
330
32F8
100
AcDbSymbolTableRecord
100
AcDbBlockTableRecord
  2
*Paper_Space
340
336A
  0
BLOCK_RECORD
  5
33B8
330
32F8
100
AcDbSymbolTableRecord
100
AcDbBlockTableRecord
  2
$MODEL_SPACE
340
0
  0
BLOCK_RECORD
  5
33BA
330
32F8
100
AcDbSymbolTableRecord
100
AcDbBlockTableRecord
  2
$PAPER_SPACE
340
0
  0
BLOCK_RECORD
  5
33BC
330
32F8
100
AcDbSymbolTableRecord
100
AcDbBlockTableRecord
  2
_ORIGIN
340
0
  0
BLOCK_RECORD
  5
33BE
330
32F8
100
AcDbSymbolTableRecord
100
AcDbBlockTableRecord
  2
_DOTBLANK
340
0
102
{BLKREFS
331
1299
331
129A
331
11AA
331
11AB
331
E80
331
E81
331
1123
331
1124
331
11C2
331
11C3
331
11EC
331
11ED
331
11F9
331
11FA
331
1287
331
1288
331
1417
331
1418
331
1423
331
1424
331
142F
331
1430
331
143B
331
143C
331
166E
331
166F
331
1677
331
1678
331
1680
331
1681
331
1689
331
168A
331
1696
331
1697
331
16A3
331
16A4
331
16AF
331
16B0
331
16BB
331
16BC
331
16C7
331
16C8
331
16D3
331
16D4
331
1D86
331
1D87
331
1D8F
331
1D90
331
1D98
331
1D99
331
1DA1
331
1DA2
331
1DAB
331
1DAC
331
1DB5
331
1DB6
102
}
  0
BLOCK_RECORD
  5
33C0
330
32F8
100
AcDbSymbolTableRecord
100
AcDbBlockTableRecord
  2
_OPEN30
340
0
102
{BLKREFS
331
2088
331
2DE2
331
2DE9
102
}
  0
BLOCK_RECORD
  5
33C2
330
32F8
100
AcDbSymbolTableRecord
100
AcDbBlockTableRecord
  2
*D5
340
0
  0
BLOCK_RECORD
  5
33C4
330
32F8
100
AcDbSymbolTableRecord
100
AcDbBlockTableRecord
  2
*U6
340
0
102
{BLKREFS
331
129B
102
}
  0
BLOCK_RECORD
  5
33C6
330
32F8
100
AcDbSymbolTableRecord
100
AcDbBlockTableRecord
  2
*D7
340
0
  0
BLOCK_RECORD
  5
33C8
330
32F8
100
AcDbSymbolTableRecord
100
AcDbBlockTableRecord
  2
*U8
340
0
102
{BLKREFS
331
11AC
102
}
  0
BLOCK_RECORD
  5
33CA
330
32F8
100
AcDbSymbolTableRecord
100
AcDbBlockTableRecord
  2
*D9
340
0
  0
BLOCK_RECORD
  5
33CC
330
32F8
100
AcDbSymbolTableRecord
100
AcDbBlockTableRecord
  2
*U10
340
0
102
{BLKREFS
331
E82
102
}
  0
BLOCK_RECORD
  5
33CE
330
32F8
100
AcDbSymbolTableRecord
100
AcDbBlockTableRecord
  2
GENAXEH
340
0
  0
BLOCK_RECORD
  5
33D0
330
32F8
100
AcDbSymbolTableRecord
100
AcDbBlockTableRecord
  2
*D12
340
0
  0
BLOCK_RECORD
  5
33D2
330
32F8
100
AcDbSymbolTableRecord
100
AcDbBlockTableRecord
  2
*U13
340
0
102
{BLKREFS
331
1125
102
}
  0
BLOCK_RECORD
  5
33D4
330
32F8
100
AcDbSymbolTableRecord
100
AcDbBlockTableRecord
  2
*D14
340
0
  0
BLOCK_RECORD
  5
33D6
330
32F8
100
AcDbSymbolTableRecord
100
AcDbBlockTableRecord
  2
*U15
340
0
102
{BLKREFS
331
11C4
102
}
  0
BLOCK_RECORD
  5
33D8
330
32F8
100
AcDbSymbolTableRecord
100
AcDbBlockTableRecord
  2
*D16
340
0
  0
BLOCK_RECORD
  5
33DA
330
32F8
100
AcDbSymbolTableRecord
100
AcDbBlockTableRecord
  2
*U17
340
0
102
{BLKREFS
331
11EE
102
}
  0
BLOCK_RECORD
  5
33DC
330
32F8
100
AcDbSymbolTableRecord
100
AcDbBlockTableRecord
  2
*D18
340
0
  0
BLOCK_RECORD
  5
33DE
330
32F8
100
AcDbSymbolTableRecord
100
AcDbBlockTableRecord
  2
*U19
340
0
102
{BLKREFS
331
11FB
102
}
  0
BLOCK_RECORD
  5
33E0
330
32F8
100
AcDbSymbolTableRecord
100
AcDbBlockTableRecord
  2
*D20
340
0
  0
BLOCK_RECORD
  5
33E2
330
32F8
100
AcDbSymbolTableRecord
100
AcDbBlockTableRecord
  2
*U21
340
0
102
{BLKREFS
331
1289
102
}
  0
BLOCK_RECORD
  5
33E4
330
32F8
100
AcDbSymbolTableRecord
100
AcDbBlockTableRecord
  2
*D22
340
0
  0
BLOCK_RECORD
  5
33E6
330
32F8
100
AcDbSymbolTableRecord
100
AcDbBlockTableRecord
  2
*U23
340
0
102
{BLKREFS
331
1419
102
}
  0
BLOCK_RECORD
  5
33E8
330
32F8
100
AcDbSymbolTableRecord
100
AcDbBlockTableRecord
  2
*D24
340
0
  0
BLOCK_RECORD
  5
33EA
330
32F8
100
AcDbSymbolTableRecord
100
AcDbBlockTableRecord
  2
*U25
340
0
102
{BLKREFS
331
1425
102
}
  0
BLOCK_RECORD
  5
33EC
330
32F8
100
AcDbSymbolTableRecord
100
AcDbBlockTableRecord
  2
*D26
340
0
  0
BLOCK_RECORD
  5
33EE
330
32F8
100
AcDbSymbolTableRecord
100
AcDbBlockTableRecord
  2
*U27
340
0
102
{BLKREFS
331
1431
102
}
  0
BLOCK_RECORD
  5
33F0
330
32F8
100
AcDbSymbolTableRecord
100
AcDbBlockTableRecord
  2
*D28
340
0
  0
BLOCK_RECORD
  5
33F2
330
32F8
100
AcDbSymbolTableRecord
100
AcDbBlockTableRecord
  2
*U29
340
0
102
{BLKREFS
331
143D
102
}
  0
BLOCK_RECORD
  5
33F4
330
32F8
100
AcDbSymbolTableRecord
100
AcDbBlockTableRecord
  2
*D30
340
0
  0
BLOCK_RECORD
  5
33F6
330
32F8
100
AcDbSymbolTableRecord
100
AcDbBlockTableRecord
  2
*U31
340
0
102
{BLKREFS
331
1670
102
}
  0
BLOCK_RECORD
  5
33F8
330
32F8
100
AcDbSymbolTableRecord
100
AcDbBlockTableRecord
  2
*D32
340
0
  0
BLOCK_RECORD
  5
33FA
330
32F8
100
AcDbSymbolTableRecord
100
AcDbBlockTableRecord
  2
*U33
340
0
102
{BLKREFS
331
1679
102
}
  0
BLOCK_RECORD
  5
33FC
330
32F8
100
AcDbSymbolTableRecord
100
AcDbBlockTableRecord
  2
*D34
340
0
  0
BLOCK_RECORD
  5
33FE
330
32F8
100
AcDbSymbolTableRecord
100
AcDbBlockTableRecord
  2
*U35
340
0
102
{BLKREFS
331
1682
102
}
  0
BLOCK_RECORD
  5
3400
330
32F8
100
AcDbSymbolTableRecord
100
AcDbBlockTableRecord
  2
*D36
340
0
  0
BLOCK_RECORD
  5
3402
330
32F8
100
AcDbSymbolTableRecord
100
AcDbBlockTableRecord
  2
*U37
340
0
102
{BLKREFS
331
168B
102
}
  0
BLOCK_RECORD
  5
3404
330
32F8
100
AcDbSymbolTableRecord
100
AcDbBlockTableRecord
  2
*U38
340
0
  0
BLOCK_RECORD
  5
3406
330
32F8
100
AcDbSymbolTableRecord
100
AcDbBlockTableRecord
  2
*D39
340
0
  0
BLOCK_RECORD
  5
3408
330
32F8
100
AcDbSymbolTableRecord
100
AcDbBlockTableRecord
  2
*U40
340
0
102
{BLKREFS
331
1698
102
}
  0
BLOCK_RECORD
  5
340A
330
32F8
100
AcDbSymbolTableRecord
100
AcDbBlockTableRecord
  2
*D41
340
0
  0
BLOCK_RECORD
  5
340C
330
32F8
100
AcDbSymbolTableRecord
100
AcDbBlockTableRecord
  2
*U42
340
0
102
{BLKREFS
331
16A5
102
}
  0
BLOCK_RECORD
  5
340E
330
32F8
100
AcDbSymbolTableRecord
100
AcDbBlockTableRecord
  2
*D43
340
0
  0
BLOCK_RECORD
  5
3410
330
32F8
100
AcDbSymbolTableRecord
100
AcDbBlockTableRecord
  2
*U44
340
0
102
{BLKREFS
331
16B1
102
}
  0
BLOCK_RECORD
  5
3412
330
32F8
100
AcDbSymbolTableRecord
100
AcDbBlockTableRecord
  2
*D45
340
0
  0
BLOCK_RECORD
  5
3414
330
32F8
100
AcDbSymbolTableRecord
100
AcDbBlockTableRecord
  2
*U46
340
0
102
{BLKREFS
331
16BD
102
}
  0
BLOCK_RECORD
  5
3416
330
32F8
100
AcDbSymbolTableRecord
100
AcDbBlockTableRecord
  2
*D47
340
0
  0
BLOCK_RECORD
  5
3418
330
32F8
100
AcDbSymbolTableRecord
100
AcDbBlockTableRecord
  2
*U48
340
0
102
{BLKREFS
331
16C9
102
}
  0
BLOCK_RECORD
  5
341A
330
32F8
100
AcDbSymbolTableRecord
100
AcDbBlockTableRecord
  2
*D49
340
0
  0
BLOCK_RECORD
  5
341C
330
32F8
100
AcDbSymbolTableRecord
100
AcDbBlockTableRecord
  2
*U50
340
0
102
{BLKREFS
331
16D5
102
}
  0
BLOCK_RECORD
  5
341E
330
32F8
100
AcDbSymbolTableRecord
100
AcDbBlockTableRecord
  2
*D51
340
0
  0
BLOCK_RECORD
  5
3420
330
32F8
100
AcDbSymbolTableRecord
100
AcDbBlockTableRecord
  2
*U52
340
0
102
{BLKREFS
331
1D88
102
}
  0
BLOCK_RECORD
  5
3422
330
32F8
100
AcDbSymbolTableRecord
100
AcDbBlockTableRecord
  2
*D53
340
0
  0
BLOCK_RECORD
  5
3424
330
32F8
100
AcDbSymbolTableRecord
100
AcDbBlockTableRecord
  2
*U54
340
0
102
{BLKREFS
331
1D91
102
}
  0
BLOCK_RECORD
  5
3426
330
32F8
100
AcDbSymbolTableRecord
100
AcDbBlockTableRecord
  2
*D55
340
0
  0
BLOCK_RECORD
  5
3428
330
32F8
100
AcDbSymbolTableRecord
100
AcDbBlockTableRecord
  2
*U56
340
0
102
{BLKREFS
331
1D9A
102
}
  0
BLOCK_RECORD
  5
342A
330
32F8
100
AcDbSymbolTableRecord
100
AcDbBlockTableRecord
  2
*D57
340
0
  0
BLOCK_RECORD
  5
342C
330
32F8
100
AcDbSymbolTableRecord
100
AcDbBlockTableRecord
  2
*U58
340
0
102
{BLKREFS
331
1DA3
102
}
  0
BLOCK_RECORD
  5
342E
330
32F8
100
AcDbSymbolTableRecord
100
AcDbBlockTableRecord
  2
*D59
340
0
  0
BLOCK_RECORD
  5
3430
330
32F8
100
AcDbSymbolTableRecord
100
AcDbBlockTableRecord
  2
*U60
340
0
102
{BLKREFS
331
1DAD
102
}
  0
BLOCK_RECORD
  5
3432
330
32F8
100
AcDbSymbolTableRecord
100
AcDbBlockTableRecord
  2
*D61
340
0
  0
BLOCK_RECORD
  5
3434
330
32F8
100
AcDbSymbolTableRecord
100
AcDbBlockTableRecord
  2
*U62
340
0
102
{BLKREFS
331
1DB7
102
}
  0
BLOCK_RECORD
  5
3436
330
32F8
100
AcDbSymbolTableRecord
100
AcDbBlockTableRecord
  2
*U63
340
0
  0
BLOCK_RECORD
  5
3438
330
32F8
100
AcDbSymbolTableRecord
100
AcDbBlockTableRecord
  2
*U64
340
0
  0
BLOCK_RECORD
  5
343A
330
32F8
100
AcDbSymbolTableRecord
100
AcDbBlockTableRecord
  2
*U65
340
0
  0
ENDTAB
  0
ENDSEC
  0
SECTION
  2
BLOCKS
  0
BLOCK
  5
336C
330
336B
100
AcDbEntity
  8
0
100
AcDbBlockBegin
  2
*Model_Space
 70
     0
 10
0.0
 20
0.0
 30
0.0
  3
*Model_Space
  1

  0
ENDBLK
  5
336D
330
336B
100
AcDbEntity
  8
0
100
AcDbBlockEnd
  0
BLOCK
  5
3368
330
3367
100
AcDbEntity
 67
     1
  8
0
100
AcDbBlockBegin
  2
*Paper_Space
 70
     0
 10
0.0
 20
0.0
 30
0.0
  3
*Paper_Space
  1

  0
ENDBLK
  5
3369
330
3367
100
AcDbEntity
 67
     1
  8
0
100
AcDbBlockEnd
  0
BLOCK
  5
33B9
330
33B8
100
AcDbEntity
  8
0
100
AcDbBlockBegin
  2
$MODEL_SPACE
 70
     0
 10
0.0
 20
0.0
 30
0.0
  3
$MODEL_SPACE
  1

  0
ENDBLK
  5
310C
330
33B8
100
AcDbEntity
  8
0
100
AcDbBlockEnd
  0
BLOCK
  5
33BB
330
33BA
100
AcDbEntity
  8
0
100
AcDbBlockBegin
  2
$PAPER_SPACE
 70
     0
 10
0.0
 20
0.0
 30
0.0
  3
$PAPER_SPACE
  1

  0
ENDBLK
  5
3108
330
33BA
100
AcDbEntity
  8
0
100
AcDbBlockEnd
  0
BLOCK
  5
33BD
330
33BC
100
AcDbEntity
  8
0
100
AcDbBlockBegin
  2
_ORIGIN
 70
     0
 10
0.0
 20
0.0
 30
0.0
  3
_ORIGIN
  1

  0
CIRCLE
  5
880
330
33BC
100
AcDbEntity
  8
0
  6
Continuous
 62
     7
100
AcDbCircle
 10
0.0
 20
0.0
 30
0.0
 40
0.5
  0
LINE
  5
881
330
33BC
100
AcDbEntity
  8
0
  6
Continuous
 62
     7
100
AcDbLine
 10
0.0
 20
0.0
 30
0.0
 11
-1.0
 21
0.0
 31
0.0
  0
ENDBLK
  5
882
330
33BC
100
AcDbEntity
  8
0
100
AcDbBlockEnd
  0
BLOCK
  5
33BF
330
33BE
100
AcDbEntity
  8
0
 62
     1
100
AcDbBlockBegin
  2
_DOTBLANK
 70
     0
 10
0.0
 20
0.0
 30
0.0
  3
_DOTBLANK
  1

  0
CIRCLE
  5
AB3
330
33BE
100
AcDbEntity
  8
0
  6
ByBlock
 62
     0
100
AcDbCircle
 10
0.0
 20
0.0
 30
0.0
 40
0.5
  0
LINE
  5
AB4
330
33BE
100
AcDbEntity
  8
0
  6
ByBlock
 62
     0
100
AcDbLine
 10
-0.5
 20
0.0
 30
0.0
 11
-1.0
 21
0.0
 31
0.0
  0
ENDBLK
  5
AB6
330
33BE
100
AcDbEntity
  8
0
 62
     1
100
AcDbBlockEnd
  0
BLOCK
  5
33C1
330
33C0
100
AcDbEntity
  8
0
 62
     1
100
AcDbBlockBegin
  2
_OPEN30
 70
     0
 10
0.0
 20
0.0
 30
0.0
  3
_OPEN30
  1

  0
LINE
  5
AB8
330
33C0
100
AcDbEntity
  8
0
  6
ByBlock
 62
     0
100
AcDbLine
 10
-1.0
 20
0.26794919
 30
0.0
 11
0.0
 21
0.0
 31
0.0
  0
LINE
  5
AB9
330
33C0
100
AcDbEntity
  8
0
  6
ByBlock
 62
     0
100
AcDbLine
 10
0.0
 20
0.0
 30
0.0
 11
-1.0
 21
-0.26794919
 31
0.0
  0
LINE
  5
ABA
330
33C0
100
AcDbEntity
  8
0
  6
ByBlock
 62
     0
100
AcDbLine
 10
0.0
 20
0.0
 30
0.0
 11
-1.0
 21
0.0
 31
0.0
  0
ENDBLK
  5
ABC
330
33C0
100
AcDbEntity
  8
0
 62
     1
100
AcDbBlockEnd
  0
BLOCK
  5
33C3
330
33C2
100
AcDbEntity
  8
0
100
AcDbBlockBegin
  2
*D5
 70
     1
 10
0.0
 20
0.0
 30
0.0
  3
*D5
  1

  0
LINE
  5
1296
330
33C2
100
AcDbEntity
  8
SIZE
 62
     0
100
AcDbLine
 10
-134.5
 20
-320.0
 30
0.0
 11
-134.5
 21
-468.0173952306001
 31
0.0
  0
LINE
  5
1297
330
33C2
100
AcDbEntity
  8
SIZE
 62
     0
100
AcDbLine
 10
134.5
 20
-320.0
 30
0.0
 11
134.5
 21
-468.0173952306001
 31
0.0
  0
LINE
  5
1298
330
33C2
100
AcDbEntity
  8
SIZE
 62
     0
100
AcDbLine
 10
-122.5
 20
-448.0173952306
 30
0.0
 11
122.5
 21
-448.0173952306
 31
0.0
  0
INSERT
  5
1299
330
33C2
100
AcDbEntity
  8
SIZE
 62
     0
100
AcDbBlockReference
  2
_DOTBLANK
 10
-134.5
 20
-448.0173952306
 30
0.0
 41
12.0
 42
12.0
 43
12.0
 50
180.0
  0
INSERT
  5
129A
330
33C2
100
AcDbEntity
  8
SIZE
 62
     0
100
AcDbBlockReference
  2
_DOTBLANK
 10
134.5
 20
-448.0173952306
 30
0.0
 41
12.0
 42
12.0
 43
12.0
  0
INSERT
  5
129B
330
33C2
100
AcDbEntity
  8
0
100
AcDbBlockReference
  2
*U6
 10
0.0
 20
0.0
 30
0.0
  0
POINT
  5
129C
330
33C2
100
AcDbEntity
  8
DEFPOINTS
 62
     0
100
AcDbPoint
 10
-134.5
 20
-300.0
 30
0.0
  0
POINT
  5
129D
330
33C2
100
AcDbEntity
  8
DEFPOINTS
 62
     0
100
AcDbPoint
 10
134.5
 20
-300.0
 30
0.0
  0
POINT
  5
129E
330
33C2
100
AcDbEntity
  8
DEFPOINTS
 62
     0
100
AcDbPoint
 10
134.5
 20
-448.0173952306
 30
0.0
  0
ENDBLK
  5
D72
330
33C2
100
AcDbEntity
  8
0
100
AcDbBlockEnd
  0
BLOCK
  5
33C5
330
33C4
100
AcDbEntity
  8
0
100
AcDbBlockBegin
  2
*U6
 70
     1
 10
0.0
 20
0.0
 30
0.0
  3
*U6
  1

  0
TEXT
  5
1EF5
330
33C4
100
AcDbEntity
  8
SIZE
 62
     0
100
AcDbText
 10
-72.68571428571426
 20
-438.0173952305999
 30
0.0
 40
64.0
  1
269
 41
0.9
100
AcDbText
  0
ENDBLK
  5
1EF7
330
33C4
100
AcDbEntity
  8
0
100
AcDbBlockEnd
  0
BLOCK
  5
33C7
330
33C6
100
AcDbEntity
  8
0
100
AcDbBlockBegin
  2
*D7
 70
     1
 10
0.0
 20
0.0
 30
0.0
  3
*D7
  1

  0
LINE
  5
11A7
330
33C6
100
AcDbEntity
  8
SIZE
  6
Continuous
 62
     0
100
AcDbLine
 10
143.5
 20
-300.0
 30
0.0
 11
304.6432844803791
 21
-300.0
 31
0.0
  0
LINE
  5
11A8
330
33C6
100
AcDbEntity
  8
SIZE
  6
Continuous
 62
     0
100
AcDbLine
 10
177.5
 20
-0.0000000000000057
 30
0.0
 11
304.6432844803792
 21
-0.0000000000000417
 31
0.0
  0
LINE
  5
11A9
330
33C6
100
AcDbEntity
  8
SIZE
  6
Continuous
 62
     0
100
AcDbLine
 10
284.6432844803791
 20
-288.0000000000001
 30
0.0
 11
284.6432844803792
 21
-12.00000000000003
 31
0.0
  0
INSERT
  5
11AA
330
33C6
100
AcDbEntity
  8
SIZE
  6
Continuous
 62
     0
100
AcDbBlockReference
  2
_DOTBLANK
 10
284.6432844803791
 20
-300.0
 30
0.0
 41
12.0
 42
12.0
 43
12.0
 50
270.0
  0
INSERT
  5
11AB
330
33C6
100
AcDbEntity
  8
SIZE
  6
Continuous
 62
     0
100
AcDbBlockReference
  2
_DOTBLANK
 10
284.6432844803792
 20
-0.000000000000036
 30
0.0
 41
12.0
 42
12.0
 43
12.0
 50
90.0
  0
INSERT
  5
11AC
330
33C6
100
AcDbEntity
  8
0
100
AcDbBlockReference
  2
*U8
 10
0.0
 20
0.0
 30
0.0
  0
POINT
  5
11AD
330
33C6
100
AcDbEntity
  8
DEFPOINTS
  6
Continuous
 62
     0
100
AcDbPoint
 10
123.5
 20
-300.0
 30
0.0
  0
POINT
  5
11AE
330
33C6
100
AcDbEntity
  8
DEFPOINTS
  6
Continuous
 62
     0
100
AcDbPoint
 10
157.5
 20
0.0
 30
0.0
  0
POINT
  5
11AF
330
33C6
100
AcDbEntity
  8
DEFPOINTS
  6
Continuous
 62
     0
100
AcDbPoint
 10
284.6432844803792
 20
-0.000000000000036
 30
0.0
  0
ENDBLK
  5
E11
330
33C6
100
AcDbEntity
  8
0
100
AcDbBlockEnd
  0
BLOCK
  5
33C9
330
33C8
100
AcDbEntity
  8
0
100
AcDbBlockBegin
  2
*U8
 70
     1
 10
0.0
 20
0.0
 30
0.0
  3
*U8
  1

  0
TEXT
  5
1EE1
330
33C8
100
AcDbEntity
  8
SIZE
 62
     0
100
AcDbText
 10
274.6432844803792
 20
-224.0571428571429
 30
0.0
 40
64.0
  1
300
 50
90.0
 41
0.9
100
AcDbText
  0
ENDBLK
  5
1EE3
330
33C8
100
AcDbEntity
  8
0
100
AcDbBlockEnd
  0
BLOCK
  5
33CB
330
33CA
100
AcDbEntity
  8
0
100
AcDbBlockBegin
  2
*D9
 70
     1
 10
0.0
 20
0.0
 30
0.0
  3
*D9
  1

  0
LINE
  5
E7D
330
33CA
100
AcDbEntity
  8
SIZE
 62
     0
100
AcDbLine
 10
-139.9999999999998
 20
32.46448280219375
 30
0.0
 11
-139.9999999999998
 21
136.4516878685508
 31
0.0
  0
LINE
  5
E7E
330
33CA
100
AcDbEntity
  8
SIZE
 62
     0
100
AcDbLine
 10
140.0
 20
32.46448280219375
 30
0.0
 11
140.0
 21
136.4516878685508
 31
0.0
  0
LINE
  5
E7F
330
33CA
100
AcDbEntity
  8
SIZE
 62
     0
100
AcDbLine
 10
-128.0
 20
116.4516878685508
 30
0.0
 11
128.0
 21
116.4516878685508
 31
0.0
  0
INSERT
  5
E80
330
33CA
100
AcDbEntity
  8
SIZE
 62
     0
100
AcDbBlockReference
  2
_DOTBLANK
 10
-139.9999999999998
 20
116.4516878685508
 30
0.0
 41
12.0
 42
12.0
 43
12.0
 50
180.0
  0
INSERT
  5
E81
330
33CA
100
AcDbEntity
  8
SIZE
 62
     0
100
AcDbBlockReference
  2
_DOTBLANK
 10
140.0
 20
116.4516878685508
 30
0.0
 41
12.0
 42
12.0
 43
12.0
  0
INSERT
  5
E82
330
33CA
100
AcDbEntity
  8
0
100
AcDbBlockReference
  2
*U10
 10
0.0
 20
0.0
 30
0.0
  0
POINT
  5
E83
330
33CA
100
AcDbEntity
  8
DEFPOINTS
 62
     0
100
AcDbPoint
 10
-139.9999999999998
 20
12.46448280219374
 30
0.0
  0
POINT
  5
E84
330
33CA
100
AcDbEntity
  8
DEFPOINTS
 62
     0
100
AcDbPoint
 10
140.0
 20
12.46448280219374
 30
0.0
  0
POINT
  5
E85
330
33CA
100
AcDbEntity
  8
DEFPOINTS
 62
     0
100
AcDbPoint
 10
140.0
 20
116.4516878685508
 30
0.0
  0
ENDBLK
  5
E7C
330
33CA
100
AcDbEntity
  8
0
100
AcDbBlockEnd
  0
BLOCK
  5
33CD
330
33CC
100
AcDbEntity
  8
0
100
AcDbBlockBegin
  2
*U10
 70
     1
 10
0.0
 20
0.0
 30
0.0
  3
*U10
  1

  0
TEXT
  5
1ED8
330
33CC
100
AcDbEntity
  8
SIZE
 62
     0
100
AcDbText
 10
-74.05714285714281
 20
126.4516878685508
 30
0.0
 40
64.0
  1
280
 41
0.9
100
AcDbText
  0
ENDBLK
  5
1EDA
330
33CC
100
AcDbEntity
  8
0
100
AcDbBlockEnd
  0
BLOCK
  5
33CF
330
33CE
100
AcDbEntity
  8
0
100
AcDbBlockBegin
  2
GENAXEH
 70
     0
 10
0.0
 20
0.0
 30
0.0
  3
GENAXEH
  1

  0
LINE
  5
FDB
330
33CE
100
AcDbEntity
  8
0
100
AcDbLine
 10
-1.0
 20
0.0
 30
0.0
 11
1.0
 21
0.0
 31
0.0
  0
ENDBLK
  5
FDD
330
33CE
100
AcDbEntity
  8
0
100
AcDbBlockEnd
  0
BLOCK
  5
33D1
330
33D0
100
AcDbEntity
  8
0
100
AcDbBlockBegin
  2
*D12
 70
     1
 10
0.0
 20
0.0
 30
0.0
  3
*D12
  1

  0
LINE
  5
1120
330
33D0
100
AcDbEntity
  8
SIZE
 62
     0
100
AcDbLine
 10
-157.5
 20
20.0
 30
0.0
 11
-157.5
 21
245.5794621189598
 31
0.0
  0
LINE
  5
1121
330
33D0
100
AcDbEntity
  8
SIZE
 62
     0
100
AcDbLine
 10
157.5
 20
20.0
 30
0.0
 11
157.5
 21
245.5794621189598
 31
0.0
  0
LINE
  5
1122
330
33D0
100
AcDbEntity
  8
SIZE
 62
     0
100
AcDbLine
 10
-145.5
 20
225.5794621189598
 30
0.0
 11
145.5
 21
225.5794621189598
 31
0.0
  0
INSERT
  5
1123
330
33D0
100
AcDbEntity
  8
SIZE
 62
     0
100
AcDbBlockReference
  2
_DOTBLANK
 10
-157.5
 20
225.5794621189598
 30
0.0
 41
12.0
 42
12.0
 43
12.0
 50
180.0
  0
INSERT
  5
1124
330
33D0
100
AcDbEntity
  8
SIZE
 62
     0
100
AcDbBlockReference
  2
_DOTBLANK
 10
157.5
 20
225.5794621189598
 30
0.0
 41
12.0
 42
12.0
 43
12.0
  0
INSERT
  5
1125
330
33D0
100
AcDbEntity
  8
0
100
AcDbBlockReference
  2
*U13
 10
0.0
 20
0.0
 30
0.0
  0
POINT
  5
1126
330
33D0
100
AcDbEntity
  8
DEFPOINTS
 62
     0
100
AcDbPoint
 10
-157.5
 20
0.0
 30
0.0
  0
POINT
  5
1127
330
33D0
100
AcDbEntity
  8
DEFPOINTS
 62
     0
100
AcDbPoint
 10
157.5
 20
0.0
 30
0.0
  0
POINT
  5
1128
330
33D0
100
AcDbEntity
  8
DEFPOINTS
 62
     0
100
AcDbPoint
 10
157.5
 20
225.5794621189598
 30
0.0
  0
ENDBLK
  5
111F
330
33D0
100
AcDbEntity
  8
0
100
AcDbBlockEnd
  0
BLOCK
  5
33D3
330
33D2
100
AcDbEntity
  8
0
100
AcDbBlockBegin
  2
*U13
 70
     1
 10
0.0
 20
0.0
 30
0.0
  3
*U13
  1

  0
TEXT
  5
1EDD
330
33D2
100
AcDbEntity
  8
SIZE
 62
     0
100
AcDbText
 10
-68.57142857142857
 20
235.5794621189599
 30
0.0
 40
64.0
  1
315
 41
0.9
100
AcDbText
  0
ENDBLK
  5
1EDF
330
33D2
100
AcDbEntity
  8
0
100
AcDbBlockEnd
  0
BLOCK
  5
33D5
330
33D4
100
AcDbEntity
  8
0
100
AcDbBlockBegin
  2
*D14
 70
     1
 10
0.0
 20
0.0
 30
0.0
  3
*D14
  1

  0
LINE
  5
11BD
330
33D4
100
AcDbEntity
  8
NOTE
 62
     0
100
AcDbLine
 10
-123.4999999999999
 20
-320.0
 30
0.0
 11
-123.4999999999999
 21
-354.9529861856111
 31
0.0
  0
LINE
  5
11BE
330
33D4
100
AcDbEntity
  8
NOTE
 62
     0
100
AcDbLine
 10
-133.4999999999998
 20
-331.2126909923287
 30
0.0
 11
-133.4999999999998
 21
-354.9529861856111
 31
0.0
  0
LINE
  5
11BF
330
33D4
100
AcDbEntity
  8
NOTE
 62
     0
100
AcDbLine
 10
-111.4999999999999
 20
-334.9529861856112
 30
0.0
 11
-99.4999999999999
 21
-334.9529861856112
 31
0.0
  0
LINE
  5
11C0
330
33D4
100
AcDbEntity
  8
NOTE
 62
     0
100
AcDbLine
 10
-145.4999999999998
 20
-334.9529861856112
 30
0.0
 11
-157.4999999999998
 21
-334.9529861856112
 31
0.0
  0
LINE
  5
11C1
330
33D4
100
AcDbEntity
  8
NOTE
 62
     0
100
AcDbLine
 10
-123.4999999999999
 20
-334.9529861856112
 30
0.0
 11
-133.4999999999998
 21
-334.9529861856112
 31
0.0
  0
INSERT
  5
11C2
330
33D4
100
AcDbEntity
  8
NOTE
 62
     0
100
AcDbBlockReference
  2
_DOTBLANK
 10
-123.4999999999999
 20
-334.9529861856112
 30
0.0
 41
12.0
 42
12.0
 43
12.0
 50
180.0
  0
INSERT
  5
11C3
330
33D4
100
AcDbEntity
  8
NOTE
 62
     0
100
AcDbBlockReference
  2
_DOTBLANK
 10
-133.4999999999998
 20
-334.9529861856112
 30
0.0
 41
12.0
 42
12.0
 43
12.0
  0
INSERT
  5
11C4
330
33D4
100
AcDbEntity
  8
0
100
AcDbBlockReference
  2
*U15
 10
0.0
 20
0.0
 30
0.0
  0
POINT
  5
11C5
330
33D4
100
AcDbEntity
  8
DEFPOINTS
 62
     0
100
AcDbPoint
 10
-123.4999999999999
 20
-300.0
 30
0.0
  0
POINT
  5
11C6
330
33D4
100
AcDbEntity
  8
DEFPOINTS
 62
     0
100
AcDbPoint
 10
-133.4999999999998
 20
-311.2126909923287
 30
0.0
  0
POINT
  5
11C7
330
33D4
100
AcDbEntity
  8
DEFPOINTS
 62
     0
100
AcDbPoint
 10
-133.4999999999998
 20
-334.9529861856112
 30
0.0
  0
ENDBLK
  5
11BC
330
33D4
100
AcDbEntity
  8
0
100
AcDbBlockEnd
  0
BLOCK
  5
33D7
330
33D6
100
AcDbEntity
  8
0
100
AcDbBlockBegin
  2
*U15
 70
     1
 10
0.0
 20
0.0
 30
0.0
  3
*U15
  1

  0
TEXT
  5
1EE5
330
33D6
100
AcDbEntity
  8
NOTE
 62
     0
100
AcDbText
 10
-169.642857142857
 20
-324.9529861856112
 30
0.0
 40
64.0
  1
10
 41
0.9
100
AcDbText
  0
ENDBLK
  5
1EE7
330
33D6
100
AcDbEntity
  8
0
100
AcDbBlockEnd
  0
BLOCK
  5
33D9
330
33D8
100
AcDbEntity
  8
0
100
AcDbBlockBegin
  2
*D16
 70
     1
 10
0.0
 20
0.0
 30
0.0
  3
*D16
  1

  0
LINE
  5
11E7
330
33D8
100
AcDbEntity
  8
NOTE
 62
     0
100
AcDbLine
 10
-135.5
 20
-333.2126909923287
 30
0.0
 11
-135.5
 21
-386.2569421441843
 31
0.0
  0
LINE
  5
11E8
330
33D8
100
AcDbEntity
  8
NOTE
 62
     0
100
AcDbLine
 10
-123.4999999999999
 20
-320.0
 30
0.0
 11
-123.4999999999999
 21
-386.2569421441843
 31
0.0
  0
LINE
  5
11E9
330
33D8
100
AcDbEntity
  8
NOTE
 62
     0
100
AcDbLine
 10
-147.5
 20
-366.2569421441844
 30
0.0
 11
-159.5
 21
-366.2569421441844
 31
0.0
  0
LINE
  5
11EA
330
33D8
100
AcDbEntity
  8
NOTE
 62
     0
100
AcDbLine
 10
-111.4999999999999
 20
-366.2569421441844
 30
0.0
 11
-99.4999999999999
 21
-366.2569421441844
 31
0.0
  0
LINE
  5
11EB
330
33D8
100
AcDbEntity
  8
NOTE
 62
     0
100
AcDbLine
 10
-135.5
 20
-366.2569421441844
 30
0.0
 11
-123.4999999999999
 21
-366.2569421441844
 31
0.0
  0
INSERT
  5
11EC
330
33D8
100
AcDbEntity
  8
NOTE
 62
     0
100
AcDbBlockReference
  2
_DOTBLANK
 10
-135.5
 20
-366.2569421441844
 30
0.0
 41
12.0
 42
12.0
 43
12.0
  0
INSERT
  5
11ED
330
33D8
100
AcDbEntity
  8
NOTE
 62
     0
100
AcDbBlockReference
  2
_DOTBLANK
 10
-123.4999999999999
 20
-366.2569421441844
 30
0.0
 41
12.0
 42
12.0
 43
12.0
 50
180.0
  0
INSERT
  5
11EE
330
33D8
100
AcDbEntity
  8
0
100
AcDbBlockReference
  2
*U17
 10
0.0
 20
0.0
 30
0.0
  0
POINT
  5
11EF
330
33D8
100
AcDbEntity
  8
DEFPOINTS
 62
     0
100
AcDbPoint
 10
-135.5
 20
-313.2126909923287
 30
0.0
  0
POINT
  5
11F0
330
33D8
100
AcDbEntity
  8
DEFPOINTS
 62
     0
100
AcDbPoint
 10
-123.4999999999999
 20
-300.0
 30
0.0
  0
POINT
  5
11F1
330
33D8
100
AcDbEntity
  8
DEFPOINTS
 62
     0
100
AcDbPoint
 10
-123.4999999999999
 20
-366.2569421441844
 30
0.0
  0
ENDBLK
  5
11E6
330
33D8
100
AcDbEntity
  8
0
100
AcDbBlockEnd
  0
BLOCK
  5
33DB
330
33DA
100
AcDbEntity
  8
0
100
AcDbBlockBegin
  2
*U17
 70
     1
 10
0.0
 20
0.0
 30
0.0
  3
*U17
  1

  0
TEXT
  5
1EE9
330
33DA
100
AcDbEntity
  8
NOTE
 62
     0
100
AcDbText
 10
-170.642857142857
 20
-356.2569421441843
 30
0.0
 40
64.0
  1
12
 41
0.9
100
AcDbText
  0
ENDBLK
  5
1EEB
330
33DA
100
AcDbEntity
  8
0
100
AcDbBlockEnd
  0
BLOCK
  5
33DD
330
33DC
100
AcDbEntity
  8
0
100
AcDbBlockBegin
  2
*D18
 70
     1
 10
0.0
 20
0.0
 30
0.0
  3
*D18
  1

  0
LINE
  5
11F6
330
33DC
100
AcDbEntity
  8
NOTE
 62
     0
100
AcDbLine
 10
-123.4999999999999
 20
-320.0
 30
0.0
 11
-123.4999999999999
 21
-583.8286022818904
 31
0.0
  0
LINE
  5
11F7
330
33DC
100
AcDbEntity
  8
NOTE
 62
     0
100
AcDbLine
 10
123.5
 20
-320.0
 30
0.0
 11
123.5
 21
-583.8286022818904
 31
0.0
  0
LINE
  5
11F8
330
33DC
100
AcDbEntity
  8
NOTE
 62
     0
100
AcDbLine
 10
-111.4999999999999
 20
-563.8286022818904
 30
0.0
 11
111.5
 21
-563.8286022818904
 31
0.0
  0
INSERT
  5
11F9
330
33DC
100
AcDbEntity
  8
NOTE
 62
     0
100
AcDbBlockReference
  2
_DOTBLANK
 10
-123.4999999999999
 20
-563.8286022818904
 30
0.0
 41
12.0
 42
12.0
 43
12.0
 50
180.0
  0
INSERT
  5
11FA
330
33DC
100
AcDbEntity
  8
NOTE
 62
     0
100
AcDbBlockReference
  2
_DOTBLANK
 10
123.5
 20
-563.8286022818904
 30
0.0
 41
12.0
 42
12.0
 43
12.0
  0
INSERT
  5
11FB
330
33DC
100
AcDbEntity
  8
0
100
AcDbBlockReference
  2
*U19
 10
0.0
 20
0.0
 30
0.0
  0
POINT
  5
11FC
330
33DC
100
AcDbEntity
  8
DEFPOINTS
 62
     0
100
AcDbPoint
 10
-123.4999999999999
 20
-300.0
 30
0.0
  0
POINT
  5
11FD
330
33DC
100
AcDbEntity
  8
DEFPOINTS
 62
     0
100
AcDbPoint
 10
123.5
 20
-300.0
 30
0.0
  0
POINT
  5
11FE
330
33DC
100
AcDbEntity
  8
DEFPOINTS
 62
     0
100
AcDbPoint
 10
123.5
 20
-563.8286022818904
 30
0.0
  0
ENDBLK
  5
11F5
330
33DC
100
AcDbEntity
  8
0
100
AcDbBlockEnd
  0
BLOCK
  5
33DF
330
33DE
100
AcDbEntity
  8
0
100
AcDbBlockBegin
  2
*U19
 70
     1
 10
0.0
 20
0.0
 30
0.0
  3
*U19
  1

  0
TEXT
  5
1EED
330
33DE
100
AcDbEntity
  8
NOTE
 62
     0
100
AcDbText
 10
-74.05714285714281
 20
-553.8286022818904
 30
0.0
 40
64.0
  1
247
 41
0.9
100
AcDbText
  0
ENDBLK
  5
1EEF
330
33DE
100
AcDbEntity
  8
0
100
AcDbBlockEnd
  0
BLOCK
  5
33E1
330
33E0
100
AcDbEntity
  8
0
100
AcDbBlockBegin
  2
*D20
 70
     1
 10
0.0
 20
0.0
 30
0.0
  3
*D20
  1

  0
LINE
  5
1284
330
33E0
100
AcDbEntity
  8
NOTE
 62
     0
100
AcDbLine
 10
-123.5
 20
12.0
 30
0.0
 11
-123.5
 21
71.83630134534229
 31
0.0
  0
LINE
  5
1285
330
33E0
100
AcDbEntity
  8
NOTE
 62
     0
100
AcDbLine
 10
123.5
 20
12.0
 30
0.0
 11
123.5
 21
71.83630134534229
 31
0.0
  0
LINE
  5
1286
330
33E0
100
AcDbEntity
  8
NOTE
 62
     0
100
AcDbLine
 10
-111.5
 20
51.83630134534229
 30
0.0
 11
111.5
 21
51.83630134534229
 31
0.0
  0
INSERT
  5
1287
330
33E0
100
AcDbEntity
  8
NOTE
 62
     0
100
AcDbBlockReference
  2
_DOTBLANK
 10
-123.5
 20
51.83630134534229
 30
0.0
 41
12.0
 42
12.0
 43
12.0
 50
180.0
  0
INSERT
  5
1288
330
33E0
100
AcDbEntity
  8
NOTE
 62
     0
100
AcDbBlockReference
  2
_DOTBLANK
 10
123.5
 20
51.83630134534229
 30
0.0
 41
12.0
 42
12.0
 43
12.0
  0
INSERT
  5
1289
330
33E0
100
AcDbEntity
  8
0
100
AcDbBlockReference
  2
*U21
 10
0.0
 20
0.0
 30
0.0
  0
POINT
  5
128A
330
33E0
100
AcDbEntity
  8
DEFPOINTS
 62
     0
100
AcDbPoint
 10
-123.5
 20
-8.0
 30
0.0
  0
POINT
  5
128B
330
33E0
100
AcDbEntity
  8
DEFPOINTS
 62
     0
100
AcDbPoint
 10
123.5
 20
-8.0
 30
0.0
  0
POINT
  5
128C
330
33E0
100
AcDbEntity
  8
DEFPOINTS
 62
     0
100
AcDbPoint
 10
123.5
 20
51.83630134534229
 30
0.0
  0
ENDBLK
  5
1283
330
33E0
100
AcDbEntity
  8
0
100
AcDbBlockEnd
  0
BLOCK
  5
33E3
330
33E2
100
AcDbEntity
  8
0
100
AcDbBlockBegin
  2
*U21
 70
     1
 10
0.0
 20
0.0
 30
0.0
  3
*U21
  1

  0
TEXT
  5
1EF1
330
33E2
100
AcDbEntity
  8
NOTE
 62
     0
100
AcDbText
 10
-74.05714285714283
 20
61.83630134534229
 30
0.0
 40
64.0
  1
247
 41
0.9
100
AcDbText
  0
ENDBLK
  5
1EF3
330
33E2
100
AcDbEntity
  8
0
100
AcDbBlockEnd
  0
BLOCK
  5
33E5
330
33E4
100
AcDbEntity
  8
0
100
AcDbBlockBegin
  2
*D22
 70
     1
 10
0.0
 20
0.0
 30
0.0
  3
*D22
  1

  0
LINE
  5
1414
330
33E4
100
AcDbEntity
  8
SIZE
 62
     0
100
AcDbLine
 10
-22313.11521613997
 20
7365.702971374808
 30
0.0
 11
-22313.11521613997
 21
7217.685576144207
 31
0.0
  0
LINE
  5
1415
330
33E4
100
AcDbEntity
  8
SIZE
 62
     0
100
AcDbLine
 10
-22044.11521613997
 20
7365.702971374808
 30
0.0
 11
-22044.11521613997
 21
7217.685576144207
 31
0.0
  0
LINE
  5
1416
330
33E4
100
AcDbEntity
  8
SIZE
 62
     0
100
AcDbLine
 10
-22301.11521613997
 20
7237.685576144207
 30
0.0
 11
-22056.11521613997
 21
7237.685576144207
 31
0.0
  0
INSERT
  5
1417
330
33E4
100
AcDbEntity
  8
SIZE
 62
     0
100
AcDbBlockReference
  2
_DOTBLANK
 10
-22313.11521613997
 20
7237.685576144207
 30
0.0
 41
12.0
 42
12.0
 43
12.0
 50
180.0
  0
INSERT
  5
1418
330
33E4
100
AcDbEntity
  8
SIZE
 62
     0
100
AcDbBlockReference
  2
_DOTBLANK
 10
-22044.11521613997
 20
7237.685576144207
 30
0.0
 41
12.0
 42
12.0
 43
12.0
  0
INSERT
  5
1419
330
33E4
100
AcDbEntity
  8
0
100
AcDbBlockReference
  2
*U23
 10
0.0
 20
0.0
 30
0.0
  0
POINT
  5
141A
330
33E4
100
AcDbEntity
  8
DEFPOINTS
 62
     0
100
AcDbPoint
 10
-22313.11521613997
 20
7385.702971374808
 30
0.0
  0
POINT
  5
141B
330
33E4
100
AcDbEntity
  8
DEFPOINTS
 62
     0
100
AcDbPoint
 10
-22044.11521613997
 20
7385.702971374808
 30
0.0
  0
POINT
  5
141C
330
33E4
100
AcDbEntity
  8
DEFPOINTS
 62
     0
100
AcDbPoint
 10
-22044.11521613997
 20
7237.685576144207
 30
0.0
  0
ENDBLK
  5
141D
330
33E4
100
AcDbEntity
  8
0
100
AcDbBlockEnd
  0
BLOCK
  5
33E7
330
33E6
100
AcDbEntity
  8
0
100
AcDbBlockBegin
  2
*U23
 70
     1
 10
0.0
 20
0.0
 30
0.0
  3
*U23
  1

  0
TEXT
  5
1EF9
330
33E6
100
AcDbEntity
  8
SIZE
 62
     0
100
AcDbText
 10
-22251.30093042568
 20
7247.685576144205
 30
0.0
 40
64.0
  1
269
 41
0.9
100
AcDbText
  0
ENDBLK
  5
1EFB
330
33E6
100
AcDbEntity
  8
0
100
AcDbBlockEnd
  0
BLOCK
  5
33E9
330
33E8
100
AcDbEntity
  8
0
100
AcDbBlockBegin
  2
*D24
 70
     1
 10
0.0
 20
0.0
 30
0.0
  3
*D24
  1

  0
LINE
  5
1420
330
33E8
100
AcDbEntity
  8
SIZE
  6
Continuous
 62
     0
100
AcDbLine
 10
-22035.11521613997
 20
7385.702971374808
 30
0.0
 11
-21873.97193165959
 21
7385.702971374808
 31
0.0
  0
LINE
  5
1421
330
33E8
100
AcDbEntity
  8
SIZE
  6
Continuous
 62
     0
100
AcDbLine
 10
-22001.11521613997
 20
7685.702971374808
 30
0.0
 11
-21873.97193165959
 21
7685.702971374808
 31
0.0
  0
LINE
  5
1422
330
33E8
100
AcDbEntity
  8
SIZE
  6
Continuous
 62
     0
100
AcDbLine
 10
-21893.97193165959
 20
7397.702971374808
 30
0.0
 11
-21893.97193165959
 21
7673.702971374808
 31
0.0
  0
INSERT
  5
1423
330
33E8
100
AcDbEntity
  8
SIZE
  6
Continuous
 62
     0
100
AcDbBlockReference
  2
_DOTBLANK
 10
-21893.97193165959
 20
7385.702971374808
 30
0.0
 41
12.0
 42
12.0
 43
12.0
 50
270.0
  0
INSERT
  5
1424
330
33E8
100
AcDbEntity
  8
SIZE
  6
Continuous
 62
     0
100
AcDbBlockReference
  2
_DOTBLANK
 10
-21893.97193165959
 20
7685.702971374808
 30
0.0
 41
12.0
 42
12.0
 43
12.0
 50
90.0
  0
INSERT
  5
1425
330
33E8
100
AcDbEntity
  8
0
100
AcDbBlockReference
  2
*U25
 10
0.0
 20
0.0
 30
0.0
  0
POINT
  5
1426
330
33E8
100
AcDbEntity
  8
DEFPOINTS
  6
Continuous
 62
     0
100
AcDbPoint
 10
-22055.11521613997
 20
7385.702971374808
 30
0.0
  0
POINT
  5
1427
330
33E8
100
AcDbEntity
  8
DEFPOINTS
  6
Continuous
 62
     0
100
AcDbPoint
 10
-22021.11521613997
 20
7685.702971374808
 30
0.0
  0
POINT
  5
1428
330
33E8
100
AcDbEntity
  8
DEFPOINTS
  6
Continuous
 62
     0
100
AcDbPoint
 10
-21893.97193165959
 20
7685.702971374808
 30
0.0
  0
ENDBLK
  5
1429
330
33E8
100
AcDbEntity
  8
0
100
AcDbBlockEnd
  0
BLOCK
  5
33EB
330
33EA
100
AcDbEntity
  8
0
100
AcDbBlockBegin
  2
*U25
 70
     1
 10
0.0
 20
0.0
 30
0.0
  3
*U25
  1

  0
TEXT
  5
1EFD
330
33EA
100
AcDbEntity
  8
SIZE
 62
     0
100
AcDbText
 10
-21903.97193165959
 20
7461.645828517662
 30
0.0
 40
64.0
  1
300
 50
90.0
 41
0.9
100
AcDbText
  0
ENDBLK
  5
1EFF
330
33EA
100
AcDbEntity
  8
0
100
AcDbBlockEnd
  0
BLOCK
  5
33ED
330
33EC
100
AcDbEntity
  8
0
100
AcDbBlockBegin
  2
*D26
 70
     1
 10
0.0
 20
0.0
 30
0.0
  3
*D26
  1

  0
LINE
  5
142C
330
33EC
100
AcDbEntity
  8
SIZE
 62
     0
100
AcDbLine
 10
-22318.61521613997
 20
7718.167454177002
 30
0.0
 11
-22318.61521613997
 21
7822.154659243358
 31
0.0
  0
LINE
  5
142D
330
33EC
100
AcDbEntity
  8
SIZE
 62
     0
100
AcDbLine
 10
-22038.61521613997
 20
7718.167454177002
 30
0.0
 11
-22038.61521613997
 21
7822.154659243358
 31
0.0
  0
LINE
  5
142E
330
33EC
100
AcDbEntity
  8
SIZE
 62
     0
100
AcDbLine
 10
-22306.61521613997
 20
7802.154659243358
 30
0.0
 11
-22050.61521613997
 21
7802.154659243358
 31
0.0
  0
INSERT
  5
142F
330
33EC
100
AcDbEntity
  8
SIZE
 62
     0
100
AcDbBlockReference
  2
_DOTBLANK
 10
-22318.61521613997
 20
7802.154659243358
 30
0.0
 41
12.0
 42
12.0
 43
12.0
 50
180.0
  0
INSERT
  5
1430
330
33EC
100
AcDbEntity
  8
SIZE
 62
     0
100
AcDbBlockReference
  2
_DOTBLANK
 10
-22038.61521613997
 20
7802.154659243358
 30
0.0
 41
12.0
 42
12.0
 43
12.0
  0
INSERT
  5
1431
330
33EC
100
AcDbEntity
  8
0
100
AcDbBlockReference
  2
*U27
 10
0.0
 20
0.0
 30
0.0
  0
POINT
  5
1432
330
33EC
100
AcDbEntity
  8
DEFPOINTS
 62
     0
100
AcDbPoint
 10
-22318.61521613997
 20
7698.167454177002
 30
0.0
  0
POINT
  5
1433
330
33EC
100
AcDbEntity
  8
DEFPOINTS
 62
     0
100
AcDbPoint
 10
-22038.61521613997
 20
7698.167454177002
 30
0.0
  0
POINT
  5
1434
330
33EC
100
AcDbEntity
  8
DEFPOINTS
 62
     0
100
AcDbPoint
 10
-22038.61521613997
 20
7802.154659243358
 30
0.0
  0
ENDBLK
  5
1435
330
33EC
100
AcDbEntity
  8
0
100
AcDbBlockEnd
  0
BLOCK
  5
33EF
330
33EE
100
AcDbEntity
  8
0
100
AcDbBlockBegin
  2
*U27
 70
     1
 10
0.0
 20
0.0
 30
0.0
  3
*U27
  1

  0
TEXT
  5
1F01
330
33EE
100
AcDbEntity
  8
SIZE
 62
     0
100
AcDbText
 10
-22252.6723589971
 20
7812.154659243358
 30
0.0
 40
64.0
  1
280
 41
0.9
100
AcDbText
  0
ENDBLK
  5
1F03
330
33EE
100
AcDbEntity
  8
0
100
AcDbBlockEnd
  0
BLOCK
  5
33F1
330
33F0
100
AcDbEntity
  8
0
100
AcDbBlockBegin
  2
*D28
 70
     1
 10
0.0
 20
0.0
 30
0.0
  3
*D28
  1

  0
LINE
  5
1438
330
33F0
100
AcDbEntity
  8
SIZE
 62
     0
100
AcDbLine
 10
-22336.11521613997
 20
7705.702971374808
 30
0.0
 11
-22336.11521613997
 21
7931.282433493766
 31
0.0
  0
LINE
  5
1439
330
33F0
100
AcDbEntity
  8
SIZE
 62
     0
100
AcDbLine
 10
-22021.11521613997
 20
7705.702971374808
 30
0.0
 11
-22021.11521613997
 21
7931.282433493766
 31
0.0
  0
LINE
  5
143A
330
33F0
100
AcDbEntity
  8
SIZE
 62
     0
100
AcDbLine
 10
-22324.11521613997
 20
7911.282433493766
 30
0.0
 11
-22033.11521613997
 21
7911.282433493766
 31
0.0
  0
INSERT
  5
143B
330
33F0
100
AcDbEntity
  8
SIZE
 62
     0
100
AcDbBlockReference
  2
_DOTBLANK
 10
-22336.11521613997
 20
7911.282433493766
 30
0.0
 41
12.0
 42
12.0
 43
12.0
 50
180.0
  0
INSERT
  5
143C
330
33F0
100
AcDbEntity
  8
SIZE
 62
     0
100
AcDbBlockReference
  2
_DOTBLANK
 10
-22021.11521613997
 20
7911.282433493766
 30
0.0
 41
12.0
 42
12.0
 43
12.0
  0
INSERT
  5
143D
330
33F0
100
AcDbEntity
  8
0
100
AcDbBlockReference
  2
*U29
 10
0.0
 20
0.0
 30
0.0
  0
POINT
  5
143E
330
33F0
100
AcDbEntity
  8
DEFPOINTS
 62
     0
100
AcDbPoint
 10
-22336.11521613997
 20
7685.702971374808
 30
0.0
  0
POINT
  5
143F
330
33F0
100
AcDbEntity
  8
DEFPOINTS
 62
     0
100
AcDbPoint
 10
-22021.11521613997
 20
7685.702971374808
 30
0.0
  0
POINT
  5
1440
330
33F0
100
AcDbEntity
  8
DEFPOINTS
 62
     0
100
AcDbPoint
 10
-22021.11521613997
 20
7911.282433493766
 30
0.0
  0
ENDBLK
  5
1441
330
33F0
100
AcDbEntity
  8
0
100
AcDbBlockEnd
  0
BLOCK
  5
33F3
330
33F2
100
AcDbEntity
  8
0
100
AcDbBlockBegin
  2
*U29
 70
     1
 10
0.0
 20
0.0
 30
0.0
  3
*U29
  1

  0
TEXT
  5
1F05
330
33F2
100
AcDbEntity
  8
SIZE
 62
     0
100
AcDbText
 10
-22247.18664471139
 20
7921.282433493766
 30
0.0
 40
64.0
  1
315
 41
0.9
100
AcDbText
  0
ENDBLK
  5
1F07
330
33F2
100
AcDbEntity
  8
0
100
AcDbBlockEnd
  0
BLOCK
  5
33F5
330
33F4
100
AcDbEntity
  8
0
100
AcDbBlockBegin
  2
*D30
 70
     1
 10
0.0
 20
0.0
 30
0.0
  3
*D30
  1

  0
LINE
  5
166B
330
33F4
100
AcDbEntity
  8
SIZE
 62
     0
100
AcDbLine
 10
-134.5
 20
-320.0
 30
0.0
 11
-134.5
 21
-468.0173952306001
 31
0.0
  0
LINE
  5
166C
330
33F4
100
AcDbEntity
  8
SIZE
 62
     0
100
AcDbLine
 10
134.5
 20
-320.0
 30
0.0
 11
134.5
 21
-468.0173952306001
 31
0.0
  0
LINE
  5
166D
330
33F4
100
AcDbEntity
  8
SIZE
 62
     0
100
AcDbLine
 10
-122.5
 20
-448.0173952306
 30
0.0
 11
122.5
 21
-448.0173952306
 31
0.0
  0
INSERT
  5
166E
330
33F4
100
AcDbEntity
  8
SIZE
 62
     0
100
AcDbBlockReference
  2
_DOTBLANK
 10
-134.5
 20
-448.0173952306
 30
0.0
 41
12.0
 42
12.0
 43
12.0
 50
180.0
  0
INSERT
  5
166F
330
33F4
100
AcDbEntity
  8
SIZE
 62
     0
100
AcDbBlockReference
  2
_DOTBLANK
 10
134.5
 20
-448.0173952306
 30
0.0
 41
12.0
 42
12.0
 43
12.0
  0
INSERT
  5
1670
330
33F4
100
AcDbEntity
  8
0
100
AcDbBlockReference
  2
*U31
 10
0.0
 20
0.0
 30
0.0
  0
POINT
  5
1671
330
33F4
100
AcDbEntity
  8
DEFPOINTS
 62
     0
100
AcDbPoint
 10
-134.5
 20
-300.0
 30
0.0
  0
POINT
  5
1672
330
33F4
100
AcDbEntity
  8
DEFPOINTS
 62
     0
100
AcDbPoint
 10
134.5
 20
-300.0
 30
0.0
  0
POINT
  5
1673
330
33F4
100
AcDbEntity
  8
DEFPOINTS
 62
     0
100
AcDbPoint
 10
134.5
 20
-448.0173952306
 30
0.0
  0
ENDBLK
  5
14A7
330
33F4
100
AcDbEntity
  8
0
100
AcDbBlockEnd
  0
BLOCK
  5
33F7
330
33F6
100
AcDbEntity
  8
0
100
AcDbBlockBegin
  2
*U31
 70
     1
 10
0.0
 20
0.0
 30
0.0
  3
*U31
  1

  0
TEXT
  5
1F09
330
33F6
100
AcDbEntity
  8
SIZE
 62
     0
100
AcDbText
 10
-72.68571428571426
 20
-438.0173952306002
 30
0.0
 40
64.0
  1
269
 41
0.9
100
AcDbText
  0
ENDBLK
  5
1F0B
330
33F6
100
AcDbEntity
  8
0
100
AcDbBlockEnd
  0
BLOCK
  5
33F9
330
33F8
100
AcDbEntity
  8
0
100
AcDbBlockBegin
  2
*D32
 70
     1
 10
0.0
 20
0.0
 30
0.0
  3
*D32
  1

  0
LINE
  5
1674
330
33F8
100
AcDbEntity
  8
SIZE
  6
Continuous
 62
     0
100
AcDbLine
 10
143.5
 20
-300.0
 30
0.0
 11
304.6432844803784
 21
-300.0
 31
0.0
  0
LINE
  5
1675
330
33F8
100
AcDbEntity
  8
SIZE
  6
Continuous
 62
     0
100
AcDbLine
 10
177.5
 20
-0.0000000000000057
 30
0.0
 11
304.6432844803785
 21
-0.0000000000000417
 31
0.0
  0
LINE
  5
1676
330
33F8
100
AcDbEntity
  8
SIZE
  6
Continuous
 62
     0
100
AcDbLine
 10
284.6432844803784
 20
-288.0000000000001
 30
0.0
 11
284.6432844803785
 21
-12.00000000000003
 31
0.0
  0
INSERT
  5
1677
330
33F8
100
AcDbEntity
  8
SIZE
  6
Continuous
 62
     0
100
AcDbBlockReference
  2
_DOTBLANK
 10
284.6432844803784
 20
-300.0
 30
0.0
 41
12.0
 42
12.0
 43
12.0
 50
270.0
  0
INSERT
  5
1678
330
33F8
100
AcDbEntity
  8
SIZE
  6
Continuous
 62
     0
100
AcDbBlockReference
  2
_DOTBLANK
 10
284.6432844803785
 20
-0.000000000000036
 30
0.0
 41
12.0
 42
12.0
 43
12.0
 50
90.0
  0
INSERT
  5
1679
330
33F8
100
AcDbEntity
  8
0
100
AcDbBlockReference
  2
*U33
 10
0.0
 20
0.0
 30
0.0
  0
POINT
  5
167A
330
33F8
100
AcDbEntity
  8
DEFPOINTS
  6
Continuous
 62
     0
100
AcDbPoint
 10
123.5
 20
-300.0
 30
0.0
  0
POINT
  5
167B
330
33F8
100
AcDbEntity
  8
DEFPOINTS
  6
Continuous
 62
     0
100
AcDbPoint
 10
157.5
 20
0.0
 30
0.0
  0
POINT
  5
167C
330
33F8
100
AcDbEntity
  8
DEFPOINTS
  6
Continuous
 62
     0
100
AcDbPoint
 10
284.6432844803785
 20
-0.000000000000036
 30
0.0
  0
ENDBLK
  5
14B3
330
33F8
100
AcDbEntity
  8
0
100
AcDbBlockEnd
  0
BLOCK
  5
33FB
330
33FA
100
AcDbEntity
  8
0
100
AcDbBlockBegin
  2
*U33
 70
     1
 10
0.0
 20
0.0
 30
0.0
  3
*U33
  1

  0
TEXT
  5
1F0D
330
33FA
100
AcDbEntity
  8
SIZE
 62
     0
100
AcDbText
 10
274.6432844803785
 20
-224.0571428571429
 30
0.0
 40
64.0
  1
300
 50
90.0
 41
0.9
100
AcDbText
  0
ENDBLK
  5
1F0F
330
33FA
100
AcDbEntity
  8
0
100
AcDbBlockEnd
  0
BLOCK
  5
33FD
330
33FC
100
AcDbEntity
  8
0
100
AcDbBlockBegin
  2
*D34
 70
     1
 10
0.0
 20
0.0
 30
0.0
  3
*D34
  1

  0
LINE
  5
167D
330
33FC
100
AcDbEntity
  8
SIZE
 62
     0
100
AcDbLine
 10
-140.0
 20
32.46448280219375
 30
0.0
 11
-140.0
 21
136.4516878685507
 31
0.0
  0
LINE
  5
167E
330
33FC
100
AcDbEntity
  8
SIZE
 62
     0
100
AcDbLine
 10
140.0
 20
32.46448280219375
 30
0.0
 11
140.0
 21
136.4516878685507
 31
0.0
  0
LINE
  5
167F
330
33FC
100
AcDbEntity
  8
SIZE
 62
     0
100
AcDbLine
 10
-128.0
 20
116.4516878685508
 30
0.0
 11
128.0
 21
116.4516878685508
 31
0.0
  0
INSERT
  5
1680
330
33FC
100
AcDbEntity
  8
SIZE
 62
     0
100
AcDbBlockReference
  2
_DOTBLANK
 10
-140.0
 20
116.4516878685508
 30
0.0
 41
12.0
 42
12.0
 43
12.0
 50
180.0
  0
INSERT
  5
1681
330
33FC
100
AcDbEntity
  8
SIZE
 62
     0
100
AcDbBlockReference
  2
_DOTBLANK
 10
140.0
 20
116.4516878685508
 30
0.0
 41
12.0
 42
12.0
 43
12.0
  0
INSERT
  5
1682
330
33FC
100
AcDbEntity
  8
0
100
AcDbBlockReference
  2
*U35
 10
0.0
 20
0.0
 30
0.0
  0
POINT
  5
1683
330
33FC
100
AcDbEntity
  8
DEFPOINTS
 62
     0
100
AcDbPoint
 10
-140.0
 20
12.46448280219374
 30
0.0
  0
POINT
  5
1684
330
33FC
100
AcDbEntity
  8
DEFPOINTS
 62
     0
100
AcDbPoint
 10
140.0
 20
12.46448280219374
 30
0.0
  0
POINT
  5
1685
330
33FC
100
AcDbEntity
  8
DEFPOINTS
 62
     0
100
AcDbPoint
 10
140.0
 20
116.4516878685508
 30
0.0
  0
ENDBLK
  5
14BF
330
33FC
100
AcDbEntity
  8
0
100
AcDbBlockEnd
  0
BLOCK
  5
33FF
330
33FE
100
AcDbEntity
  8
0
100
AcDbBlockBegin
  2
*U35
 70
     1
 10
0.0
 20
0.0
 30
0.0
  3
*U35
  1

  0
TEXT
  5
1F11
330
33FE
100
AcDbEntity
  8
SIZE
 62
     0
100
AcDbText
 10
-74.05714285714283
 20
126.4516878685507
 30
0.0
 40
64.0
  1
280
 41
0.9
100
AcDbText
  0
ENDBLK
  5
1F13
330
33FE
100
AcDbEntity
  8
0
100
AcDbBlockEnd
  0
BLOCK
  5
3401
330
3400
100
AcDbEntity
  8
0
100
AcDbBlockBegin
  2
*D36
 70
     1
 10
0.0
 20
0.0
 30
0.0
  3
*D36
  1

  0
LINE
  5
1686
330
3400
100
AcDbEntity
  8
SIZE
 62
     0
100
AcDbLine
 10
-157.5
 20
20.0
 30
0.0
 11
-157.5
 21
245.5794621189598
 31
0.0
  0
LINE
  5
1687
330
3400
100
AcDbEntity
  8
SIZE
 62
     0
100
AcDbLine
 10
157.5
 20
20.0
 30
0.0
 11
157.5
 21
245.5794621189598
 31
0.0
  0
LINE
  5
1688
330
3400
100
AcDbEntity
  8
SIZE
 62
     0
100
AcDbLine
 10
-145.5
 20
225.5794621189598
 30
0.0
 11
145.5
 21
225.5794621189598
 31
0.0
  0
INSERT
  5
1689
330
3400
100
AcDbEntity
  8
SIZE
 62
     0
100
AcDbBlockReference
  2
_DOTBLANK
 10
-157.5
 20
225.5794621189598
 30
0.0
 41
12.0
 42
12.0
 43
12.0
 50
180.0
  0
INSERT
  5
168A
330
3400
100
AcDbEntity
  8
SIZE
 62
     0
100
AcDbBlockReference
  2
_DOTBLANK
 10
157.5
 20
225.5794621189598
 30
0.0
 41
12.0
 42
12.0
 43
12.0
  0
INSERT
  5
168B
330
3400
100
AcDbEntity
  8
0
100
AcDbBlockReference
  2
*U37
 10
0.0
 20
0.0
 30
0.0
  0
POINT
  5
168C
330
3400
100
AcDbEntity
  8
DEFPOINTS
 62
     0
100
AcDbPoint
 10
-157.5
 20
0.0
 30
0.0
  0
POINT
  5
168D
330
3400
100
AcDbEntity
  8
DEFPOINTS
 62
     0
100
AcDbPoint
 10
157.5
 20
0.0
 30
0.0
  0
POINT
  5
168E
330
3400
100
AcDbEntity
  8
DEFPOINTS
 62
     0
100
AcDbPoint
 10
157.5
 20
225.5794621189598
 30
0.0
  0
ENDBLK
  5
14CB
330
3400
100
AcDbEntity
  8
0
100
AcDbBlockEnd
  0
BLOCK
  5
3403
330
3402
100
AcDbEntity
  8
0
100
AcDbBlockBegin
  2
*U37
 70
     1
 10
0.0
 20
0.0
 30
0.0
  3
*U37
  1

  0
TEXT
  5
1F15
330
3402
100
AcDbEntity
  8
SIZE
 62
     0
100
AcDbText
 10
-68.57142857142857
 20
235.5794621189598
 30
0.0
 40
64.0
  1
315
 41
0.9
100
AcDbText
  0
ENDBLK
  5
1F17
330
3402
100
AcDbEntity
  8
0
100
AcDbBlockEnd
  0
BLOCK
  5
3405
330
3404
100
AcDbEntity
  8
0
100
AcDbBlockBegin
  2
*U38
 70
     1
 10
0.0
 20
0.0
 30
0.0
  3
*U38
  1

  0
ENDBLK
  5
15CF
330
3404
100
AcDbEntity
  8
0
100
AcDbBlockEnd
  0
BLOCK
  5
3407
330
3406
100
AcDbEntity
  8
0
100
AcDbBlockBegin
  2
*D39
 70
     1
 10
0.0
 20
0.0
 30
0.0
  3
*D39
  1

  0
LINE
  5
1692
330
3406
100
AcDbEntity
  8
SIZE
 62
     0
100
AcDbLine
 10
-25844.51823276502
 20
7685.702971374808
 30
0.0
 11
-25981.04465488371
 21
7685.702971374808
 31
0.0
  0
LINE
  5
1693
330
3406
100
AcDbEntity
  8
SIZE
 62
     0
100
AcDbLine
 10
-25844.51823276502
 20
7677.702971374808
 30
0.0
 11
-25981.04465488371
 21
7677.702971374808
 31
0.0
  0
LINE
  5
1694
330
3406
100
AcDbEntity
  8
SIZE
 62
     0
100
AcDbLine
 10
-25961.04465488371
 20
7697.702971374808
 30
0.0
 11
-25961.04465488371
 21
7709.702971374809
 31
0.0
  0
LINE
  5
1695
330
3406
100
AcDbEntity
  8
SIZE
 62
     0
100
AcDbLine
 10
-25961.04465488371
 20
7665.70297137481
 30
0.0
 11
-25961.04465488371
 21
7595.302971374808
 31
0.0
  0
INSERT
  5
1696
330
3406
100
AcDbEntity
  8
SIZE
 62
     0
100
AcDbBlockReference
  2
_DOTBLANK
 10
-25961.04465488371
 20
7685.702971374808
 30
0.0
 41
12.0
 42
12.0
 43
12.0
 50
270.0
  0
INSERT
  5
1697
330
3406
100
AcDbEntity
  8
SIZE
 62
     0
100
AcDbBlockReference
  2
_DOTBLANK
 10
-25961.04465488371
 20
7677.702971374808
 30
0.0
 41
12.0
 42
12.0
 43
12.0
 50
90.0
  0
INSERT
  5
1698
330
3406
100
AcDbEntity
  8
0
100
AcDbBlockReference
  2
*U40
 10
0.0
 20
0.0
 30
0.0
  0
POINT
  5
1699
330
3406
100
AcDbEntity
  8
DEFPOINTS
 62
     0
100
AcDbPoint
 10
-25824.51823276501
 20
7685.702971374808
 30
0.0
  0
POINT
  5
169A
330
3406
100
AcDbEntity
  8
DEFPOINTS
 62
     0
100
AcDbPoint
 10
-25824.51823276501
 20
7677.702971374808
 30
0.0
  0
POINT
  5
169B
330
3406
100
AcDbEntity
  8
DEFPOINTS
 62
     0
100
AcDbPoint
 10
-25961.04465488371
 20
7677.702971374808
 30
0.0
  0
ENDBLK
  5
169C
330
3406
100
AcDbEntity
  8
0
100
AcDbBlockEnd
  0
BLOCK
  5
3409
330
3408
100
AcDbEntity
  8
0
100
AcDbBlockBegin
  2
*U40
 70
     1
 10
0.0
 20
0.0
 30
0.0
  3
*U40
  1

  0
TEXT
  5
1F19
330
3408
100
AcDbEntity
  8
SIZE
 62
     0
100
AcDbText
 10
-25971.04465488371
 20
7605.302971374804
 30
0.0
 40
64.0
  1
8
 50
90.0
 41
0.9
100
AcDbText
  0
ENDBLK
  5
1F1B
330
3408
100
AcDbEntity
  8
0
100
AcDbBlockEnd
  0
BLOCK
  5
340B
330
340A
100
AcDbEntity
  8
0
100
AcDbBlockBegin
  2
*D41
 70
     1
 10
0.0
 20
0.0
 30
0.0
  3
*D41
  1

  0
LINE
  5
169F
330
340A
100
AcDbEntity
  8
SIZE
 62
     0
100
AcDbLine
 10
-25512.51823276502
 20
7385.702971374808
 30
0.0
 11
-25362.37494828464
 21
7385.702971374808
 31
0.0
  0
LINE
  5
16A0
330
340A
100
AcDbEntity
  8
SIZE
 62
     0
100
AcDbLine
 10
-25523.51823276501
 20
7373.702971374808
 30
0.0
 11
-25362.37494828464
 21
7373.702971374808
 31
0.0
  0
LINE
  5
16A1
330
340A
100
AcDbEntity
  8
SIZE
 62
     0
100
AcDbLine
 10
-25382.37494828464
 20
7397.702971374808
 30
0.0
 11
-25382.37494828464
 21
7409.70297137481
 31
0.0
  0
LINE
  5
16A2
330
340A
100
AcDbEntity
  8
SIZE
 62
     0
100
AcDbLine
 10
-25382.37494828464
 20
7361.702971374808
 30
0.0
 11
-25382.37494828464
 21
7244.674399946237
 31
0.0
  0
INSERT
  5
16A3
330
340A
100
AcDbEntity
  8
SIZE
 62
     0
100
AcDbBlockReference
  2
_DOTBLANK
 10
-25382.37494828464
 20
7385.702971374808
 30
0.0
 41
12.0
 42
12.0
 43
12.0
 50
270.0
  0
INSERT
  5
16A4
330
340A
100
AcDbEntity
  8
SIZE
 62
     0
100
AcDbBlockReference
  2
_DOTBLANK
 10
-25382.37494828464
 20
7373.702971374808
 30
0.0
 41
12.0
 42
12.0
 43
12.0
 50
90.0
  0
INSERT
  5
16A5
330
340A
100
AcDbEntity
  8
0
100
AcDbBlockReference
  2
*U42
 10
0.0
 20
0.0
 30
0.0
  0
POINT
  5
16A6
330
340A
100
AcDbEntity
  8
DEFPOINTS
 62
     0
100
AcDbPoint
 10
-25532.51823276502
 20
7385.702971374808
 30
0.0
  0
POINT
  5
16A7
330
340A
100
AcDbEntity
  8
DEFPOINTS
 62
     0
100
AcDbPoint
 10
-25543.51823276502
 20
7373.702971374808
 30
0.0
  0
POINT
  5
16A8
330
340A
100
AcDbEntity
  8
DEFPOINTS
 62
     0
100
AcDbPoint
 10
-25382.37494828464
 20
7373.702971374808
 30
0.0
  0
ENDBLK
  5
16A9
330
340A
100
AcDbEntity
  8
0
100
AcDbBlockEnd
  0
BLOCK
  5
340D
330
340C
100
AcDbEntity
  8
0
100
AcDbBlockBegin
  2
*U42
 70
     1
 10
0.0
 20
0.0
 30
0.0
  3
*U42
  1

  0
TEXT
  5
1F1D
330
340C
100
AcDbEntity
  8
SIZE
 62
     0
100
AcDbText
 10
-25392.37494828464
 20
7256.045828517662
 30
0.0
 40
64.0
  1
12
 50
90.0
 41
0.9
100
AcDbText
  0
ENDBLK
  5
1F1F
330
340C
100
AcDbEntity
  8
0
100
AcDbBlockEnd
  0
BLOCK
  5
340F
330
340E
100
AcDbEntity
  8
0
100
AcDbBlockBegin
  2
*D43
 70
     1
 10
0.0
 20
0.0
 30
0.0
  3
*D43
  1

  0
LINE
  5
16AC
330
340E
100
AcDbEntity
  8
SIZE
 62
     0
100
AcDbLine
 10
-25801.51823276501
 20
7365.702971374808
 30
0.0
 11
-25801.51823276501
 21
7217.685576144207
 31
0.0
  0
LINE
  5
16AD
330
340E
100
AcDbEntity
  8
SIZE
 62
     0
100
AcDbLine
 10
-25532.51823276502
 20
7365.702971374808
 30
0.0
 11
-25532.51823276502
 21
7217.685576144207
 31
0.0
  0
LINE
  5
16AE
330
340E
100
AcDbEntity
  8
SIZE
 62
     0
100
AcDbLine
 10
-25789.51823276502
 20
7237.685576144207
 30
0.0
 11
-25544.51823276501
 21
7237.685576144207
 31
0.0
  0
INSERT
  5
16AF
330
340E
100
AcDbEntity
  8
SIZE
 62
     0
100
AcDbBlockReference
  2
_DOTBLANK
 10
-25801.51823276501
 20
7237.685576144207
 30
0.0
 41
12.0
 42
12.0
 43
12.0
 50
180.0
  0
INSERT
  5
16B0
330
340E
100
AcDbEntity
  8
SIZE
 62
     0
100
AcDbBlockReference
  2
_DOTBLANK
 10
-25532.51823276502
 20
7237.685576144207
 30
0.0
 41
12.0
 42
12.0
 43
12.0
  0
INSERT
  5
16B1
330
340E
100
AcDbEntity
  8
0
100
AcDbBlockReference
  2
*U44
 10
0.0
 20
0.0
 30
0.0
  0
POINT
  5
16B2
330
340E
100
AcDbEntity
  8
DEFPOINTS
 62
     0
100
AcDbPoint
 10
-25801.51823276501
 20
7385.702971374808
 30
0.0
  0
POINT
  5
16B3
330
340E
100
AcDbEntity
  8
DEFPOINTS
 62
     0
100
AcDbPoint
 10
-25532.51823276502
 20
7385.702971374808
 30
0.0
  0
POINT
  5
16B4
330
340E
100
AcDbEntity
  8
DEFPOINTS
 62
     0
100
AcDbPoint
 10
-25532.51823276502
 20
7237.685576144207
 30
0.0
  0
ENDBLK
  5
16B5
330
340E
100
AcDbEntity
  8
0
100
AcDbBlockEnd
  0
BLOCK
  5
3411
330
3410
100
AcDbEntity
  8
0
100
AcDbBlockBegin
  2
*U44
 70
     1
 10
0.0
 20
0.0
 30
0.0
  3
*U44
  1

  0
TEXT
  5
1F21
330
3410
100
AcDbEntity
  8
SIZE
 62
     0
100
AcDbText
 10
-25739.70394705074
 20
7247.685576144205
 30
0.0
 40
64.0
  1
269
 41
0.9
100
AcDbText
  0
ENDBLK
  5
1F23
330
3410
100
AcDbEntity
  8
0
100
AcDbBlockEnd
  0
BLOCK
  5
3413
330
3412
100
AcDbEntity
  8
0
100
AcDbBlockBegin
  2
*D45
 70
     1
 10
0.0
 20
0.0
 30
0.0
  3
*D45
  1

  0
LINE
  5
16B8
330
3412
100
AcDbEntity
  8
SIZE
 62
     0
100
AcDbLine
 10
-25512.51823276502
 20
7385.702971374808
 30
0.0
 11
-25362.37494828464
 21
7385.702971374808
 31
0.0
  0
LINE
  5
16B9
330
3412
100
AcDbEntity
  8
SIZE
 62
     0
100
AcDbLine
 10
-25489.51823276501
 20
7685.702971374808
 30
0.0
 11
-25362.37494828464
 21
7685.702971374808
 31
0.0
  0
LINE
  5
16BA
330
3412
100
AcDbEntity
  8
SIZE
 62
     0
100
AcDbLine
 10
-25382.37494828464
 20
7397.702971374808
 30
0.0
 11
-25382.37494828464
 21
7673.702971374808
 31
0.0
  0
INSERT
  5
16BB
330
3412
100
AcDbEntity
  8
SIZE
 62
     0
100
AcDbBlockReference
  2
_DOTBLANK
 10
-25382.37494828464
 20
7385.702971374808
 30
0.0
 41
12.0
 42
12.0
 43
12.0
 50
270.0
  0
INSERT
  5
16BC
330
3412
100
AcDbEntity
  8
SIZE
 62
     0
100
AcDbBlockReference
  2
_DOTBLANK
 10
-25382.37494828464
 20
7685.702971374808
 30
0.0
 41
12.0
 42
12.0
 43
12.0
 50
90.0
  0
INSERT
  5
16BD
330
3412
100
AcDbEntity
  8
0
100
AcDbBlockReference
  2
*U46
 10
0.0
 20
0.0
 30
0.0
  0
POINT
  5
16BE
330
3412
100
AcDbEntity
  8
DEFPOINTS
 62
     0
100
AcDbPoint
 10
-25532.51823276502
 20
7385.702971374808
 30
0.0
  0
POINT
  5
16BF
330
3412
100
AcDbEntity
  8
DEFPOINTS
 62
     0
100
AcDbPoint
 10
-25509.51823276502
 20
7685.702971374808
 30
0.0
  0
POINT
  5
16C0
330
3412
100
AcDbEntity
  8
DEFPOINTS
 62
     0
100
AcDbPoint
 10
-25382.37494828464
 20
7685.702971374808
 30
0.0
  0
ENDBLK
  5
16C1
330
3412
100
AcDbEntity
  8
0
100
AcDbBlockEnd
  0
BLOCK
  5
3415
330
3414
100
AcDbEntity
  8
0
100
AcDbBlockBegin
  2
*U46
 70
     1
 10
0.0
 20
0.0
 30
0.0
  3
*U46
  1

  0
TEXT
  5
1F25
330
3414
100
AcDbEntity
  8
SIZE
 62
     0
100
AcDbText
 10
-25392.37494828464
 20
7461.645828517662
 30
0.0
 40
64.0
  1
300
 50
90.0
 41
0.9
100
AcDbText
  0
ENDBLK
  5
1F27
330
3414
100
AcDbEntity
  8
0
100
AcDbBlockEnd
  0
BLOCK
  5
3417
330
3416
100
AcDbEntity
  8
0
100
AcDbBlockBegin
  2
*D47
 70
     1
 10
0.0
 20
0.0
 30
0.0
  3
*D47
  1

  0
LINE
  5
16C4
330
3416
100
AcDbEntity
  8
SIZE
 62
     0
100
AcDbLine
 10
-25807.01823276501
 20
7718.167454177002
 30
0.0
 11
-25807.01823276501
 21
7822.154659243358
 31
0.0
  0
LINE
  5
16C5
330
3416
100
AcDbEntity
  8
SIZE
 62
     0
100
AcDbLine
 10
-25527.01823276501
 20
7718.167454177002
 30
0.0
 11
-25527.01823276501
 21
7822.154659243358
 31
0.0
  0
LINE
  5
16C6
330
3416
100
AcDbEntity
  8
SIZE
 62
     0
100
AcDbLine
 10
-25795.01823276502
 20
7802.154659243358
 30
0.0
 11
-25539.01823276501
 21
7802.154659243358
 31
0.0
  0
INSERT
  5
16C7
330
3416
100
AcDbEntity
  8
SIZE
 62
     0
100
AcDbBlockReference
  2
_DOTBLANK
 10
-25807.01823276501
 20
7802.154659243358
 30
0.0
 41
12.0
 42
12.0
 43
12.0
 50
180.0
  0
INSERT
  5
16C8
330
3416
100
AcDbEntity
  8
SIZE
 62
     0
100
AcDbBlockReference
  2
_DOTBLANK
 10
-25527.01823276501
 20
7802.154659243358
 30
0.0
 41
12.0
 42
12.0
 43
12.0
  0
INSERT
  5
16C9
330
3416
100
AcDbEntity
  8
0
100
AcDbBlockReference
  2
*U48
 10
0.0
 20
0.0
 30
0.0
  0
POINT
  5
16CA
330
3416
100
AcDbEntity
  8
DEFPOINTS
 62
     0
100
AcDbPoint
 10
-25807.01823276501
 20
7698.167454177002
 30
0.0
  0
POINT
  5
16CB
330
3416
100
AcDbEntity
  8
DEFPOINTS
 62
     0
100
AcDbPoint
 10
-25527.01823276501
 20
7698.167454177002
 30
0.0
  0
POINT
  5
16CC
330
3416
100
AcDbEntity
  8
DEFPOINTS
 62
     0
100
AcDbPoint
 10
-25527.01823276501
 20
7802.154659243358
 30
0.0
  0
ENDBLK
  5
16CD
330
3416
100
AcDbEntity
  8
0
100
AcDbBlockEnd
  0
BLOCK
  5
3419
330
3418
100
AcDbEntity
  8
0
100
AcDbBlockBegin
  2
*U48
 70
     1
 10
0.0
 20
0.0
 30
0.0
  3
*U48
  1

  0
TEXT
  5
1F29
330
3418
100
AcDbEntity
  8
SIZE
 62
     0
100
AcDbText
 10
-25741.07537562216
 20
7812.154659243358
 30
0.0
 40
64.0
  1
280
 41
0.9
100
AcDbText
  0
ENDBLK
  5
1F2B
330
3418
100
AcDbEntity
  8
0
100
AcDbBlockEnd
  0
BLOCK
  5
341B
330
341A
100
AcDbEntity
  8
0
100
AcDbBlockBegin
  2
*D49
 70
     1
 10
0.0
 20
0.0
 30
0.0
  3
*D49
  1

  0
LINE
  5
16D0
330
341A
100
AcDbEntity
  8
SIZE
 62
     0
100
AcDbLine
 10
-25824.51823276501
 20
7705.702971374808
 30
0.0
 11
-25824.51823276501
 21
7931.282433493766
 31
0.0
  0
LINE
  5
16D1
330
341A
100
AcDbEntity
  8
SIZE
 62
     0
100
AcDbLine
 10
-25509.51823276502
 20
7705.702971374808
 30
0.0
 11
-25509.51823276502
 21
7931.282433493766
 31
0.0
  0
LINE
  5
16D2
330
341A
100
AcDbEntity
  8
SIZE
 62
     0
100
AcDbLine
 10
-25812.51823276502
 20
7911.282433493766
 30
0.0
 11
-25521.51823276501
 21
7911.282433493766
 31
0.0
  0
INSERT
  5
16D3
330
341A
100
AcDbEntity
  8
SIZE
 62
     0
100
AcDbBlockReference
  2
_DOTBLANK
 10
-25824.51823276501
 20
7911.282433493766
 30
0.0
 41
12.0
 42
12.0
 43
12.0
 50
180.0
  0
INSERT
  5
16D4
330
341A
100
AcDbEntity
  8
SIZE
 62
     0
100
AcDbBlockReference
  2
_DOTBLANK
 10
-25509.51823276502
 20
7911.282433493766
 30
0.0
 41
12.0
 42
12.0
 43
12.0
  0
INSERT
  5
16D5
330
341A
100
AcDbEntity
  8
0
100
AcDbBlockReference
  2
*U50
 10
0.0
 20
0.0
 30
0.0
  0
POINT
  5
16D6
330
341A
100
AcDbEntity
  8
DEFPOINTS
 62
     0
100
AcDbPoint
 10
-25824.51823276501
 20
7685.702971374808
 30
0.0
  0
POINT
  5
16D7
330
341A
100
AcDbEntity
  8
DEFPOINTS
 62
     0
100
AcDbPoint
 10
-25509.51823276502
 20
7685.702971374808
 30
0.0
  0
POINT
  5
16D8
330
341A
100
AcDbEntity
  8
DEFPOINTS
 62
     0
100
AcDbPoint
 10
-25509.51823276502
 20
7911.282433493766
 30
0.0
  0
ENDBLK
  5
16D9
330
341A
100
AcDbEntity
  8
0
100
AcDbBlockEnd
  0
BLOCK
  5
341D
330
341C
100
AcDbEntity
  8
0
100
AcDbBlockBegin
  2
*U50
 70
     1
 10
0.0
 20
0.0
 30
0.0
  3
*U50
  1

  0
TEXT
  5
1F2D
330
341C
100
AcDbEntity
  8
SIZE
 62
     0
100
AcDbText
 10
-25735.58966133645
 20
7921.282433493766
 30
0.0
 40
64.0
  1
315
 41
0.9
100
AcDbText
  0
ENDBLK
  5
1F2F
330
341C
100
AcDbEntity
  8
0
100
AcDbBlockEnd
  0
BLOCK
  5
341F
330
341E
100
AcDbEntity
  8
0
100
AcDbBlockBegin
  2
*D51
 70
     1
 10
0.0
 20
0.0
 30
0.0
  3
*D51
  1

  0
LINE
  5
1D83
330
341E
100
AcDbEntity
  8
SIZE
 62
     0
100
AcDbLine
 10
-134.5
 20
-320.0
 30
0.0
 11
-134.5
 21
-468.0173952306001
 31
0.0
  0
LINE
  5
1D84
330
341E
100
AcDbEntity
  8
SIZE
 62
     0
100
AcDbLine
 10
134.5
 20
-320.0
 30
0.0
 11
134.5
 21
-468.0173952306001
 31
0.0
  0
LINE
  5
1D85
330
341E
100
AcDbEntity
  8
SIZE
 62
     0
100
AcDbLine
 10
-122.5
 20
-448.0173952306
 30
0.0
 11
122.5
 21
-448.0173952306
 31
0.0
  0
INSERT
  5
1D86
330
341E
100
AcDbEntity
  8
SIZE
 62
     0
100
AcDbBlockReference
  2
_DOTBLANK
 10
-134.5
 20
-448.0173952306
 30
0.0
 41
12.0
 42
12.0
 43
12.0
 50
180.0
  0
INSERT
  5
1D87
330
341E
100
AcDbEntity
  8
SIZE
 62
     0
100
AcDbBlockReference
  2
_DOTBLANK
 10
134.5
 20
-448.0173952306
 30
0.0
 41
12.0
 42
12.0
 43
12.0
  0
INSERT
  5
1D88
330
341E
100
AcDbEntity
  8
0
100
AcDbBlockReference
  2
*U52
 10
0.0
 20
0.0
 30
0.0
  0
POINT
  5
1D89
330
341E
100
AcDbEntity
  8
DEFPOINTS
 62
     0
100
AcDbPoint
 10
-134.5
 20
-300.0
 30
0.0
  0
POINT
  5
1D8A
330
341E
100
AcDbEntity
  8
DEFPOINTS
 62
     0
100
AcDbPoint
 10
134.5
 20
-300.0
 30
0.0
  0
POINT
  5
1D8B
330
341E
100
AcDbEntity
  8
DEFPOINTS
 62
     0
100
AcDbPoint
 10
134.5
 20
-448.0173952306
 30
0.0
  0
ENDBLK
  5
173D
330
341E
100
AcDbEntity
  8
0
100
AcDbBlockEnd
  0
BLOCK
  5
3421
330
3420
100
AcDbEntity
  8
0
100
AcDbBlockBegin
  2
*U52
 70
     1
 10
0.0
 20
0.0
 30
0.0
  3
*U52
  1

  0
TEXT
  5
1F31
330
3420
100
AcDbEntity
  8
SIZE
 62
     0
100
AcDbText
 10
-72.68571428571426
 20
-438.0173952306003
 30
0.0
 40
64.0
  1
269
 41
0.9
100
AcDbText
  0
ENDBLK
  5
1F33
330
3420
100
AcDbEntity
  8
0
100
AcDbBlockEnd
  0
BLOCK
  5
3423
330
3422
100
AcDbEntity
  8
0
100
AcDbBlockBegin
  2
*D53
 70
     1
 10
0.0
 20
0.0
 30
0.0
  3
*D53
  1

  0
LINE
  5
1D8C
330
3422
100
AcDbEntity
  8
SIZE
 62
     0
100
AcDbLine
 10
154.5
 20
-300.0
 30
0.0
 11
304.6432844803784
 21
-300.0
 31
0.0
  0
LINE
  5
1D8D
330
3422
100
AcDbEntity
  8
SIZE
 62
     0
100
AcDbLine
 10
177.5
 20
-0.0000000000000057
 30
0.0
 11
304.6432844803785
 21
-0.0000000000000417
 31
0.0
  0
LINE
  5
1D8E
330
3422
100
AcDbEntity
  8
SIZE
 62
     0
100
AcDbLine
 10
284.6432844803784
 20
-288.0
 30
0.0
 11
284.6432844803785
 21
-12.00000000000003
 31
0.0
  0
INSERT
  5
1D8F
330
3422
100
AcDbEntity
  8
SIZE
 62
     0
100
AcDbBlockReference
  2
_DOTBLANK
 10
284.6432844803784
 20
-300.0
 30
0.0
 41
12.0
 42
12.0
 43
12.0
 50
270.0
  0
INSERT
  5
1D90
330
3422
100
AcDbEntity
  8
SIZE
 62
     0
100
AcDbBlockReference
  2
_DOTBLANK
 10
284.6432844803785
 20
-0.000000000000036
 30
0.0
 41
12.0
 42
12.0
 43
12.0
 50
90.0
  0
INSERT
  5
1D91
330
3422
100
AcDbEntity
  8
0
100
AcDbBlockReference
  2
*U54
 10
0.0
 20
0.0
 30
0.0
  0
POINT
  5
1D92
330
3422
100
AcDbEntity
  8
DEFPOINTS
 62
     0
100
AcDbPoint
 10
134.5
 20
-300.0
 30
0.0
  0
POINT
  5
1D93
330
3422
100
AcDbEntity
  8
DEFPOINTS
 62
     0
100
AcDbPoint
 10
157.5
 20
0.0
 30
0.0
  0
POINT
  5
1D94
330
3422
100
AcDbEntity
  8
DEFPOINTS
 62
     0
100
AcDbPoint
 10
284.6432844803785
 20
-0.000000000000036
 30
0.0
  0
ENDBLK
  5
1749
330
3422
100
AcDbEntity
  8
0
100
AcDbBlockEnd
  0
BLOCK
  5
3425
330
3424
100
AcDbEntity
  8
0
100
AcDbBlockBegin
  2
*U54
 70
     1
 10
0.0
 20
0.0
 30
0.0
  3
*U54
  1

  0
TEXT
  5
1F35
330
3424
100
AcDbEntity
  8
SIZE
 62
     0
100
AcDbText
 10
274.6432844803785
 20
-224.0571428571429
 30
0.0
 40
64.0
  1
300
 50
90.0
 41
0.9
100
AcDbText
  0
ENDBLK
  5
1F37
330
3424
100
AcDbEntity
  8
0
100
AcDbBlockEnd
  0
BLOCK
  5
3427
330
3426
100
AcDbEntity
  8
0
100
AcDbBlockBegin
  2
*D55
 70
     1
 10
0.0
 20
0.0
 30
0.0
  3
*D55
  1

  0
LINE
  5
1D95
330
3426
100
AcDbEntity
  8
SIZE
 62
     0
100
AcDbLine
 10
-140.0
 20
32.46448280219375
 30
0.0
 11
-140.0
 21
136.4516878685508
 31
0.0
  0
LINE
  5
1D96
330
3426
100
AcDbEntity
  8
SIZE
 62
     0
100
AcDbLine
 10
140.0
 20
32.46448280219375
 30
0.0
 11
140.0
 21
136.4516878685508
 31
0.0
  0
LINE
  5
1D97
330
3426
100
AcDbEntity
  8
SIZE
 62
     0
100
AcDbLine
 10
-128.0
 20
116.4516878685508
 30
0.0
 11
128.0
 21
116.4516878685508
 31
0.0
  0
INSERT
  5
1D98
330
3426
100
AcDbEntity
  8
SIZE
 62
     0
100
AcDbBlockReference
  2
_DOTBLANK
 10
-140.0
 20
116.4516878685508
 30
0.0
 41
12.0
 42
12.0
 43
12.0
 50
180.0
  0
INSERT
  5
1D99
330
3426
100
AcDbEntity
  8
SIZE
 62
     0
100
AcDbBlockReference
  2
_DOTBLANK
 10
140.0
 20
116.4516878685508
 30
0.0
 41
12.0
 42
12.0
 43
12.0
  0
INSERT
  5
1D9A
330
3426
100
AcDbEntity
  8
0
100
AcDbBlockReference
  2
*U56
 10
0.0
 20
0.0
 30
0.0
  0
POINT
  5
1D9B
330
3426
100
AcDbEntity
  8
DEFPOINTS
 62
     0
100
AcDbPoint
 10
-140.0
 20
12.46448280219374
 30
0.0
  0
POINT
  5
1D9C
330
3426
100
AcDbEntity
  8
DEFPOINTS
 62
     0
100
AcDbPoint
 10
140.0
 20
12.46448280219374
 30
0.0
  0
POINT
  5
1D9D
330
3426
100
AcDbEntity
  8
DEFPOINTS
 62
     0
100
AcDbPoint
 10
140.0
 20
116.4516878685508
 30
0.0
  0
ENDBLK
  5
1755
330
3426
100
AcDbEntity
  8
0
100
AcDbBlockEnd
  0
BLOCK
  5
3429
330
3428
100
AcDbEntity
  8
0
100
AcDbBlockBegin
  2
*U56
 70
     1
 10
0.0
 20
0.0
 30
0.0
  3
*U56
  1

  0
TEXT
  5
1F39
330
3428
100
AcDbEntity
  8
SIZE
 62
     0
100
AcDbText
 10
-74.05714285714283
 20
126.4516878685508
 30
0.0
 40
64.0
  1
280
 41
0.9
100
AcDbText
  0
ENDBLK
  5
1F3B
330
3428
100
AcDbEntity
  8
0
100
AcDbBlockEnd
  0
BLOCK
  5
342B
330
342A
100
AcDbEntity
  8
0
100
AcDbBlockBegin
  2
*D57
 70
     1
 10
0.0
 20
0.0
 30
0.0
  3
*D57
  1

  0
LINE
  5
1D9E
330
342A
100
AcDbEntity
  8
SIZE
 62
     0
100
AcDbLine
 10
-157.5
 20
20.0
 30
0.0
 11
-157.5
 21
245.5794621189598
 31
0.0
  0
LINE
  5
1D9F
330
342A
100
AcDbEntity
  8
SIZE
 62
     0
100
AcDbLine
 10
157.5
 20
20.0
 30
0.0
 11
157.5
 21
245.5794621189598
 31
0.0
  0
LINE
  5
1DA0
330
342A
100
AcDbEntity
  8
SIZE
 62
     0
100
AcDbLine
 10
-145.5
 20
225.5794621189598
 30
0.0
 11
145.5
 21
225.5794621189598
 31
0.0
  0
INSERT
  5
1DA1
330
342A
100
AcDbEntity
  8
SIZE
 62
     0
100
AcDbBlockReference
  2
_DOTBLANK
 10
-157.5
 20
225.5794621189598
 30
0.0
 41
12.0
 42
12.0
 43
12.0
 50
180.0
  0
INSERT
  5
1DA2
330
342A
100
AcDbEntity
  8
SIZE
 62
     0
100
AcDbBlockReference
  2
_DOTBLANK
 10
157.5
 20
225.5794621189598
 30
0.0
 41
12.0
 42
12.0
 43
12.0
  0
INSERT
  5
1DA3
330
342A
100
AcDbEntity
  8
0
100
AcDbBlockReference
  2
*U58
 10
0.0
 20
0.0
 30
0.0
  0
POINT
  5
1DA4
330
342A
100
AcDbEntity
  8
DEFPOINTS
 62
     0
100
AcDbPoint
 10
-157.5
 20
0.0
 30
0.0
  0
POINT
  5
1DA5
330
342A
100
AcDbEntity
  8
DEFPOINTS
 62
     0
100
AcDbPoint
 10
157.5
 20
0.0
 30
0.0
  0
POINT
  5
1DA6
330
342A
100
AcDbEntity
  8
DEFPOINTS
 62
     0
100
AcDbPoint
 10
157.5
 20
225.5794621189598
 30
0.0
  0
ENDBLK
  5
1761
330
342A
100
AcDbEntity
  8
0
100
AcDbBlockEnd
  0
BLOCK
  5
342D
330
342C
100
AcDbEntity
  8
0
100
AcDbBlockBegin
  2
*U58
 70
     1
 10
0.0
 20
0.0
 30
0.0
  3
*U58
  1

  0
TEXT
  5
1F3D
330
342C
100
AcDbEntity
  8
SIZE
 62
     0
100
AcDbText
 10
-68.57142857142857
 20
235.5794621189599
 30
0.0
 40
64.0
  1
315
 41
0.9
100
AcDbText
  0
ENDBLK
  5
1F3F
330
342C
100
AcDbEntity
  8
0
100
AcDbBlockEnd
  0
BLOCK
  5
342F
330
342E
100
AcDbEntity
  8
0
100
AcDbBlockBegin
  2
*D59
 70
     1
 10
0.0
 20
0.0
 30
0.0
  3
*D59
  1

  0
LINE
  5
1DA7
330
342E
100
AcDbEntity
  8
SIZE
 62
     0
100
AcDbLine
 10
-177.5
 20
0.0000000000000057
 30
0.0
 11
-314.0264221186908
 21
0.0000000000000443
 31
0.0
  0
LINE
  5
1DA8
330
342E
100
AcDbEntity
  8
SIZE
 62
     0
100
AcDbLine
 10
-177.5
 20
-7.999999999999993
 30
0.0
 11
-314.0264221186908
 21
-7.999999999999958
 31
0.0
  0
LINE
  5
1DA9
330
342E
100
AcDbEntity
  8
SIZE
 62
     0
100
AcDbLine
 10
-294.0264221186908
 20
12.00000000000003
 30
0.0
 11
-294.0264221186908
 21
24.00000000000004
 31
0.0
  0
LINE
  5
1DAA
330
342E
100
AcDbEntity
  8
SIZE
 62
     0
100
AcDbLine
 10
-294.0264221186908
 20
-19.99999999999996
 30
0.0
 11
-294.0264221186908
 21
-90.39999999999997
 31
0.0
  0
INSERT
  5
1DAB
330
342E
100
AcDbEntity
  8
SIZE
 62
     0
100
AcDbBlockReference
  2
_DOTBLANK
 10
-294.0264221186908
 20
0.0000000000000387
 30
0.0
 41
12.0
 42
12.0
 43
12.0
 50
270.0
  0
INSERT
  5
1DAC
330
342E
100
AcDbEntity
  8
SIZE
 62
     0
100
AcDbBlockReference
  2
_DOTBLANK
 10
-294.0264221186908
 20
-7.999999999999961
 30
0.0
 41
12.0
 42
12.0
 43
12.0
 50
90.0
  0
INSERT
  5
1DAD
330
342E
100
AcDbEntity
  8
0
100
AcDbBlockReference
  2
*U60
 10
0.0
 20
0.0
 30
0.0
  0
POINT
  5
1DAE
330
342E
100
AcDbEntity
  8
DEFPOINTS
 62
     0
100
AcDbPoint
 10
-157.5
 20
0.0
 30
0.0
  0
POINT
  5
1DAF
330
342E
100
AcDbEntity
  8
DEFPOINTS
 62
     0
100
AcDbPoint
 10
-157.5
 20
-8.000000000000003
 30
0.0
  0
POINT
  5
1DB0
330
342E
100
AcDbEntity
  8
DEFPOINTS
 62
     0
100
AcDbPoint
 10
-294.0264221186908
 20
-7.999999999999961
 30
0.0
  0
ENDBLK
  5
176D
330
342E
100
AcDbEntity
  8
0
100
AcDbBlockEnd
  0
BLOCK
  5
3431
330
3430
100
AcDbEntity
  8
0
100
AcDbBlockBegin
  2
*U60
 70
     1
 10
0.0
 20
0.0
 30
0.0
  3
*U60
  1

  0
TEXT
  5
1F41
330
3430
100
AcDbEntity
  8
SIZE
 62
     0
100
AcDbText
 10
-304.0264221186908
 20
-80.4
 30
0.0
 40
64.0
  1
8
 50
90.0
 41
0.9
100
AcDbText
  0
ENDBLK
  5
1F43
330
3430
100
AcDbEntity
  8
0
100
AcDbBlockEnd
  0
BLOCK
  5
3433
330
3432
100
AcDbEntity
  8
0
100
AcDbBlockBegin
  2
*D61
 70
     1
 10
0.0
 20
0.0
 30
0.0
  3
*D61
  1

  0
LINE
  5
1DB1
330
3432
100
AcDbEntity
  8
SIZE
 62
     0
100
AcDbLine
 10
154.5
 20
-300.0
 30
0.0
 11
304.6432844803785
 21
-300.0
 31
0.0
  0
LINE
  5
1DB2
330
3432
100
AcDbEntity
  8
SIZE
 62
     0
100
AcDbLine
 10
143.5
 20
-312.0
 30
0.0
 11
304.6432844803785
 21
-312.0
 31
0.0
  0
LINE
  5
1DB3
330
3432
100
AcDbEntity
  8
SIZE
 62
     0
100
AcDbLine
 10
284.6432844803785
 20
-288.0
 30
0.0
 11
284.6432844803785
 21
-276.0
 31
0.0
  0
LINE
  5
1DB4
330
3432
100
AcDbEntity
  8
SIZE
 62
     0
100
AcDbLine
 10
284.6432844803785
 20
-324.0000000000001
 30
0.0
 11
284.6432844803784
 21
-438.2857142857143
 31
0.0
  0
INSERT
  5
1DB5
330
3432
100
AcDbEntity
  8
SIZE
 62
     0
100
AcDbBlockReference
  2
_DOTBLANK
 10
284.6432844803785
 20
-300.0
 30
0.0
 41
12.0
 42
12.0
 43
12.0
 50
270.0
  0
INSERT
  5
1DB6
330
3432
100
AcDbEntity
  8
SIZE
 62
     0
100
AcDbBlockReference
  2
_DOTBLANK
 10
284.6432844803785
 20
-312.0
 30
0.0
 41
12.0
 42
12.0
 43
12.0
 50
90.0
  0
INSERT
  5
1DB7
330
3432
100
AcDbEntity
  8
0
100
AcDbBlockReference
  2
*U62
 10
0.0
 20
0.0
 30
0.0
  0
POINT
  5
1DB8
330
3432
100
AcDbEntity
  8
DEFPOINTS
 62
     0
100
AcDbPoint
 10
134.5
 20
-300.0
 30
0.0
  0
POINT
  5
1DB9
330
3432
100
AcDbEntity
  8
DEFPOINTS
 62
     0
100
AcDbPoint
 10
123.5
 20
-312.0
 30
0.0
  0
POINT
  5
1DBA
330
3432
100
AcDbEntity
  8
DEFPOINTS
 62
     0
100
AcDbPoint
 10
284.6432844803785
 20
-312.0
 30
0.0
  0
ENDBLK
  5
177B
330
3432
100
AcDbEntity
  8
0
100
AcDbBlockEnd
  0
BLOCK
  5
3435
330
3434
100
AcDbEntity
  8
0
100
AcDbBlockBegin
  2
*U62
 70
     1
 10
0.0
 20
0.0
 30
0.0
  3
*U62
  1

  0
TEXT
  5
1F45
330
3434
100
AcDbEntity
  8
SIZE
 62
     0
100
AcDbText
 10
274.6432844803785
 20
-428.2857142857142
 30
0.0
 40
64.0
  1
12
 50
90.0
 41
0.9
100
AcDbText
  0
ENDBLK
  5
1F47
330
3434
100
AcDbEntity
  8
0
100
AcDbBlockEnd
  0
BLOCK
  5
3437
330
3436
100
AcDbEntity
  8
0
100
AcDbBlockBegin
  2
*U63
 70
     1
 10
0.0
 20
0.0
 30
0.0
  3
*U63
  1

  0
ENDBLK
  5
1D57
330
3436
100
AcDbEntity
  8
0
100
AcDbBlockEnd
  0
BLOCK
  5
3439
330
3438
100
AcDbEntity
  8
0
100
AcDbBlockBegin
  2
*U64
 70
     1
 10
0.0
 20
0.0
 30
0.0
  3
*U64
  1

  0
INSERT
  5
2088
330
3438
100
AcDbEntity
  8
NOTE
100
AcDbBlockReference
  2
_OPEN30
 10
-140.0
 20
0.0
 30
0.0
 41
12.0
 42
12.0
 43
12.0
 50
312.6090116116894
  0
POLYLINE
  5
2089
330
3438
100
AcDbEntity
  8
NOTE
100
AcDb2dPolyline
 66
     1
 10
0.0
 20
0.0
 30
0.0
  0
VERTEX
  5
2124
330
2089
100
AcDbEntity
  8
NOTE
100
AcDbVertex
100
AcDb2dVertex
 10
-148.1239008361894
 20
8.831887408915472
 30
0.0
  0
VERTEX
  5
2125
330
2089
100
AcDbEntity
  8
NOTE
100
AcDbVertex
100
AcDb2dVertex
 10
-227.8693999922543
 20
95.52709505801338
 30
0.0
  0
VERTEX
  5
2126
330
2089
100
AcDbEntity
  8
NOTE
100
AcDbVertex
100
AcDb2dVertex
 10
-773.7093999922541
 20
95.52709505801338
 30
0.0
  0
SEQEND
  5
2127
330
2089
100
AcDbEntity
  8
NOTE
  0
ENDBLK
  5
208A
330
3438
100
AcDbEntity
  8
0
100
AcDbBlockEnd
  0
BLOCK
  5
343B
330
343A
100
AcDbEntity
  8
0
100
AcDbBlockBegin
  2
*U65
 70
     1
 10
0.0
 20
0.0
 30
0.0
  3
*U65
  1

  0
TEXT
  5
208D
330
343A
100
AcDbEntity
  8
NOTE
100
AcDbText
 10
-773.7093999922541
 20
113.5270950580134
 30
0.0
 40
64.0
  1
4×φ10取付穴
 41
0.9
100
AcDbText
  0
ENDBLK
  5
208E
330
343A
100
AcDbEntity
  8
0
100
AcDbBlockEnd
  0
ENDSEC
  0
SECTION
  2
ENTITIES
  0
TEXT
  5
953
330
336B
100
AcDbEntity
  8
OUTLINE
  6
Continuous
 62
     3
100
AcDbText
 10
-418.231467
 20
13.715189
 30
0.0
 40
64.0
  1
 
 41
0.9
100
AcDbText
  0
TEXT
  5
954
330
336B
100
AcDbEntity
  8
OUTLINE
  6
Continuous
 62
     3
100
AcDbText
 10
-418.231467
 20
13.715189
 30
0.0
 40
64.0
  1
 
 41
0.9
100
AcDbText
  0
TEXT
  5
955
330
336B
100
AcDbEntity
  8
OUTLINE
  6
Continuous
 62
     3
100
AcDbText
 10
1341.41903
 20
-706.0588199999997
 30
0.0
 40
64.0
  1
 
 41
0.9
100
AcDbText
  0
TEXT
  5
956
330
336B
100
AcDbEntity
  8
OUTLINE
  6
Continuous
 62
     3
100
AcDbText
 10
1341.41903
 20
-706.0588199999997
 30
0.0
 40
64.0
  1
 
 41
0.9
100
AcDbText
  0
TEXT
  5
957
330
336B
100
AcDbEntity
  8
OUTLINE
  6
Continuous
 62
     3
100
AcDbText
 10
1341.41903
 20
-706.0588199999997
 30
0.0
 40
64.0
  1
 
 41
0.9
100
AcDbText
  0
TEXT
  5
958
330
336B
100
AcDbEntity
  8
OUTLINE
  6
Continuous
 62
     3
100
AcDbText
 10
1341.41903
 20
-706.0588199999997
 30
0.0
 40
64.0
  1
 
 41
0.9
100
AcDbText
  0
TEXT
  5
2D2A
330
336B
100
AcDbEntity
  8
ETC
100
AcDbText
 10
399.7971854408444
 20
502.4786356938957
 30
0.0
 40
64.0
  1
システム部材
 41
0.9
100
AcDbText
  0
TEXT
  5
2D2B
330
336B
100
AcDbEntity
  8
ETC
100
AcDbText
 10
406.0051834408421
 20
603.361961693895
 30
0.0
 40
64.0
  1
MD-40T_3
 41
0.9
100
AcDbText
  0
POINT
  5
2D2C
330
336B
100
AcDbEntity
  8
ARRANGE
100
AcDbPoint
 10
0.0
 20
0.0
 30
0.0
 39
50.0
  0
CIRCLE
  5
2D2D
330
336B
100
AcDbEntity
  8
ARRANGE
100
AcDbCircle
 10
0.0
 20
0.0
 30
0.0
 40
40.0
  0
LINE
  5
2D2E
330
336B
100
AcDbEntity
  8
BASIS
100
AcDbLine
 10
0.0
 20
-280.0
 30
0.0
 11
0.0
 21
280.0
 31
0.0
  0
LINE
  5
2D2F
330
336B
100
AcDbEntity
  8
DETAIL
100
AcDbLine
 10
-62.75
 20
-101.3499999999998
 30
0.0
 11
-62.75
 21
-101.75
 31
0.0
  0
LINE
  5
2D30
330
336B
100
AcDbEntity
  8
DETAIL
100
AcDbLine
 10
-61.75
 20
-101.3499999999998
 30
0.0
 11
-62.75
 21
-101.3499999999998
 31
0.0
  0
LINE
  5
2D31
330
336B
100
AcDbEntity
  8
DETAIL
100
AcDbLine
 10
-28.75
 20
-101.3499999999998
 30
0.0
 11
-61.75
 21
-101.3499999999998
 31
0.0
  0
LINE
  5
2D32
330
336B
100
AcDbEntity
  8
DETAIL
100
AcDbLine
 10
-30.09999999999855
 20
-80.49999999999954
 30
0.0
 11
-30.09999999999855
 21
-105.4999999999995
 31
0.0
  0
LINE
  5
2D33
330
336B
100
AcDbEntity
  8
DETAIL
100
AcDbLine
 10
-78.39999999999962
 20
-105.4999999999995
 30
0.0
 11
-136.6999999999989
 21
-105.4999999999995
 31
0.0
  0
LINE
  5
2D34
330
336B
100
AcDbEntity
  8
DETAIL
100
AcDbLine
 10
-30.09999999999855
 20
-105.4999999999995
 30
0.0
 11
-58.39999999999964
 21
-105.4999999999995
 31
0.0
  0
LINE
  5
2D35
330
336B
100
AcDbEntity
  8
DETAIL
100
AcDbLine
 10
-136.6999999999989
 20
-105.4999999999995
 30
0.0
 11
-136.6999999999989
 21
-118.9999999999995
 31
0.0
  0
LINE
  5
2D36
330
336B
100
AcDbEntity
  8
DETAIL
100
AcDbLine
 10
-136.6999999999989
 20
-129.4999999999995
 30
0.0
 11
-78.39999999999962
 21
-129.4999999999995
 31
0.0
  0
LINE
  5
2D37
330
336B
100
AcDbEntity
  8
DETAIL
100
AcDbLine
 10
1.0
 20
-129.4999999999995
 30
0.0
 11
6.100000000000362
 21
-129.4999999999995
 31
0.0
  0
LINE
  5
2D38
330
336B
100
AcDbEntity
  8
DETAIL
100
AcDbLine
 10
-1.5
 20
-129.4999999999995
 30
0.0
 11
-0.5
 21
-129.4999999999995
 31
0.0
  0
LINE
  5
2D39
330
336B
100
AcDbEntity
  8
DETAIL
100
AcDbLine
 10
21.5
 20
-80.49999999999954
 30
0.0
 11
21.5
 21
-129.4999999999995
 31
0.0
  0
LINE
  5
2D3A
330
336B
100
AcDbEntity
  8
DETAIL
100
AcDbLine
 10
-30.09999999999855
 20
-80.49999999999954
 30
0.0
 11
21.5
 21
-80.49999999999954
 31
0.0
  0
LINE
  5
2D3B
330
336B
100
AcDbEntity
  8
DETAIL
100
AcDbLine
 10
-136.6999999999989
 20
-119.9999999999995
 30
0.0
 11
-136.6999999999989
 21
-118.9999999999995
 31
0.0
  0
LINE
  5
2D3C
330
336B
100
AcDbEntity
  8
DETAIL
100
AcDbLine
 10
-136.6999999999989
 20
-119.9999999999995
 30
0.0
 11
-136.6999999999989
 21
-128.4999999999995
 31
0.0
  0
LINE
  5
2D3D
330
336B
100
AcDbEntity
  8
DETAIL
100
AcDbLine
 10
-136.6999999999989
 20
-129.4999999999995
 30
0.0
 11
-136.6999999999989
 21
-128.4999999999995
 31
0.0
  0
LINE
  5
2D3E
330
336B
100
AcDbEntity
  8
DETAIL
100
AcDbLine
 10
-6.399999999999636
 20
-129.4999999999995
 30
0.0
 11
-1.5
 21
-129.4999999999995
 31
0.0
  0
LINE
  5
2D3F
330
336B
100
AcDbEntity
  8
DETAIL
100
AcDbLine
 10
-0.5
 20
-153.9788966268234
 30
0.0
 11
-0.5
 21
-97.40099359567558
 31
0.0
  0
LINE
  5
2D40
330
336B
100
AcDbEntity
  8
DETAIL
100
AcDbLine
 10
-0.5
 20
-153.9788966268234
 30
0.0
 11
1.0
 21
-153.9788966268234
 31
0.0
  0
LINE
  5
2D41
330
336B
100
AcDbEntity
  8
DETAIL
100
AcDbLine
 10
-0.5
 20
-97.40099359567558
 30
0.0
 11
1.0
 21
-97.40099359567558
 31
0.0
  0
LINE
  5
2D42
330
336B
100
AcDbEntity
  8
DETAIL
100
AcDbLine
 10
1.0
 20
-141.5
 30
0.0
 11
1.0
 21
-97.40099359567558
 31
0.0
  0
ARC
  5
2D43
330
336B
100
AcDbEntity
  8
DETAIL
100
AcDbCircle
 10
126.5
 20
-195.5
 30
0.0
 40
2.5
100
AcDbArc
 50
270.0
 51
0.0
  0
ARC
  5
2D44
330
336B
100
AcDbEntity
  8
DETAIL
100
AcDbCircle
 10
126.5
 20
-179.4999999999994
 30
0.0
 40
2.5
100
AcDbArc
 50
0.0
 51
90.0
  0
ARC
  5
2D45
330
336B
100
AcDbEntity
  8
DETAIL
100
AcDbCircle
 10
129.3999999999996
 20
-192.2999999999997
 30
0.0
 40
0.3
100
AcDbArc
 50
270.0
 51
0.0
  0
ARC
  5
2D46
330
336B
100
AcDbEntity
  8
DETAIL
100
AcDbCircle
 10
129.3999999999996
 20
-182.6999999999997
 30
0.0
 40
0.3
100
AcDbArc
 50
0.0
 51
90.0
  0
LINE
  5
2D47
330
336B
100
AcDbEntity
  8
DETAIL
100
AcDbLine
 10
129.0
 20
-195.5
 30
0.0
 11
129.0
 21
-179.4999999999994
 31
0.0
  0
LINE
  5
2D48
330
336B
100
AcDbEntity
  8
DETAIL
100
AcDbLine
 10
129.7000000000007
 20
-192.2999999999997
 30
0.0
 11
129.7000000000007
 21
-182.6999999999997
 31
0.0
  0
LINE
  5
2D49
330
336B
100
AcDbEntity
  8
DETAIL
100
AcDbLine
 10
126.0
 20
-176.9999999999994
 30
0.0
 11
126.5
 21
-176.9999999999994
 31
0.0
  0
LINE
  5
2D4A
330
336B
100
AcDbEntity
  8
DETAIL
100
AcDbLine
 10
126.0
 20
-197.9999999999994
 30
0.0
 11
126.5
 21
-197.9999999999994
 31
0.0
  0
LINE
  5
2D4B
330
336B
100
AcDbEntity
  8
DETAIL
100
AcDbLine
 10
129.0
 20
-182.3999999999996
 30
0.0
 11
129.3999999999996
 21
-182.3999999999996
 31
0.0
  0
LINE
  5
2D4C
330
336B
100
AcDbEntity
  8
DETAIL
100
AcDbLine
 10
129.0
 20
-192.5999999999999
 30
0.0
 11
129.3999999999996
 21
-192.5999999999999
 31
0.0
  0
LINE
  5
2D4D
330
336B
100
AcDbEntity
  8
DETAIL
100
AcDbLine
 10
126.0
 20
-129.5
 30
0.0
 11
126.0
 21
-207.5
 31
0.0
  0
LINE
  5
2D4E
330
336B
100
AcDbEntity
  8
DETAIL
100
AcDbLine
 10
125.4000000000014
 20
-129.5
 30
0.0
 11
126.0
 21
-129.5
 31
0.0
  0
LINE
  5
2D4F
330
336B
100
AcDbEntity
  8
DETAIL
100
AcDbLine
 10
6.700000000000727
 20
-129.5
 30
0.0
 11
125.4000000000014
 21
-129.5
 31
0.0
  0
LINE
  5
2D50
330
336B
100
AcDbEntity
  8
DETAIL
100
AcDbLine
 10
6.100000000000362
 20
-129.5
 30
0.0
 11
6.700000000000727
 21
-129.5
 31
0.0
  0
LINE
  5
2D51
330
336B
100
AcDbEntity
  8
DETAIL
100
AcDbLine
 10
1.0
 20
-141.5
 30
0.0
 11
1.0
 21
-207.5
 31
0.0
  0
LINE
  5
2D52
330
336B
100
AcDbEntity
  8
DETAIL
100
AcDbLine
 10
-196.25
 20
138.5999999999999
 30
0.0
 11
197.5
 21
138.5999999999999
 31
0.0
  0
LINE
  5
2D53
330
336B
100
AcDbEntity
  8
DETAIL
100
AcDbLine
 10
-196.25
 20
149.0
 30
0.0
 11
-196.25
 21
167.0
 31
0.0
  0
LINE
  5
2D54
330
336B
100
AcDbEntity
  8
DETAIL
100
AcDbLine
 10
-197.5
 20
205.0
 30
0.0
 11
197.5
 21
205.0
 31
0.0
  0
LINE
  5
2D55
330
336B
100
AcDbEntity
  8
DETAIL
100
AcDbLine
 10
-196.25
 20
135.0
 30
0.0
 11
197.5
 21
135.0
 31
0.0
  0
LINE
  5
2D56
330
336B
100
AcDbEntity
  8
DETAIL
100
AcDbLine
 10
-196.25
 20
3.599999999998999
 30
0.0
 11
197.5
 21
3.599999999998999
 31
0.0
  0
LINE
  5
2D57
330
336B
100
AcDbEntity
  8
DETAIL
100
AcDbLine
 10
-196.25
 20
69.99999999999909
 30
0.0
 11
197.5
 21
69.99999999999909
 31
0.0
  0
LINE
  5
2D58
330
336B
100
AcDbEntity
  8
DETAIL
100
AcDbLine
 10
-196.25
 20
-0.0000000000009095
 30
0.0
 11
197.5
 21
-0.0000000000009095
 31
0.0
  0
LINE
  5
2D59
330
336B
100
AcDbEntity
  8
DETAIL
100
AcDbLine
 10
-199.25
 20
167.0
 30
0.0
 11
-197.75
 21
167.0
 31
0.0
  0
LINE
  5
2D5A
330
336B
100
AcDbEntity
  8
DETAIL
100
AcDbLine
 10
-196.25
 20
-123.0
 30
0.0
 11
-196.25
 21
73.0
 31
0.0
  0
LINE
  5
2D5B
330
336B
100
AcDbEntity
  8
DETAIL
100
AcDbLine
 10
-196.25
 20
73.0
 30
0.0
 11
-196.25
 21
167.0
 31
0.0
  0
LINE
  5
2D5C
330
336B
100
AcDbEntity
  8
DETAIL
100
AcDbLine
 10
-196.25
 20
167.0
 30
0.0
 11
-197.75
 21
167.0
 31
0.0
  0
LINE
  5
2D5D
330
336B
100
AcDbEntity
  8
DETAIL
100
AcDbLine
 10
-197.75
 20
73.0
 30
0.0
 11
-197.75
 21
167.0
 31
0.0
  0
LINE
  5
2D5E
330
336B
100
AcDbEntity
  8
DETAIL
100
AcDbLine
 10
-197.75
 20
-123.0
 30
0.0
 11
-197.75
 21
73.0
 31
0.0
  0
LINE
  5
2D5F
330
336B
100
AcDbEntity
  8
DETAIL
100
AcDbLine
 10
-196.25
 20
-123.0
 30
0.0
 11
-204.25
 21
-123.0
 31
0.0
  0
LINE
  5
2D60
330
336B
100
AcDbEntity
  8
DETAIL
100
AcDbLine
 10
-199.25
 20
167.0
 30
0.0
 11
-204.25
 21
167.0
 31
0.0
  0
LINE
  5
2D61
330
336B
100
AcDbEntity
  8
DETAIL
100
AcDbLine
 10
-204.25
 20
73.0
 30
0.0
 11
-204.25
 21
167.0
 31
0.0
  0
LINE
  5
2D62
330
336B
100
AcDbEntity
  8
DETAIL
100
AcDbLine
 10
-204.25
 20
-123.0
 30
0.0
 11
-204.25
 21
73.0
 31
0.0
  0
LINE
  5
2D63
330
336B
100
AcDbEntity
  8
DETAIL
100
AcDbLine
 10
-207.5
 20
207.5
 30
0.0
 11
-207.5
 21
207.5
 31
0.0
  0
LINE
  5
2D64
330
336B
100
AcDbEntity
  8
DETAIL
100
AcDbLine
 10
-207.5
 20
207.5
 30
0.0
 11
207.5
 21
207.5
 31
0.0
  0
LINE
  5
2D65
330
336B
100
AcDbEntity
  8
DETAIL
100
AcDbLine
 10
207.5
 20
207.5
 30
0.0
 11
207.5
 21
207.5
 31
0.0
  0
LINE
  5
2D66
330
336B
100
AcDbEntity
  8
DETAIL
100
AcDbLine
 10
-207.5
 20
255.0
 30
0.0
 11
207.5
 21
255.0
 31
0.0
  0
LINE
  5
2D67
330
336B
100
AcDbEntity
  8
DETAIL
100
AcDbLine
 10
207.5
 20
-207.5
 30
0.0
 11
-207.5
 21
-207.5
 31
0.0
  0
LINE
  5
2D68
330
336B
100
AcDbEntity
  8
DETAIL
100
AcDbLine
 10
207.5
 20
-255.0
 30
0.0
 11
-207.5
 21
-255.0
 31
0.0
  0
LINE
  5
2D69
330
336B
100
AcDbEntity
  8
DETAIL
100
AcDbLine
 10
1.0
 20
-199.0
 30
0.0
 11
-197.5
 21
-199.0
 31
0.0
  0
LINE
  5
2D6A
330
336B
100
AcDbEntity
  8
DETAIL
100
AcDbLine
 10
197.5
 20
-199.0
 30
0.0
 11
173.608354572807
 21
-199.0
 31
0.0
  0
LINE
  5
2D6B
330
336B
100
AcDbEntity
  8
DETAIL
100
AcDbLine
 10
164.4884142216524
 20
-199.0
 30
0.0
 11
126.0
 21
-199.0
 31
0.0
  0
ARC
  5
2D6C
330
336B
100
AcDbEntity
  8
DETAIL
100
AcDbCircle
 10
245.0
 20
245.0
 30
0.0
 40
9.999999999999998
100
AcDbArc
 50
0.0
 51
90.0
  0
ARC
  5
2D6D
330
336B
100
AcDbEntity
  8
DETAIL
100
AcDbCircle
 10
245.0
 20
-245.0
 30
0.0
 40
9.999999999999998
100
AcDbArc
 50
270.0
 51
0.0
  0
CIRCLE
  5
2D6E
330
336B
100
AcDbEntity
  8
FIX
100
AcDbCircle
 10
230.0
 20
230.0
 30
0.0
 40
7.5
  0
CIRCLE
  5
2D6F
330
336B
100
AcDbEntity
  8
FIX
100
AcDbCircle
 10
230.0
 20
-230.0
 30
0.0
 40
7.5
  0
LINE
  5
2D70
330
336B
100
AcDbEntity
  8
DETAIL
100
AcDbLine
 10
245.0
 20
255.0
 30
0.0
 11
207.5
 21
255.0
 31
0.0
  0
LINE
  5
2D71
330
336B
100
AcDbEntity
  8
DETAIL
100
AcDbLine
 10
207.5
 20
-255.0
 30
0.0
 11
245.0
 21
-255.0
 31
0.0
  0
LINE
  5
2D72
330
336B
100
AcDbEntity
  8
DETAIL
100
AcDbLine
 10
207.5
 20
-207.5
 30
0.0
 11
207.5
 21
207.5
 31
0.0
  0
LINE
  5
2D73
330
336B
100
AcDbEntity
  8
DETAIL
100
AcDbLine
 10
255.0
 20
-245.0
 30
0.0
 11
255.0
 21
245.0
 31
0.0
  0
LINE
  5
2D74
330
336B
100
AcDbEntity
  8
DETAIL
100
AcDbLine
 10
197.5
 20
-207.5
 30
0.0
 11
197.5
 21
207.5
 31
0.0
  0
ARC
  5
2D75
330
336B
100
AcDbEntity
  8
DETAIL
100
AcDbCircle
 10
-245.0
 20
245.0
 30
0.0
 40
9.999999999999998
100
AcDbArc
 50
90.0
 51
180.0
  0
CIRCLE
  5
2D76
330
336B
100
AcDbEntity
  8
FIX
100
AcDbCircle
 10
-230.0
 20
-230.0
 30
0.0
 40
7.5
  0
CIRCLE
  5
2D77
330
336B
100
AcDbEntity
  8
FIX
100
AcDbCircle
 10
-230.0
 20
230.0
 30
0.0
 40
7.5
  0
ARC
  5
2D78
330
336B
100
AcDbEntity
  8
DETAIL
100
AcDbCircle
 10
-245.0
 20
-245.0
 30
0.0
 40
9.999999999999998
100
AcDbArc
 50
180.0
 51
270.0
  0
LINE
  5
2D79
330
336B
100
AcDbEntity
  8
DETAIL
100
AcDbLine
 10
-197.5
 20
-199.0
 30
0.0
 11
-192.0
 21
-199.0
 31
0.0
  0
LINE
  5
2D7A
330
336B
100
AcDbEntity
  8
DETAIL
100
AcDbLine
 10
-197.5
 20
167.0
 30
0.0
 11
-197.5
 21
207.5
 31
0.0
  0
LINE
  5
2D7B
330
336B
100
AcDbEntity
  8
DETAIL
100
AcDbLine
 10
-197.5
 20
-207.5
 30
0.0
 11
-197.5
 21
-123.0
 31
0.0
  0
LINE
  5
2D7C
330
336B
100
AcDbEntity
  8
DETAIL
100
AcDbLine
 10
-245.0
 20
255.0
 30
0.0
 11
-207.5
 21
255.0
 31
0.0
  0
LINE
  5
2D7D
330
336B
100
AcDbEntity
  8
DETAIL
100
AcDbLine
 10
-255.0
 20
-245.0
 30
0.0
 11
-255.0
 21
245.0
 31
0.0
  0
LINE
  5
2D7E
330
336B
100
AcDbEntity
  8
DETAIL
100
AcDbLine
 10
-207.5
 20
-255.0
 30
0.0
 11
-245.0
 21
-255.0
 31
0.0
  0
LINE
  5
2D7F
330
336B
100
AcDbEntity
  8
DETAIL
100
AcDbLine
 10
-207.5
 20
207.5
 30
0.0
 11
-207.5
 21
-207.5
 31
0.0
  0
LINE
  5
2D80
330
336B
100
AcDbEntity
  8
DETAIL
100
AcDbLine
 10
126.0
 20
-131.3999999999996
 30
0.0
 11
197.5
 21
-131.3999999999996
 31
0.0
  0
LINE
  5
2D81
330
336B
100
AcDbEntity
  8
DETAIL
100
AcDbLine
 10
-6.399999999999636
 20
-131.3999999999996
 30
0.0
 11
-0.5
 21
-131.3999999999996
 31
0.0
  0
LINE
  5
2D82
330
336B
100
AcDbEntity
  8
DETAIL
100
AcDbLine
 10
-197.5
 20
-131.3999999999996
 30
0.0
 11
-78.39999999999962
 21
-131.3999999999996
 31
0.0
  0
LINE
  5
2D83
330
336B
100
AcDbEntity
  8
DETAIL
100
AcDbLine
 10
-196.25
 20
-65.0
 30
0.0
 11
197.5
 21
-65.0
 31
0.0
  0
LINE
  5
2D84
330
336B
100
AcDbEntity
  8
DETAIL
100
AcDbLine
 10
126.0
 20
-135.0
 30
0.0
 11
197.5
 21
-135.0
 31
0.0
  0
LINE
  5
2D85
330
336B
100
AcDbEntity
  8
DETAIL
100
AcDbLine
 10
-197.5
 20
-135.0
 30
0.0
 11
-0.5
 21
-135.0
 31
0.0
  0
LINE
  5
2D86
330
336B
100
AcDbEntity
  8
DETAIL
100
AcDbLine
 10
-6.399999999999636
 20
-130.7499999999995
 30
0.0
 11
-6.399999999999636
 21
-132.25
 31
0.0
  0
LINE
  5
2D87
330
336B
100
AcDbEntity
  8
DETAIL
100
AcDbLine
 10
-78.39999999999962
 20
-132.25
 30
0.0
 11
-78.39999999999962
 21
-130.7499999999995
 31
0.0
  0
LINE
  5
2D88
330
336B
100
AcDbEntity
  8
DETAIL
100
AcDbLine
 10
4.100000000000362
 20
-106.0
 30
0.0
 11
4.100000000000362
 21
-102.0
 31
0.0
  0
LINE
  5
2D89
330
336B
100
AcDbEntity
  8
DETAIL
100
AcDbLine
 10
-16.39999999999963
 20
-102.0
 30
0.0
 11
-16.39999999999963
 21
-106.0
 31
0.0
  0
LINE
  5
2D8A
330
336B
100
AcDbEntity
  8
DETAIL
100
AcDbLine
 10
1.0
 20
-102.0
 30
0.0
 11
4.100000000000362
 21
-102.0
 31
0.0
  0
LINE
  5
2D8B
330
336B
100
AcDbEntity
  8
DETAIL
100
AcDbLine
 10
-16.39999999999963
 20
-102.0
 30
0.0
 11
-0.5
 21
-102.0
 31
0.0
  0
LINE
  5
2D8C
330
336B
100
AcDbEntity
  8
DETAIL
100
AcDbLine
 10
1.0
 20
-106.0
 30
0.0
 11
4.100000000000362
 21
-106.0
 31
0.0
  0
LINE
  5
2D8D
330
336B
100
AcDbEntity
  8
DETAIL
100
AcDbLine
 10
-6.399999999999636
 20
-106.0
 30
0.0
 11
-0.5
 21
-106.0
 31
0.0
  0
LINE
  5
2D8E
330
336B
100
AcDbEntity
  8
DETAIL
100
AcDbLine
 10
-16.39999999999963
 20
-115.7499999999995
 30
0.0
 11
-17.89999999999963
 21
-115.7499999999995
 31
0.0
  0
LINE
  5
2D8F
330
336B
100
AcDbEntity
  8
DETAIL
100
AcDbLine
 10
-17.89999999999963
 20
-115.7499999999995
 30
0.0
 11
-58.39999999999964
 21
-115.7499999999995
 31
0.0
  0
LINE
  5
2D90
330
336B
100
AcDbEntity
  8
DETAIL
100
AcDbLine
 10
-16.39999999999963
 20
-115.7499999999995
 30
0.0
 11
-16.39999999999963
 21
-106.0
 31
0.0
  0
LINE
  5
2D91
330
336B
100
AcDbEntity
  8
DETAIL
100
AcDbLine
 10
-58.39999999999964
 20
-101.3499999999998
 30
0.0
 11
-58.39999999999964
 21
-94.50000000000001
 31
0.0
  0
LINE
  5
2D92
330
336B
100
AcDbEntity
  8
DETAIL
100
AcDbLine
 10
-58.39999999999964
 20
-115.7499999999995
 30
0.0
 11
-58.39999999999964
 21
-101.75
 31
0.0
  0
LINE
  5
2D93
330
336B
100
AcDbEntity
  8
DETAIL
100
AcDbLine
 10
-58.89999999999964
 20
-94.0
 30
0.0
 11
-58.39999999999964
 21
-94.50000000000001
 31
0.0
  0
LINE
  5
2D94
330
336B
100
AcDbEntity
  8
DETAIL
100
AcDbLine
 10
-58.89999999999964
 20
-94.0
 30
0.0
 11
-77.89999999999962
 21
-94.0
 31
0.0
  0
LINE
  5
2D95
330
336B
100
AcDbEntity
  8
DETAIL
100
AcDbLine
 10
-78.39999999999962
 20
-94.50000000000001
 30
0.0
 11
-77.89999999999962
 21
-94.0
 31
0.0
  0
LINE
  5
2D96
330
336B
100
AcDbEntity
  8
DETAIL
100
AcDbLine
 10
-78.39999999999962
 20
-94.50000000000001
 30
0.0
 11
-78.39999999999962
 21
-130.7499999999995
 31
0.0
  0
LINE
  5
2D97
330
336B
100
AcDbEntity
  8
DETAIL
100
AcDbLine
 10
-6.399999999999636
 20
-106.0
 30
0.0
 11
-6.399999999999636
 21
-130.7499999999995
 31
0.0
  0
LINE
  5
2D98
330
336B
100
AcDbEntity
  8
DETAIL
100
AcDbLine
 10
-78.39999999999962
 20
-132.25
 30
0.0
 11
-6.399999999999636
 21
-132.25
 31
0.0
  0
LINE
  5
2D99
330
336B
100
AcDbEntity
  8
DETAIL
100
AcDbLine
 10
-28.75
 20
-101.75
 30
0.0
 11
-27.75
 21
-101.75
 31
0.0
  0
LINE
  5
2D9A
330
336B
100
AcDbEntity
  8
DETAIL
100
AcDbLine
 10
-61.75
 20
-101.75
 30
0.0
 11
-28.75
 21
-101.75
 31
0.0
  0
LINE
  5
2D9B
330
336B
100
AcDbEntity
  8
DETAIL
100
AcDbLine
 10
-62.75
 20
-101.75
 30
0.0
 11
-61.75
 21
-101.75
 31
0.0
  0
LINE
  5
2D9C
330
336B
100
AcDbEntity
  8
DETAIL
100
AcDbLine
 10
-27.75
 20
-101.75
 30
0.0
 11
-27.75
 21
-101.3499999999998
 31
0.0
  0
LINE
  5
2D9D
330
336B
100
AcDbEntity
  8
DETAIL
100
AcDbLine
 10
-27.75
 20
-101.3499999999998
 30
0.0
 11
-28.75
 21
-101.3499999999998
 31
0.0
  0
ARC
  5
2D9E
330
336B
100
AcDbEntity
  8
DETAIL
100
AcDbCircle
 10
154.2334110000011
 20
-201.6999999999997
 30
0.0
 40
10.0
100
AcDbArc
 50
10.00209599998111
 51
90.0
  0
ARC
  5
2D9F
330
336B
100
AcDbEntity
  8
DETAIL
100
AcDbCircle
 10
153.9263289449318
 20
-202.5880559709229
 30
0.0
 40
19.39048771228313
100
AcDbArc
 50
6.291367674263302
 51
89.09258387308691
  0
LINE
  5
2DA0
330
336B
100
AcDbEntity
  8
DETAIL
100
AcDbLine
 10
154.2334110000011
 20
-191.6999999999997
 30
0.0
 11
129.7000000000007
 21
-191.6999999999997
 31
0.0
  0
LINE
  5
2DA1
330
336B
100
AcDbEntity
  8
DETAIL
100
AcDbLine
 10
154.2334110000083
 20
-183.1999999999997
 30
0.0
 11
129.7000000000007
 21
-183.1999999999997
 31
0.0
  0
LINE
  5
2DA2
330
336B
100
AcDbEntity
  8
DETAIL
100
AcDbLine
 10
173.200036999382
 20
-263.9616876440954
 30
0.0
 11
173.200036999382
 21
-200.4631579611255
 31
0.0
  0
LINE
  5
2DA3
330
336B
100
AcDbEntity
  8
DETAIL
100
AcDbLine
 10
164.200036999382
 20
-263.9616872781557
 30
0.0
 11
164.0814249993818
 21
-199.9631579611254
 31
0.0
  0
ARC
  5
2DA4
330
336B
100
AcDbEntity
  8
DETAIL
100
AcDbCircle
 10
170.950036999382
 20
-272.5145729611258
 30
0.0
 40
4.5
100
AcDbArc
 50
59.99999999999944
 51
119.9999999999997
  0
ARC
  5
2DA5
330
336B
100
AcDbEntity
  8
DETAIL
100
AcDbCircle
 10
166.450036999382
 20
-264.7203439611258
 30
0.0
 40
4.5
100
AcDbArc
 50
239.9999999999995
 51
299.9999999999997
  0
ARC
  5
2DA6
330
336B
100
AcDbEntity
  8
DETAIL
100
AcDbCircle
 10
166.450036999382
 20
-272.5145729611258
 30
0.0
 40
4.5
100
AcDbArc
 50
59.99999999999944
 51
119.9999999999997
  0
ARC
  5
2DA7
330
336B
100
AcDbEntity
  8
DETAIL
100
AcDbCircle
 10
170.950036999382
 20
-267.8588019611257
 30
0.0
 40
4.5
100
AcDbArc
 50
59.99999999999944
 51
119.9999999999997
  0
ARC
  5
2DA8
330
336B
100
AcDbEntity
  8
DETAIL
100
AcDbCircle
 10
170.950036999382
 20
-260.0645729611256
 30
0.0
 40
4.5
100
AcDbArc
 50
239.9999999999995
 51
299.9999999999997
  0
ARC
  5
2DA9
330
336B
100
AcDbEntity
  8
DETAIL
100
AcDbCircle
 10
166.450036999382
 20
-260.0645729611256
 30
0.0
 40
4.5
100
AcDbArc
 50
239.9999999999995
 51
299.9999999999997
  0
LINE
  5
2DAA
330
336B
100
AcDbEntity
  8
DETAIL
100
AcDbLine
 10
164.200036999382
 20
-295.2439316440955
 30
0.0
 11
164.200036999382
 21
-268.6174586440957
 31
0.0
  0
LINE
  5
2DAB
330
336B
100
AcDbEntity
  8
DETAIL
100
AcDbLine
 10
173.200036999382
 20
-295.2439316440955
 30
0.0
 11
173.200036999382
 21
-268.6174586440957
 31
0.0
  0
LINE
  5
2DAC
330
336B
100
AcDbEntity
  8
DETAIL
100
AcDbLine
 10
164.8682699993824
 20
-310.1930586440958
 30
0.0
 11
163.8757239993811
 21
-310.0711896440953
 31
0.0
  0
LINE
  5
2DAD
330
336B
100
AcDbEntity
  8
DETAIL
100
AcDbLine
 10
164.8682699993824
 20
-310.1930586440958
 30
0.0
 11
165.4776159993816
 21
-305.2303276440953
 31
0.0
  0
LINE
  5
2DAE
330
336B
100
AcDbEntity
  8
DETAIL
100
AcDbLine
 10
163.8757239993811
 20
-310.0711896440953
 30
0.0
 11
164.4850699993821
 21
-305.1084586440952
 31
0.0
  0
LINE
  5
2DAF
330
336B
100
AcDbEntity
  8
DETAIL
100
AcDbLine
 10
166.4701629993815
 20
-305.3521976440957
 30
0.0
 11
167.200036999382
 21
-299.4078486440953
 31
0.0
  0
LINE
  5
2DB0
330
336B
100
AcDbEntity
  8
DETAIL
100
AcDbLine
 10
169.200036999382
 20
-310.2439316440955
 30
0.0
 11
169.200036999382
 21
-305.2439316440955
 31
0.0
  0
LINE
  5
2DB1
330
336B
100
AcDbEntity
  8
DETAIL
100
AcDbLine
 10
168.200036999382
 20
-310.2439316440955
 30
0.0
 11
168.200036999382
 21
-305.2439316440955
 31
0.0
  0
LINE
  5
2DB2
330
336B
100
AcDbEntity
  8
DETAIL
100
AcDbLine
 10
168.200036999382
 20
-310.2439316440955
 30
0.0
 11
169.200036999382
 21
-310.2439316440955
 31
0.0
  0
LINE
  5
2DB3
330
336B
100
AcDbEntity
  8
DETAIL
100
AcDbLine
 10
172.5318039993817
 20
-310.1930586440958
 30
0.0
 11
173.524349999383
 21
-310.0711896440953
 31
0.0
  0
LINE
  5
2DB4
330
336B
100
AcDbEntity
  8
DETAIL
100
AcDbLine
 10
170.9299109993826
 20
-305.3521976440957
 30
0.0
 11
170.200036999382
 21
-299.4078486440953
 31
0.0
  0
LINE
  5
2DB5
330
336B
100
AcDbEntity
  8
DETAIL
100
AcDbLine
 10
173.524349999383
 20
-310.0711896440953
 30
0.0
 11
172.9150029993816
 21
-305.1084586440952
 31
0.0
  0
LINE
  5
2DB6
330
336B
100
AcDbEntity
  8
DETAIL
100
AcDbLine
 10
172.5318039993817
 20
-310.1930586440958
 30
0.0
 11
171.9224569993821
 21
-305.2303276440953
 31
0.0
  0
LINE
  5
2DB7
330
336B
100
AcDbEntity
  8
DETAIL
100
AcDbLine
 10
167.200036999382
 20
-305.2439316440955
 30
0.0
 11
170.200036999382
 21
-305.2439316440955
 31
0.0
  0
LINE
  5
2DB8
330
336B
100
AcDbEntity
  8
DETAIL
100
AcDbLine
 10
166.4701629993815
 20
-305.3521976440957
 30
0.0
 11
163.4925239993808
 21
-304.9865896440952
 31
0.0
  0
LINE
  5
2DB9
330
336B
100
AcDbEntity
  8
DETAIL
100
AcDbLine
 10
170.9299109993826
 20
-305.3521976440957
 30
0.0
 11
173.9075489993829
 21
-304.9865896440952
 31
0.0
  0
LINE
  5
2DBA
330
336B
100
AcDbEntity
  8
DETAIL
100
AcDbLine
 10
167.200036999382
 20
-305.2439316440955
 30
0.0
 11
167.200036999382
 21
-295.2439316440955
 31
0.0
  0
LINE
  5
2DBB
330
336B
100
AcDbEntity
  8
DETAIL
100
AcDbLine
 10
170.200036999382
 20
-305.2439316440955
 30
0.0
 11
170.200036999382
 21
-295.2439316440955
 31
0.0
  0
LINE
  5
2DBC
330
336B
100
AcDbEntity
  8
DETAIL
100
AcDbLine
 10
163.4925239993808
 20
-304.9865896440952
 30
0.0
 11
164.688771999381
 21
-295.2439316440955
 31
0.0
  0
LINE
  5
2DBD
330
336B
100
AcDbEntity
  8
DETAIL
100
AcDbLine
 10
173.9075489993829
 20
-304.9865896440952
 30
0.0
 11
172.711301999383
 21
-295.2439316440955
 31
0.0
  0
LINE
  5
2DBE
330
336B
100
AcDbEntity
  8
DETAIL
100
AcDbLine
 10
164.200036999382
 20
-295.2439316440955
 30
0.0
 11
173.200036999382
 21
-295.2439316440955
 31
0.0
  0
TEXT
  5
2DBF
330
336B
100
AcDbEntity
  8
ETC
100
AcDbText
 10
406.0051834408421
 20
403.3619616938947
 30
0.0
 40
64.0
  1
MD-40T
 41
0.9
100
AcDbText
  0
LINE
  5
2DC0
330
336B
100
AcDbEntity
  8
NOTE
100
AcDbLine
 10
-230.0
 20
217.5
 30
0.0
 11
-230.0
 21
242.5
 31
0.0
  0
LINE
  5
2DC1
330
336B
100
AcDbEntity
  8
NOTE
100
AcDbLine
 10
-242.5
 20
230.0
 30
0.0
 11
-217.5
 21
230.0
 31
0.0
  0
LINE
  5
2DC2
330
336B
100
AcDbEntity
  8
NOTE
100
AcDbLine
 10
230.0
 20
217.5
 30
0.0
 11
230.0
 21
242.5
 31
0.0
  0
LINE
  5
2DC3
330
336B
100
AcDbEntity
  8
NOTE
100
AcDbLine
 10
217.5
 20
230.0
 30
0.0
 11
242.5
 21
230.0
 31
0.0
  0
LINE
  5
2DC4
330
336B
100
AcDbEntity
  8
NOTE
100
AcDbLine
 10
230.0
 20
-242.5
 30
0.0
 11
230.0
 21
-217.5
 31
0.0
  0
LINE
  5
2DC5
330
336B
100
AcDbEntity
  8
NOTE
100
AcDbLine
 10
217.5
 20
-230.0
 30
0.0
 11
242.5
 21
-230.0
 31
0.0
  0
LINE
  5
2DC6
330
336B
100
AcDbEntity
  8
NOTE
100
AcDbLine
 10
-230.0
 20
-242.5
 30
0.0
 11
-230.0
 21
-217.5
 31
0.0
  0
LINE
  5
2DC7
330
336B
100
AcDbEntity
  8
NOTE
100
AcDbLine
 10
-242.5
 20
-230.0
 30
0.0
 11
-217.5
 21
-230.0
 31
0.0
  0
LINE
  5
2DC8
330
336B
100
AcDbEntity
  8
BASIS
100
AcDbLine
 10
280.0
 20
0.0
 30
0.0
 11
-280.0
 21
0.0
 31
0.0
  0
LINE
  5
2DC9
330
336B
100
AcDbEntity
  8
OUTLINE
100
AcDbLine
 10
-207.5
 20
255.0
 30
0.0
 11
207.5
 21
255.0
 31
0.0
  0
LINE
  5
2DCA
330
336B
100
AcDbEntity
  8
OUTLINE
100
AcDbLine
 10
207.5
 20
-255.0
 30
0.0
 11
-207.5
 21
-255.0
 31
0.0
  0
ARC
  5
2DCB
330
336B
100
AcDbEntity
  8
OUTLINE
100
AcDbCircle
 10
245.0
 20
245.0
 30
0.0
 40
9.999999999999998
100
AcDbArc
 50
0.0
 51
90.0
  0
ARC
  5
2DCC
330
336B
100
AcDbEntity
  8
OUTLINE
100
AcDbCircle
 10
245.0
 20
-245.0
 30
0.0
 40
9.999999999999998
100
AcDbArc
 50
270.0
 51
0.0
  0
LINE
  5
2DCD
330
336B
100
AcDbEntity
  8
OUTLINE
100
AcDbLine
 10
245.0
 20
255.0
 30
0.0
 11
207.5
 21
255.0
 31
0.0
  0
LINE
  5
2DCE
330
336B
100
AcDbEntity
  8
OUTLINE
100
AcDbLine
 10
207.5
 20
-255.0
 30
0.0
 11
245.0
 21
-255.0
 31
0.0
  0
LINE
  5
2DCF
330
336B
100
AcDbEntity
  8
OUTLINE
100
AcDbLine
 10
255.0
 20
-245.0
 30
0.0
 11
255.0
 21
245.0
 31
0.0
  0
ARC
  5
2DD0
330
336B
100
AcDbEntity
  8
OUTLINE
100
AcDbCircle
 10
-245.0
 20
245.0
 30
0.0
 40
9.999999999999998
100
AcDbArc
 50
90.0
 51
180.0
  0
ARC
  5
2DD1
330
336B
100
AcDbEntity
  8
OUTLINE
100
AcDbCircle
 10
-245.0
 20
-245.0
 30
0.0
 40
9.999999999999998
100
AcDbArc
 50
180.0
 51
270.0
  0
LINE
  5
2DD2
330
336B
100
AcDbEntity
  8
OUTLINE
100
AcDbLine
 10
-245.0
 20
255.0
 30
0.0
 11
-207.5
 21
255.0
 31
0.0
  0
LINE
  5
2DD3
330
336B
100
AcDbEntity
  8
OUTLINE
100
AcDbLine
 10
-255.0
 20
-245.0
 30
0.0
 11
-255.0
 21
245.0
 31
0.0
  0
LINE
  5
2DD4
330
336B
100
AcDbEntity
  8
OUTLINE
100
AcDbLine
 10
-207.5
 20
-255.0
 30
0.0
 11
-245.0
 21
-255.0
 31
0.0
  0
LINE
  5
2DD5
330
336B
100
AcDbEntity
  8
SIZE
100
AcDbLine
 10
-255.0
 20
265.0
 30
0.0
 11
-255.0
 21
500.9864130079567
 31
0.0
  0
LINE
  5
2DD6
330
336B
100
AcDbEntity
  8
SIZE
100
AcDbLine
 10
255.0
 20
265.0
 30
0.0
 11
255.0
 21
500.9864130079567
 31
0.0
  0
LINE
  5
2DD7
330
336B
100
AcDbEntity
  8
SIZE
100
AcDbLine
 10
-243.0
 20
480.9864130079567
 30
0.0
 11
243.0
 21
480.9864130079567
 31
0.0
  0
LINE
  5
2DD8
330
336B
100
AcDbEntity
  8
SIZE
100
AcDbLine
 10
-230.0
 20
262.5
 30
0.0
 11
-230.0
 21
393.8123323818389
 31
0.0
  0
LINE
  5
2DD9
330
336B
100
AcDbEntity
  8
SIZE
100
AcDbLine
 10
230.0
 20
262.5
 30
0.0
 11
230.0
 21
393.8123323818389
 31
0.0
  0
LINE
  5
2DDA
330
336B
100
AcDbEntity
  8
SIZE
100
AcDbLine
 10
-218.0
 20
373.8123323818391
 30
0.0
 11
218.0
 21
373.8123323818391
 31
0.0
  0
LINE
  5
2DDB
330
336B
100
AcDbEntity
  8
SIZE
100
AcDbLine
 10
-265.0
 20
-255.0
 30
0.0
 11
-499.0606609286133
 21
-254.9999999999999
 31
0.0
  0
LINE
  5
2DDC
330
336B
100
AcDbEntity
  8
SIZE
100
AcDbLine
 10
-265.0
 20
255.0
 30
0.0
 11
-499.060660928613
 21
255.0000000000001
 31
0.0
  0
LINE
  5
2DDD
330
336B
100
AcDbEntity
  8
SIZE
100
AcDbLine
 10
-479.0606609286133
 20
-242.9999999999999
 30
0.0
 11
-479.060660928613
 21
243.0000000000001
 31
0.0
  0
LINE
  5
2DDE
330
336B
100
AcDbEntity
  8
SIZE
100
AcDbLine
 10
-262.5
 20
230.0
 30
0.0
 11
-375.9888191526079
 21
230.0
 31
0.0
  0
LINE
  5
2DDF
330
336B
100
AcDbEntity
  8
SIZE
100
AcDbLine
 10
-262.5
 20
-230.0
 30
0.0
 11
-375.9888191526079
 21
-230.0
 31
0.0
  0
LINE
  5
2DE0
330
336B
100
AcDbEntity
  8
SIZE
100
AcDbLine
 10
-355.9888191526077
 20
218.0
 30
0.0
 11
-355.9888191526079
 21
-218.0
 31
0.0
  0
TEXT
  5
2DE1
330
336B
100
AcDbEntity
  8
NOTE
100
AcDbText
 10
-863.7093999922539
 20
343.5270950580134
 30
0.0
 40
64.0
  1
4×φ15取付穴
 41
0.9
100
AcDbText
  0
INSERT
  5
2DE2
330
336B
100
AcDbEntity
  8
NOTE
100
AcDbBlockReference
  2
_OPEN30
 10
-230.0
 20
230.0
 30
0.0
 41
11.99999999999998
 42
12.0
 43
12.0
 50
312.6090116116894
1001
ACAD
1000
DSTYLE
1002
{
1070
    41
1040
12.0
1070
    42
1040
20.0
1070
    43
1040
200.0
1070
    44
1040
20.0
1070
    73
1070
     0
1070
    74
1070
     0
1070
    77
1070
     1
1070
    78
1070
     8
1070
   140
1040
64.0
1070
   147
1040
50.0
1070
   172
1070
     1
1070
   174
1070
     1
1070
   275
1070
     0
1070
   284
1070
     0
1070
   285
1070
     0
1070
   286
1070
     0
1070
   341
1005
0
1070
   342
1005
0
1002
}
  0
POLYLINE
  5
2DE3
330
336B
100
AcDbEntity
  8
NOTE
100
AcDb2dPolyline
 66
     1
 10
0.0
 20
0.0
 30
0.0
1001
ACAD
1000
DSTYLE
1002
{
1070
    41
1040
12.0
1070
    42
1040
20.0
1070
    43
1040
200.0
1070
    44
1040
20.0
1070
    73
1070
     0
1070
    74
1070
     0
1070
    77
1070
     1
1070
    78
1070
     8
1070
   140
1040
64.0
1070
   147
1040
50.0
1070
   172
1070
     1
1070
   174
1070
     1
1070
   275
1070
     0
1070
   284
1070
     0
1070
   285
1070
     0
1070
   286
1070
     0
1070
   341
1005
0
1070
   342
1005
0
1002
}
  0
VERTEX
  5
2DE4
330
2DE3
100
AcDbEntity
  8
NOTE
100
AcDbVertex
100
AcDb2dVertex
 10
-238.1239008361895
 20
238.8318874089155
 30
0.0
  0
VERTEX
  5
2DE5
330
2DE3
100
AcDbEntity
  8
NOTE
100
AcDbVertex
100
AcDb2dVertex
 10
-317.8693999922543
 20
325.5270950580134
 30
0.0
  0
VERTEX
  5
2DE6
330
2DE3
100
AcDbEntity
  8
NOTE
100
AcDbVertex
100
AcDb2dVertex
 10
-863.7093999922539
 20
325.5270950580134
 30
0.0
  0
SEQEND
  5
2DE7
330
2DE3
100
AcDbEntity
  8
NOTE
  0
TEXT
  5
2DE8
330
336B
100
AcDbEntity
  8
NOTE
100
AcDbText
 10
378.6758571555984
 20
-412.4663270799064
 30
0.0
 40
64.0
  1
EL
 41
0.9
100
AcDbText
1001
ACAD
1000
ACAD_MTEXT_DEFINED_HEIGHT_BEGIN
1070
    46
1040
0.0
1000
ACAD_MTEXT_DEFINED_HEIGHT_END
  0
INSERT
  5
2DE9
330
336B
100
AcDbEntity
  8
NOTE
100
AcDbBlockReference
  2
_OPEN30
 10
173.200036999382
 20
-255.0
 30
0.0
 41
12.00000000000003
 42
12.0
 43
12.0
 50
137.1360677258359
1001
ACAD
1000
DSTYLE
1002
{
1070
    41
1040
12.0
1070
    42
1040
20.0
1070
    43
1040
200.0
1070
    44
1040
20.0
1070
    73
1070
     0
1070
    74
1070
     0
1070
    77
1070
     1
1070
    78
1070
     8
1070
   140
1040
64.0
1070
   147
1040
10.0
1070
   172
1070
     1
1070
   174
1070
     1
1070
   275
1070
     0
1070
   284
1070
     0
1070
   285
1070
     0
1070
   286
1070
     0
1070
   341
1005
0
1070
   342
1005
0
1070
   343
1005
0
1070
   344
1005
0
1002
}
  0
POLYLINE
  5
2DEA
330
336B
100
AcDbEntity
  8
NOTE
100
AcDb2dPolyline
 66
     1
 10
0.0
 20
0.0
 30
0.0
1001
ACAD
1000
DSTYLE
1002
{
1070
    41
1040
12.0
1070
    42
1040
20.0
1070
    43
1040
200.0
1070
    44
1040
20.0
1070
    73
1070
     0
1070
    74
1070
     0
1070
    77
1070
     1
1070
    78
1070
     8
1070
   140
1040
64.0
1070
   147
1040
10.0
1070
   172
1070
     1
1070
   174
1070
     1
1070
   275
1070
     0
1070
   284
1070
     0
1070
   285
1070
     0
1070
   286
1070
     0
1070
   341
1005
0
1070
   342
1005
0
1070
   343
1005
0
1070
   344
1005
0
1002
}
  0
VERTEX
  5
2DEB
330
2DEA
100
AcDbEntity
  8
NOTE
100
AcDbVertex
100
AcDb2dVertex
 10
181.9956922128749
 20
-263.163115175309
 30
0.0
  0
VERTEX
  5
2DEC
330
2DEA
100
AcDbEntity
  8
NOTE
100
AcDbVertex
100
AcDb2dVertex
 10
356.6758571555983
 20
-425.2811462552466
 30
0.0
  0
VERTEX
  5
2DED
330
2DEA
100
AcDbEntity
  8
NOTE
100
AcDbVertex
100
AcDb2dVertex
 10
463.7044285841697
 20
-425.2811462552466
 30
0.0
  0
SEQEND
  5
2DEE
330
2DEA
100
AcDbEntity
  8
NOTE
  0
TEXT
  5
2DEF
330
336B
100
AcDbEntity
  8
SIZE
100
AcDbText
 10
-489.060660928613
 20
-68.57142857142857
 30
0.0
 40
64.0
  1
510
 50
90.0
 41
0.9
100
AcDbText
  0
TEXT
  5
2DF0
330
336B
100
AcDbEntity
  8
SIZE
100
AcDbText
 10
-365.9888191526079
 20
-74.05714285714281
 30
0.0
 40
64.0
  1
460
 50
90.0
 41
0.9
100
AcDbText
  0
TEXT
  5
2DF1
330
336B
100
AcDbEntity
  8
SIZE
100
AcDbText
 10
-68.57142857142844
 20
490.9864130079568
 30
0.0
 40
64.0
  1
510
 41
0.9
100
AcDbText
  0
TEXT
  5
2DF2
330
336B
100
AcDbEntity
  8
SIZE
100
AcDbText
 10
-74.05714285714272
 20
383.8123323818389
 30
0.0
 40
64.0
  1
460
 41
0.9
100
AcDbText
  0
CIRCLE
  5
2DF3
330
336B
100
AcDbEntity
  8
SIZE
100
AcDbCircle
 10
-255.0
 20
480.9864130079567
 30
0.0
 40
6.0
  0
LINE
  5
2DF4
330
336B
100
AcDbEntity
  8
SIZE
100
AcDbLine
 10
-249.0
 20
480.9864130079567
 30
0.0
 11
-243.0
 21
480.9864130079567
 31
0.0
  0
CIRCLE
  5
2DF5
330
336B
100
AcDbEntity
  8
SIZE
100
AcDbCircle
 10
-230.0
 20
373.8123323818391
 30
0.0
 40
6.0
  0
LINE
  5
2DF6
330
336B
100
AcDbEntity
  8
SIZE
100
AcDbLine
 10
-224.0
 20
373.8123323818391
 30
0.0
 11
-218.0
 21
373.8123323818391
 31
0.0
  0
CIRCLE
  5
2DF7
330
336B
100
AcDbEntity
  8
SIZE
100
AcDbCircle
 10
255.0
 20
480.9864130079567
 30
0.0
 40
6.0
  0
LINE
  5
2DF8
330
336B
100
AcDbEntity
  8
SIZE
100
AcDbLine
 10
249.0
 20
480.9864130079567
 30
0.0
 11
243.0
 21
480.9864130079567
 31
0.0
  0
CIRCLE
  5
2DF9
330
336B
100
AcDbEntity
  8
SIZE
100
AcDbCircle
 10
230.0
 20
373.8123323818391
 30
0.0
 40
6.0
  0
LINE
  5
2DFA
330
336B
100
AcDbEntity
  8
SIZE
100
AcDbLine
 10
224.0
 20
373.8123323818391
 30
0.0
 11
218.0
 21
373.8123323818391
 31
0.0
  0
CIRCLE
  5
2DFB
330
336B
100
AcDbEntity
  8
SIZE
100
AcDbCircle
 10
-479.060660928613
 20
255.0000000000001
 30
0.0
 40
6.0
  0
LINE
  5
2DFC
330
336B
100
AcDbEntity
  8
SIZE
100
AcDbLine
 10
-479.060660928613
 20
249.0000000000001
 30
0.0
 11
-479.060660928613
 21
243.0000000000001
 31
0.0
  0
CIRCLE
  5
2DFD
330
336B
100
AcDbEntity
  8
SIZE
100
AcDbCircle
 10
-355.9888191526077
 20
230.0
 30
0.0
 40
6.0
  0
LINE
  5
2DFE
330
336B
100
AcDbEntity
  8
SIZE
100
AcDbLine
 10
-355.9888191526077
 20
224.0
 30
0.0
 11
-355.9888191526077
 21
218.0
 31
0.0
  0
CIRCLE
  5
2DFF
330
336B
100
AcDbEntity
  8
SIZE
100
AcDbCircle
 10
-479.0606609286133
 20
-254.9999999999999
 30
0.0
 40
6.0
  0
LINE
  5
2E00
330
336B
100
AcDbEntity
  8
SIZE
100
AcDbLine
 10
-479.0606609286133
 20
-248.9999999999999
 30
0.0
 11
-479.0606609286133
 21
-242.9999999999999
 31
0.0
  0
CIRCLE
  5
2E01
330
336B
100
AcDbEntity
  8
SIZE
100
AcDbCircle
 10
-355.9888191526079
 20
-230.0
 30
0.0
 40
6.0
  0
LINE
  5
2E02
330
336B
100
AcDbEntity
  8
SIZE
100
AcDbLine
 10
-355.9888191526079
 20
-224.0
 30
0.0
 11
-355.9888191526079
 21
-218.0
 31
0.0
  0
ENDSEC
  0
SECTION
  2
OBJECTS
  0
DICTIONARY
  5
3303
330
0
100
AcDbDictionary
281
     1
  3
ACAD_2007HEADERVARS_RT
350
3547
  3
ACAD_COLOR
350
3361
  3
ACAD_GROUP
350
3304
  3
ACAD_LAYOUT
350
3360
  3
ACAD_MATERIAL
350
3307
  3
ACAD_MLEADERSTYLE
350
3364
  3
ACAD_MLINESTYLE
350
335D
  3
ACAD_PLOTSETTINGS
350
335F
  3
ACAD_PLOTSTYLENAME
350
3305
  3
ACAD_SCALELIST
350
3331
  3
ACAD_TABLESTYLE
350
3362
  3
ACAD_VISUALSTYLE
350
3320
  3
ACDB_RECOMPOSE_DATA
350
3545
  3
AcDbVariableDictionary
350
353C
  3
AcmDictionary
350
34EF
  3
AMG
350
343C
  3
DWGPROPS
350
3546
  3
MAPISURF_MODULE
350
34BC
  0
DICTIONARY
  5
3517
330
3353
100
AcDbDictionary
280
     1
281
     1
  3
ADSK_XREC_LAYER_RECONCILED
360
3518
  0
DICTIONARY
  5
3519
330
3382
100
AcDbDictionary
280
     1
281
     1
  3
ADSK_XREC_LAYER_RECONCILED
360
351A
  0
DICTIONARY
  5
351B
330
3383
100
AcDbDictionary
280
     1
281
     1
  3
ADSK_XREC_LAYER_RECONCILED
360
351C
  0
DICTIONARY
  5
351D
330
3384
100
AcDbDictionary
280
     1
281
     1
  3
ADSK_XREC_LAYER_RECONCILED
360
351E
  0
DICTIONARY
  5
351F
330
3385
100
AcDbDictionary
280
     1
281
     1
  3
ADSK_XREC_LAYER_RECONCILED
360
3520
  0
DICTIONARY
  5
3521
330
3386
100
AcDbDictionary
280
     1
281
     1
  3
ADSK_XREC_LAYER_RECONCILED
360
3522
  0
DICTIONARY
  5
3523
330
3388
100
AcDbDictionary
280
     1
281
     1
  3
ADSK_XREC_LAYER_RECONCILED
360
3524
  0
DICTIONARY
  5
3525
330
3389
100
AcDbDictionary
280
     1
281
     1
  3
ADSK_XREC_LAYER_RECONCILED
360
3526
  0
DICTIONARY
  5
3527
330
338A
100
AcDbDictionary
280
     1
281
     1
  3
ADSK_XREC_LAYER_RECONCILED
360
3528
  0
DICTIONARY
  5
3529
330
338B
100
AcDbDictionary
280
     1
281
     1
  3
ADSK_XREC_LAYER_RECONCILED
360
352A
  0
DICTIONARY
  5
352B
330
338C
100
AcDbDictionary
280
     1
281
     1
  3
ADSK_XREC_LAYER_RECONCILED
360
352C
  0
DICTIONARY
  5
352D
330
336B
100
AcDbDictionary
280
     1
281
     1
  3
ACAD_INDEX
360
352E
  0
DICTIONARY
  5
3547
102
{ACAD_REACTORS
330
3303
102
}
330
3303
100
AcDbDictionary
281
     1
  3
DIMARCSYM
350
3548
  3
DIMLTEX1
350
354A
  3
DIMLTEX2
350
354B
  3
DIMLTYPE
350
3549
  0
DICTIONARY
  5
3361
102
{ACAD_REACTORS
330
3303
102
}
330
3303
100
AcDbDictionary
281
     1
  0
DICTIONARY
  5
3304
102
{ACAD_REACTORS
330
3303
102
}
330
3303
100
AcDbDictionary
281
     1
  0
DICTIONARY
  5
3360
102
{ACAD_REACTORS
330
3303
102
}
330
3303
100
AcDbDictionary
281
     1
  3
Model
350
336E
  3
レイアウト1
350
336A
  0
DICTIONARY
  5
3307
102
{ACAD_REACTORS
330
3303
102
}
330
3303
100
AcDbDictionary
281
     1
  3
ByBlock
350
3310
  3
ByLayer
350
3308
  3
Global
350
3318
  0
DICTIONARY
  5
3364
102
{ACAD_REACTORS
330
3303
102
}
330
3303
100
AcDbDictionary
281
     1
  3
Standard
350
3365
  0
DICTIONARY
  5
335D
102
{ACAD_REACTORS
330
3303
102
}
330
3303
100
AcDbDictionary
281
     1
  3
Standard
350
335E
  0
DICTIONARY
  5
335F
102
{ACAD_REACTORS
330
3303
102
}
330
3303
100
AcDbDictionary
281
     1
  0
ACDBDICTIONARYWDFLT
  5
3305
102
{ACAD_REACTORS
330
3303
102
}
330
3303
100
AcDbDictionary
281
     1
  3
Normal
350
3306
100
AcDbDictionaryWithDefault
340
3306
  0
DICTIONARY
  5
3331
102
{ACAD_REACTORS
330
3303
102
}
330
3303
100
AcDbDictionary
281
     1
  3
A0
350
3332
  3
A1
350
3333
  3
A2
350
3334
  3
A3
350
3335
  3
A4
350
3336
  3
A5
350
3337
  3
A6
350
3338
  3
A7
350
3339
  3
A8
350
333A
  3
A9
350
333B
  3
B0
350
333C
  3
B1
350
333D
  3
B2
350
333E
  3
B3
350
333F
  3
B4
350
3340
  3
B5
350
3341
  3
B6
350
3342
  3
B7
350
3343
  3
B8
350
3344
  3
B9
350
3345
  3
C0
350
3346
  3
C1
350
3347
  3
C2
350
3348
  3
C3
350
3349
  3
C4
350
334A
  3
C5
350
334B
  3
C6
350
334C
  3
C7
350
334D
  3
C8
350
334E
  3
C9
350
334F
  3
D0
350
3350
  3
D1
350
3351
  3
D2
350
3352
  0
DICTIONARY
  5
3362
102
{ACAD_REACTORS
330
3303
102
}
330
3303
100
AcDbDictionary
281
     1
  3
Standard
350
3363
  0
DICTIONARY
  5
3320
102
{ACAD_REACTORS
330
3303
102
}
330
3303
100
AcDbDictionary
281
     1
  3
2dWireframe
350
3326
  3
3D Hidden
350
3328
  3
3dWireframe
350
3327
  3
Basic
350
3325
  3
Brighten
350
332C
  3
ColorChange
350
3330
  3
Conceptual
350
3329
  3
Dim
350
332B
  3
Facepattern
350
332F
  3
Flat
350
3321
  3
FlatWithEdges
350
3322
  3
Gouraud
350
3323
  3
GouraudWithEdges
350
3324
  3
Linepattern
350
332E
  3
Realistic
350
332A
  3
Thicken
350
332D
  0
XRECORD
  5
3545
102
{ACAD_REACTORS
330
3303
102
}
330
3303
100
AcDbXrecord
280
     1
 90
        1
330
3363
  0
DICTIONARY
  5
353C
102
{ACAD_REACTORS
330
3303
102
}
330
3303
100
AcDbDictionary
281
     1
  3
CANNOSCALE
350
353F
  3
CMLEADERSTYLE
350
353E
  3
CTABLESTYLE
350
353D
  3
DIMASSOC
350
3542
  3
INDEXCTL
350
3541
  3
SORTENTS
350
3540
  0
DICTIONARY
  5
34EF
102
{ACAD_REACTORS
330
3303
102
}
330
3303
100
AcDbDictionary
281
     1
  3
AcmStdDictionary
350
34FD
  0
DICTIONARY
  5
343C
102
{ACAD_REACTORS
330
3303
102
}
330
3303
100
AcDbDictionary
281
     1
  3
AcMgSettings
350
343D
  0
XRECORD
  5
3546
102
{ACAD_REACTORS
330
3303
102
}
330
3303
100
AcDbXrecord
280
     1
  1
DWGPROPS COOKIE
  2

  3

  4

  6

  7

  8
A090053
  9

300
AmdtFileType=84
301
=
302
=
303
=
304
=
305
=
306
=
307
=
308
=
309
=
 40
1.042768831018518
 41
2452321.396199653
 42
2456213.490925648
  1

 90
        1
  0
XRECORD
  5
3518
102
{ACAD_REACTORS
330
3517
102
}
330
3517
100
AcDbXrecord
280
     1
290
     1
  0
XRECORD
  5
351A
102
{ACAD_REACTORS
330
3519
102
}
330
3519
100
AcDbXrecord
280
     1
290
     1
  0
XRECORD
  5
351C
102
{ACAD_REACTORS
330
351B
102
}
330
351B
100
AcDbXrecord
280
     1
290
     1
  0
XRECORD
  5
351E
102
{ACAD_REACTORS
330
351D
102
}
330
351D
100
AcDbXrecord
280
     1
290
     1
  0
XRECORD
  5
3520
102
{ACAD_REACTORS
330
351F
102
}
330
351F
100
AcDbXrecord
280
     1
290
     1
  0
XRECORD
  5
3522
102
{ACAD_REACTORS
330
3521
102
}
330
3521
100
AcDbXrecord
280
     1
290
     1
  0
XRECORD
  5
3524
102
{ACAD_REACTORS
330
3523
102
}
330
3523
100
AcDbXrecord
280
     1
290
     1
  0
XRECORD
  5
3526
102
{ACAD_REACTORS
330
3525
102
}
330
3525
100
AcDbXrecord
280
     1
290
     1
  0
XRECORD
  5
3528
102
{ACAD_REACTORS
330
3527
102
}
330
3527
100
AcDbXrecord
280
     1
290
     1
  0
XRECORD
  5
352A
102
{ACAD_REACTORS
330
3529
102
}
330
3529
100
AcDbXrecord
280
     1
290
     1
  0
XRECORD
  5
352C
102
{ACAD_REACTORS
330
352B
102
}
330
352B
100
AcDbXrecord
280
     1
290
     1
  0
DICTIONARY
  5
352E
102
{ACAD_REACTORS
330
352D
102
}
330
352D
100
AcDbDictionary
281
     1
  3
*A1
350
352F
  0
XRECORD
  5
3548
102
{ACAD_REACTORS
330
3547
102
}
330
3547
100
AcDbXrecord
280
     1
 70
     1
  0
XRECORD
  5
354A
102
{ACAD_REACTORS
330
3547
102
}
330
3547
100
AcDbXrecord
280
     1
340
3359
  0
XRECORD
  5
354B
102
{ACAD_REACTORS
330
3547
102
}
330
3547
100
AcDbXrecord
280
     1
340
3359
  0
XRECORD
  5
3549
102
{ACAD_REACTORS
330
3547
102
}
330
3547
100
AcDbXrecord
280
     1
340
3359
  0
LAYOUT
  5
336E
102
{ACAD_XDICTIONARY
360
3552
102
}
102
{ACAD_REACTORS
330
3360
102
}
330
3360
100
AcDbPlotSettings
  1

  2
自動 EPSON LP-9600S (W2450527 上)
  4

  6

 40
0.0
 41
0.0
 42
0.0
 43
0.0
 44
0.0
 45
0.0
 46
0.0
 47
0.0
 48
0.0
 49
0.0
140
0.0
141
0.0
142
1.0
143
1.0
 70
  1712
 72
     0
 73
     0
 74
     0
  7

 75
     0
147
1.0
148
0.0
149
0.0
100
AcDbLayout
  1
Model
 70
     1
 71
     0
 10
0.0
 20
0.0
 11
12.0
 21
9.0
 12
0.0
 22
0.0
 32
0.0
 14
0.0
 24
0.0
 34
0.0
 15
0.0
 25
0.0
 35
0.0
146
0.0
 13
0.0
 23
0.0
 33
0.0
 16
1.0
 26
0.0
 36
0.0
 17
0.0
 27
1.0
 37
0.0
 76
     0
330
336B
331
336F
  0
LAYOUT
  5
336A
102
{ACAD_XDICTIONARY
360
3550
102
}
102
{ACAD_REACTORS
330
3360
102
}
330
3360
100
AcDbPlotSettings
  1

  2
自動 EPSON LP-9600S (W2450527 上)
  4

  6

 40
0.0
 41
0.0
 42
0.0
 43
0.0
 44
0.0
 45
0.0
 46
0.0
 47
0.0
 48
0.0
 49
0.0
140
0.0
141
0.0
142
1.0
143
1.0
 70
   688
 72
     0
 73
     0
 74
     5
  7

 75
    16
147
1.0
148
0.0
149
0.0
100
AcDbLayout
  1
レイアウト1
 70
     1
 71
     1
 10
0.0
 20
0.0
 11
12.0
 21
9.0
 12
0.0
 22
0.0
 32
0.0
 14
1.000000000000000E+20
 24
1.000000000000000E+20
 34
1.000000000000000E+20
 15
-1.000000000000000E+20
 25
-1.000000000000000E+20
 35
-1.000000000000000E+20
146
0.0
 13
0.0
 23
0.0
 33
0.0
 16
1.0
 26
0.0
 36
0.0
 17
0.0
 27
1.0
 37
0.0
 76
     0
330
3367
  0
MATERIAL
  5
3310
102
{ACAD_XDICTIONARY
360
3311
102
}
102
{ACAD_REACTORS
330
3307
102
}
330
3307
100
AcDbMaterial
  1
ByBlock
 72
     0
 43
0.0208333333333333
 43
0.0
 43
0.0
 43
0.0
 43
0.0
 43
0.0208333333333333
 43
0.0
 43
0.0
 43
0.0
 43
0.0
 43
1.0
 43
0.0
 43
0.0
 43
0.0
 43
0.0
 43
1.0
 77
     0
 47
0.0208333333333333
 47
0.0
 47
0.0
 47
0.0
 47
0.0
 47
0.0208333333333333
 47
0.0
 47
0.0
 47
0.0
 47
0.0
 47
1.0
 47
0.0
 47
0.0
 47
0.0
 47
0.0
 47
1.0
171
     0
 49
0.0208333333333333
 49
0.0
 49
0.0
 49
0.0
 49
0.0
 49
0.0208333333333333
 49
0.0
 49
0.0
 49
0.0
 49
0.0
 49
1.0
 49
0.0
 49
0.0
 49
0.0
 49
0.0
 49
1.0
175
     0
142
0.0208333333333333
142
0.0
142
0.0
142
0.0
142
0.0
142
0.0208333333333333
142
0.0
142
0.0
142
0.0
142
0.0
142
1.0
142
0.0
142
0.0
142
0.0
142
0.0
142
1.0
179
     0
144
0.0208333333333333
144
0.0
144
0.0
144
0.0
144
0.0
144
0.0208333333333333
144
0.0
144
0.0
144
0.0
144
0.0
144
1.0
144
0.0
144
0.0
144
0.0
144
0.0
144
1.0
147
0.0208333333333333
147
0.0
147
0.0
147
0.0
147
0.0
147
0.0208333333333333
147
0.0
147
0.0
147
0.0
147
0.0
147
1.0
147
0.0
147
0.0
147
0.0
147
0.0
147
1.0
  0
MATERIAL
  5
3308
102
{ACAD_XDICTIONARY
360
3309
102
}
102
{ACAD_REACTORS
330
3307
102
}
330
3307
100
AcDbMaterial
  1
ByLayer
 72
     0
 43
0.0208333333333333
 43
0.0
 43
0.0
 43
0.0
 43
0.0
 43
0.0208333333333333
 43
0.0
 43
0.0
 43
0.0
 43
0.0
 43
1.0
 43
0.0
 43
0.0
 43
0.0
 43
0.0
 43
1.0
 77
     0
 47
0.0208333333333333
 47
0.0
 47
0.0
 47
0.0
 47
0.0
 47
0.0208333333333333
 47
0.0
 47
0.0
 47
0.0
 47
0.0
 47
1.0
 47
0.0
 47
0.0
 47
0.0
 47
0.0
 47
1.0
171
     0
 49
0.0208333333333333
 49
0.0
 49
0.0
 49
0.0
 49
0.0
 49
0.0208333333333333
 49
0.0
 49
0.0
 49
0.0
 49
0.0
 49
1.0
 49
0.0
 49
0.0
 49
0.0
 49
0.0
 49
1.0
175
     0
142
0.0208333333333333
142
0.0
142
0.0
142
0.0
142
0.0
142
0.0208333333333333
142
0.0
142
0.0
142
0.0
142
0.0
142
1.0
142
0.0
142
0.0
142
0.0
142
0.0
142
1.0
179
     0
144
0.0208333333333333
144
0.0
144
0.0
144
0.0
144
0.0
144
0.0208333333333333
144
0.0
144
0.0
144
0.0
144
0.0
144
1.0
144
0.0
144
0.0
144
0.0
144
0.0
144
1.0
147
0.0208333333333333
147
0.0
147
0.0
147
0.0
147
0.0
147
0.0208333333333333
147
0.0
147
0.0
147
0.0
147
0.0
147
1.0
147
0.0
147
0.0
147
0.0
147
0.0
147
1.0
  0
MATERIAL
  5
3318
102
{ACAD_XDICTIONARY
360
3319
102
}
102
{ACAD_REACTORS
330
3307
102
}
330
3307
100
AcDbMaterial
  1
Global
 72
     0
 43
0.0208333333333333
 43
0.0
 43
0.0
 43
0.0
 43
0.0
 43
0.0208333333333333
 43
0.0
 43
0.0
 43
0.0
 43
0.0
 43
1.0
 43
0.0
 43
0.0
 43
0.0
 43
0.0
 43
1.0
 77
     0
 47
0.0208333333333333
 47
0.0
 47
0.0
 47
0.0
 47
0.0
 47
0.0208333333333333
 47
0.0
 47
0.0
 47
0.0
 47
0.0
 47
1.0
 47
0.0
 47
0.0
 47
0.0
 47
0.0
 47
1.0
171
     0
 49
0.0208333333333333
 49
0.0
 49
0.0
 49
0.0
 49
0.0
 49
0.0208333333333333
 49
0.0
 49
0.0
 49
0.0
 49
0.0
 49
1.0
 49
0.0
 49
0.0
 49
0.0
 49
0.0
 49
1.0
175
     0
142
0.0208333333333333
142
0.0
142
0.0
142
0.0
142
0.0
142
0.0208333333333333
142
0.0
142
0.0
142
0.0
142
0.0
142
1.0
142
0.0
142
0.0
142
0.0
142
0.0
142
1.0
179
     0
144
0.0208333333333333
144
0.0
144
0.0
144
0.0
144
0.0
144
0.0208333333333333
144
0.0
144
0.0
144
0.0
144
0.0
144
1.0
144
0.0
144
0.0
144
0.0
144
0.0
144
1.0
147
0.0208333333333333
147
0.0
147
0.0
147
0.0
147
0.0
147
0.0208333333333333
147
0.0
147
0.0
147
0.0
147
0.0
147
1.0
147
0.0
147
0.0
147
0.0
147
0.0
147
1.0
  0
MLEADERSTYLE
  5
3365
102
{ACAD_REACTORS
330
3364
102
}
330
3364
100
AcDbMLeaderStyle
170
     2
171
     1
172
     0
 90
        2
 40
0.0
 41
0.0
173
     1
 91
-1056964608
340
3359
 92
       -2
290
     1
 42
0.09
291
     1
 43
0.36
  3
Standard
 44
0.18
300

342
3354
174
     1
178
     6
175
     1
176
     0
 93
-1056964608
 45
0.18
292
     0
297
     0
 46
0.18
 94
-1056964608
 47
1.0
 49
1.0
140
1.0
293
     1
141
0.0
294
     1
177
     0
142
1.0
295
     0
296
     0
143
0.125
1001
ACAD_MLEADERVER
1070
     2
  0
MLINESTYLE
  5
335E
102
{ACAD_REACTORS
330
335D
102
}
330
335D
100
AcDbMlineStyle
  2
STANDARD
 70
     0
  3

 62
   256
 51
90.0
 52
90.0
 71
     2
 49
0.5
 62
   256
  6
BYLAYER
 49
-0.5
 62
   256
  6
BYLAYER
  0
ACDBPLACEHOLDER
  5
3306
102
{ACAD_REACTORS
330
3305
102
}
330
3305
  0
SCALE
  5
3332
102
{ACAD_REACTORS
330
3331
102
}
330
3331
100
AcDbScale
 70
     0
300
1:1
140
1.0
141
1.0
290
     1
  0
SCALE
  5
3333
102
{ACAD_REACTORS
330
3331
102
}
330
3331
100
AcDbScale
 70
     0
300
1:2
140
1.0
141
2.0
290
     0
  0
SCALE
  5
3334
102
{ACAD_REACTORS
330
3331
102
}
330
3331
100
AcDbScale
 70
     0
300
1:4
140
1.0
141
4.0
290
     0
  0
SCALE
  5
3335
102
{ACAD_REACTORS
330
3331
102
}
330
3331
100
AcDbScale
 70
     0
300
1:5
140
1.0
141
5.0
290
     0
  0
SCALE
  5
3336
102
{ACAD_REACTORS
330
3331
102
}
330
3331
100
AcDbScale
 70
     0
300
1:8
140
1.0
141
8.0
290
     0
  0
SCALE
  5
3337
102
{ACAD_REACTORS
330
3331
102
}
330
3331
100
AcDbScale
 70
     0
300
1:10
140
1.0
141
10.0
290
     0
  0
SCALE
  5
3338
102
{ACAD_REACTORS
330
3331
102
}
330
3331
100
AcDbScale
 70
     0
300
1:16
140
1.0
141
16.0
290
     0
  0
SCALE
  5
3339
102
{ACAD_REACTORS
330
3331
102
}
330
3331
100
AcDbScale
 70
     0
300
1:20
140
1.0
141
20.0
290
     0
  0
SCALE
  5
333A
102
{ACAD_REACTORS
330
3331
102
}
330
3331
100
AcDbScale
 70
     0
300
1:30
140
1.0
141
30.0
290
     0
  0
SCALE
  5
333B
102
{ACAD_REACTORS
330
3331
102
}
330
3331
100
AcDbScale
 70
     0
300
1:40
140
1.0
141
40.0
290
     0
  0
SCALE
  5
333C
102
{ACAD_REACTORS
330
3331
102
}
330
3331
100
AcDbScale
 70
     0
300
1:50
140
1.0
141
50.0
290
     0
  0
SCALE
  5
333D
102
{ACAD_REACTORS
330
3331
102
}
330
3331
100
AcDbScale
 70
     0
300
1:100
140
1.0
141
100.0
290
     0
  0
SCALE
  5
333E
102
{ACAD_REACTORS
330
3331
102
}
330
3331
100
AcDbScale
 70
     0
300
2:1
140
2.0
141
1.0
290
     0
  0
SCALE
  5
333F
102
{ACAD_REACTORS
330
3331
102
}
330
3331
100
AcDbScale
 70
     0
300
4:1
140
4.0
141
1.0
290
     0
  0
SCALE
  5
3340
102
{ACAD_REACTORS
330
3331
102
}
330
3331
100
AcDbScale
 70
     0
300
8:1
140
8.0
141
1.0
290
     0
  0
SCALE
  5
3341
102
{ACAD_REACTORS
330
3331
102
}
330
3331
100
AcDbScale
 70
     0
300
10:1
140
10.0
141
1.0
290
     0
  0
SCALE
  5
3342
102
{ACAD_REACTORS
330
3331
102
}
330
3331
100
AcDbScale
 70
     0
300
100:1
140
100.0
141
1.0
290
     0
  0
SCALE
  5
3343
102
{ACAD_REACTORS
330
3331
102
}
330
3331
100
AcDbScale
 70
     0
300
1/128" = 1'-0"
140
0.0078125
141
12.0
290
     0
  0
SCALE
  5
3344
102
{ACAD_REACTORS
330
3331
102
}
330
3331
100
AcDbScale
 70
     0
300
1/64" = 1'-0"
140
0.015625
141
12.0
290
     0
  0
SCALE
  5
3345
102
{ACAD_REACTORS
330
3331
102
}
330
3331
100
AcDbScale
 70
     0
300
1/32" = 1'-0"
140
0.03125
141
12.0
290
     0
  0
SCALE
  5
3346
102
{ACAD_REACTORS
330
3331
102
}
330
3331
100
AcDbScale
 70
     0
300
1/16" = 1'-0"
140
0.0625
141
12.0
290
     0
  0
SCALE
  5
3347
102
{ACAD_REACTORS
330
3331
102
}
330
3331
100
AcDbScale
 70
     0
300
3/32" = 1'-0"
140
0.09375
141
12.0
290
     0
  0
SCALE
  5
3348
102
{ACAD_REACTORS
330
3331
102
}
330
3331
100
AcDbScale
 70
     0
300
1/8" = 1'-0"
140
0.125
141
12.0
290
     0
  0
SCALE
  5
3349
102
{ACAD_REACTORS
330
3331
102
}
330
3331
100
AcDbScale
 70
     0
300
3/16" = 1'-0"
140
0.1875
141
12.0
290
     0
  0
SCALE
  5
334A
102
{ACAD_REACTORS
330
3331
102
}
330
3331
100
AcDbScale
 70
     0
300
1/4" = 1'-0"
140
0.25
141
12.0
290
     0
  0
SCALE
  5
334B
102
{ACAD_REACTORS
330
3331
102
}
330
3331
100
AcDbScale
 70
     0
300
3/8" = 1'-0"
140
0.375
141
12.0
290
     0
  0
SCALE
  5
334C
102
{ACAD_REACTORS
330
3331
102
}
330
3331
100
AcDbScale
 70
     0
300
1/2" = 1'-0"
140
0.5
141
12.0
290
     0
  0
SCALE
  5
334D
102
{ACAD_REACTORS
330
3331
102
}
330
3331
100
AcDbScale
 70
     0
300
3/4" = 1'-0"
140
0.75
141
12.0
290
     0
  0
SCALE
  5
334E
102
{ACAD_REACTORS
330
3331
102
}
330
3331
100
AcDbScale
 70
     0
300
1" = 1'-0"
140
1.0
141
12.0
290
     0
  0
SCALE
  5
334F
102
{ACAD_REACTORS
330
3331
102
}
330
3331
100
AcDbScale
 70
     0
300
1-1/2" = 1'-0"
140
1.5
141
12.0
290
     0
  0
SCALE
  5
3350
102
{ACAD_REACTORS
330
3331
102
}
330
3331
100
AcDbScale
 70
     0
300
3" = 1'-0"
140
3.0
141
12.0
290
     0
  0
SCALE
  5
3351
102
{ACAD_REACTORS
330
3331
102
}
330
3331
100
AcDbScale
 70
     0
300
6" = 1'-0"
140
6.0
141
12.0
290
     0
  0
SCALE
  5
3352
102
{ACAD_REACTORS
330
3331
102
}
330
3331
100
AcDbScale
 70
     0
300
1'-0" = 1'-0"
140
12.0
141
12.0
290
     0
  0
TABLESTYLE
  5
3363
102
{ACAD_XDICTIONARY
360
3543
102
}
102
{ACAD_REACTORS
330
3362
102
}
330
3362
100
AcDbTableStyle
  3
Standard
 70
     0
 71
     0
 40
0.06
 41
0.06
280
     0
281
     0
  7
STANDARD
140
0.18
170
     2
 62
     0
 63
     7
283
     0
274
    -2
284
     1
 64
     0
275
    -2
285
     1
 65
     0
276
    -2
286
     1
 66
     0
277
    -2
287
     1
 67
     0
278
    -2
288
     1
 68
     0
279
    -2
289
     1
 69
     0
  7
STANDARD
140
0.25
170
     5
 62
     0
 63
     7
283
     0
274
    -2
284
     1
 64
     0
275
    -2
285
     1
 65
     0
276
    -2
286
     1
 66
     0
277
    -2
287
     1
 67
     0
278
    -2
288
     1
 68
     0
279
    -2
289
     1
 69
     0
  7
STANDARD
140
0.18
170
     5
 62
     0
 63
     7
283
     0
274
    -2
284
     1
 64
     0
275
    -2
285
     1
 65
     0
276
    -2
286
     1
 66
     0
277
    -2
287
     1
 67
     0
278
    -2
288
     1
 68
     0
279
    -2
289
     1
 69
     0
  0
VISUALSTYLE
  5
3326
102
{ACAD_REACTORS
330
3320
102
}
330
3320
100
AcDbVisualStyle
  2
2dWireframe
 70
     4
 71
     0
 72
     2
 73
     0
 90
        0
 40
-0.6
 41
-30.0
 62
     5
 63
     7
 74
     1
 91
        4
 64
     7
 65
   257
 75
     1
175
     1
 42
1.0
 92
        0
 66
   257
 43
1.0
 76
     1
 77
     6
 78
     2
 67
     7
 79
     5
170
     0
171
     0
290
     0
174
     0
 93
        1
 44
0.0
173
     0
291
     0
 45
0.0
1001
ACAD
1000
AcDbSavedByObjectVersion
1070
     0
  0
VISUALSTYLE
  5
3328
102
{ACAD_REACTORS
330
3320
102
}
330
3320
100
AcDbVisualStyle
  2
3D Hidden
 70
     6
 71
     1
 72
     2
 73
     2
 90
        0
 40
-0.6
 41
-30.0
 62
     5
 63
     7
 74
     2
 91
        2
 64
     7
 65
   257
 75
     2
175
     1
 42
40.0
 92
        0
 66
   257
 43
1.0
 76
     1
 77
     6
 78
     2
 67
     7
 79
     3
170
     0
171
     0
290
     0
174
     0
 93
        1
 44
0.0
173
     0
291
     0
 45
0.0
1001
ACAD
1000
AcDbSavedByObjectVersion
1070
     0
  0
VISUALSTYLE
  5
3327
102
{ACAD_REACTORS
330
3320
102
}
330
3320
100
AcDbVisualStyle
  2
3dWireframe
 70
     5
 71
     0
 72
     2
 73
     0
 90
        0
 40
-0.6
 41
-30.0
 62
     5
 63
     7
 74
     1
 91
        4
 64
     7
 65
   257
 75
     1
175
     1
 42
1.0
 92
        0
 66
   257
 43
1.0
 76
     1
 77
     6
 78
     2
 67
     7
 79
     5
170
     0
171
     0
290
     0
174
     0
 93
        1
 44
0.0
173
     0
291
     0
 45
0.0
1001
ACAD
1000
AcDbSavedByObjectVersion
1070
     0
  0
VISUALSTYLE
  5
3325
102
{ACAD_REACTORS
330
3320
102
}
330
3320
100
AcDbVisualStyle
  2
Basic
 70
     7
 71
     1
 72
     0
 73
     1
 90
        0
 40
-0.6
 41
-30.0
 62
     5
 63
     7
 74
     0
 91
        4
 64
     7
 65
   257
 75
     1
175
     1
 42
1.0
 92
        8
 66
     7
 43
1.0
 76
     1
 77
     6
 78
     2
 67
     7
 79
     5
170
     0
171
     0
290
     0
174
     0
 93
        1
 44
0.0
173
     0
291
     1
 45
0.0
1001
ACAD
1000
AcDbSavedByObjectVersion
1070
     0
  0
VISUALSTYLE
  5
332C
102
{ACAD_REACTORS
330
3320
102
}
330
3320
100
AcDbVisualStyle
  2
Brighten
 70
    12
 71
     2
 72
     2
 73
     0
 90
        0
 40
-0.6
 41
-30.0
 62
     5
 63
     7
 74
     1
 91
        4
 64
     7
 65
   257
 75
     1
175
     1
 42
1.0
 92
        8
 66
     7
 43
1.0
 76
     1
 77
     6
 78
     2
 67
     7
 79
     5
170
     0
171
     0
290
     0
174
     0
 93
        1
 44
50.0
173
     0
291
     1
 45
0.0
1001
ACAD
1000
AcDbSavedByObjectVersion
1070
     0
  0
VISUALSTYLE
  5
3330
102
{ACAD_REACTORS
330
3320
102
}
330
3320
100
AcDbVisualStyle
  2
ColorChange
 70
    16
 71
     2
 72
     2
 73
     3
 90
        0
 40
-0.6
 41
-30.0
 62
     5
 63
     8
 74
     1
 91
        4
 64
     7
 65
   257
 75
     1
175
     1
 42
1.0
 92
        8
 66
     8
 43
1.0
 76
     1
 77
     6
 78
     2
 67
     7
 79
     5
170
     0
171
     0
290
     0
174
     0
 93
        1
 44
0.0
173
     0
291
     1
 45
0.0
1001
ACAD
1000
AcDbSavedByObjectVersion
1070
     0
  0
VISUALSTYLE
  5
3329
102
{ACAD_REACTORS
330
3320
102
}
330
3320
100
AcDbVisualStyle
  2
Conceptual
 70
     9
 71
     3
 72
     2
 73
     0
 90
        0
 40
-0.6
 41
-30.0
 62
     5
 63
     7
 74
     2
 91
        2
 64
     7
 65
   257
 75
     1
175
     1
 42
40.0
 92
        8
 66
     7
 43
1.0
 76
     1
 77
     6
 78
     2
 67
     7
 79
     3
170
     0
171
     0
290
     0
174
     0
 93
        1
 44
0.0
173
     0
291
     0
 45
0.0
1001
ACAD
1000
AcDbSavedByObjectVersion
1070
     0
  0
VISUALSTYLE
  5
332B
102
{ACAD_REACTORS
330
3320
102
}
330
3320
100
AcDbVisualStyle
  2
Dim
 70
    11
 71
     2
 72
     2
 73
     0
 90
        0
 40
-0.6
 41
-30.0
 62
     5
 63
     7
 74
     1
 91
        4
 64
     7
 65
   257
 75
     1
175
     1
 42
1.0
 92
        8
 66
     7
 43
1.0
 76
     1
 77
     6
 78
     2
 67
     7
 79
     5
170
     0
171
     0
290
     0
174
     0
 93
        1
 44
-50.0
173
     0
291
     1
 45
0.0
1001
ACAD
1000
AcDbSavedByObjectVersion
1070
     0
  0
VISUALSTYLE
  5
332F
102
{ACAD_REACTORS
330
3320
102
}
330
3320
100
AcDbVisualStyle
  2
Facepattern
 70
    15
 71
     2
 72
     2
 73
     0
 90
        0
 40
-0.6
 41
-30.0
 62
     5
 63
     7
 74
     1
 91
        4
 64
     7
 65
   257
 75
     1
175
     1
 42
1.0
 92
        8
 66
     7
 43
1.0
 76
     1
 77
     6
 78
     2
 67
     7
 79
     5
170
     0
171
     0
290
     0
174
     0
 93
        1
 44
0.0
173
     0
291
     1
 45
0.0
1001
ACAD
1000
AcDbSavedByObjectVersion
1070
     0
  0
VISUALSTYLE
  5
3321
102
{ACAD_REACTORS
330
3320
102
}
330
3320
100
AcDbVisualStyle
  2
Flat
 70
     0
 71
     2
 72
     1
 73
     1
 90
        2
 40
-0.6
 41
30.0
 62
     5
 63
     7
 74
     0
 91
        4
 64
     7
 65
   257
 75
     1
175
     1
 42
1.0
 92
        8
 66
     7
 43
1.0
 76
     1
 77
     6
 78
     2
 67
     7
 79
     5
170
     0
171
     0
290
     0
174
     0
 93
       13
 44
0.0
173
     0
291
     1
 45
0.0
1001
ACAD
1000
AcDbSavedByObjectVersion
1070
     0
  0
VISUALSTYLE
  5
3322
102
{ACAD_REACTORS
330
3320
102
}
330
3320
100
AcDbVisualStyle
  2
FlatWithEdges
 70
     1
 71
     2
 72
     1
 73
     1
 90
        2
 40
-0.6
 41
30.0
 62
     5
 63
     7
 74
     1
 91
        4
 64
     7
 65
   257
 75
     1
175
     1
 42
1.0
 92
        0
 66
   257
 43
1.0
 76
     1
 77
     6
 78
     2
 67
     7
 79
     5
170
     0
171
     0
290
     0
174
     0
 93
       13
 44
0.0
173
     0
291
     1
 45
0.0
1001
ACAD
1000
AcDbSavedByObjectVersion
1070
     0
  0
VISUALSTYLE
  5
3323
102
{ACAD_REACTORS
330
3320
102
}
330
3320
100
AcDbVisualStyle
  2
Gouraud
 70
     2
 71
     2
 72
     2
 73
     1
 90
        2
 40
-0.6
 41
30.0
 62
     5
 63
     7
 74
     0
 91
        4
 64
     7
 65
   257
 75
     1
175
     1
 42
1.0
 92
        0
 66
     7
 43
1.0
 76
     1
 77
     6
 78
     2
 67
     7
 79
     5
170
     0
171
     0
290
     0
174
     0
 93
       13
 44
0.0
173
     0
291
     1
 45
0.0
1001
ACAD
1000
AcDbSavedByObjectVersion
1070
     0
  0
VISUALSTYLE
  5
3324
102
{ACAD_REACTORS
330
3320
102
}
330
3320
100
AcDbVisualStyle
  2
GouraudWithEdges
 70
     3
 71
     2
 72
     2
 73
     1
 90
        2
 40
-0.6
 41
30.0
 62
     5
 63
     7
 74
     1
 91
        4
 64
     7
 65
   257
 75
     1
175
     1
 42
1.0
 92
        0
 66
   257
 43
1.0
 76
     1
 77
     6
 78
     2
 67
     7
 79
     5
170
     0
171
     0
290
     0
174
     0
 93
       13
 44
0.0
173
     0
291
     1
 45
0.0
1001
ACAD
1000
AcDbSavedByObjectVersion
1070
     0
  0
VISUALSTYLE
  5
332E
102
{ACAD_REACTORS
330
3320
102
}
330
3320
100
AcDbVisualStyle
  2
Linepattern
 70
    14
 71
     2
 72
     2
 73
     0
 90
        0
 40
-0.6
 41
-30.0
 62
     5
 63
     7
 74
     1
 91
        4
 64
     7
 65
   257
 75
     7
175
     7
 42
1.0
 92
        8
 66
     7
 43
1.0
 76
     1
 77
     6
 78
     2
 67
     7
 79
     5
170
     0
171
     0
290
     0
174
     0
 93
        1
 44
0.0
173
     0
291
     1
 45
0.0
1001
ACAD
1000
AcDbSavedByObjectVersion
1070
     0
  0
VISUALSTYLE
  5
332A
102
{ACAD_REACTORS
330
3320
102
}
330
3320
100
AcDbVisualStyle
  2
Realistic
 70
     8
 71
     2
 72
     2
 73
     0
 90
        0
 40
-0.6
 41
-30.0
 62
     5
 63
     7
 74
     1
 91
        0
 64
     7
 65
   257
 75
     1
175
     1
 42
1.0
 92
        8
 66
     8
 43
1.0
 76
     1
 77
     6
 78
     2
 67
     7
 79
     5
170
     0
171
     0
290
     0
174
     0
 93
       13
 44
0.0
173
     0
291
     0
 45
0.0
1001
ACAD
1000
AcDbSavedByObjectVersion
1070
     0
  0
VISUALSTYLE
  5
332D
102
{ACAD_REACTORS
330
3320
102
}
330
3320
100
AcDbVisualStyle
  2
Thicken
 70
    13
 71
     2
 72
     2
 73
     0
 90
        0
 40
-0.6
 41
-30.0
 62
     5
 63
     7
 74
     1
 91
        4
 64
     7
 65
   257
 75
     1
175
     1
 42
1.0
 92
       12
 66
     7
 43
1.0
 76
     1
 77
     6
 78
     2
 67
     7
 79
     5
170
     0
171
     0
290
     0
174
     0
 93
        1
 44
0.0
173
     0
291
     1
 45
0.0
1001
ACAD
1000
AcDbSavedByObjectVersion
1070
     0
  0
DICTIONARYVAR
  5
353F
102
{ACAD_REACTORS
330
353C
102
}
330
353C
100
DictionaryVariables
280
     0
  1
1:1
  0
DICTIONARYVAR
  5
353E
102
{ACAD_REACTORS
330
353C
102
}
330
353C
100
DictionaryVariables
280
     0
  1
STANDARD
  0
DICTIONARYVAR
  5
353D
102
{ACAD_REACTORS
330
353C
102
}
330
353C
100
DictionaryVariables
280
     0
  1
STANDARD
  0
DICTIONARYVAR
  5
3542
102
{ACAD_REACTORS
330
353C
102
}
330
353C
100
DictionaryVariables
280
     0
  1
1
  0
DICTIONARYVAR
  5
3541
102
{ACAD_REACTORS
330
353C
102
}
330
353C
100
DictionaryVariables
280
     0
  1
1
  0
DICTIONARYVAR
  5
3540
102
{ACAD_REACTORS
330
353C
102
}
330
353C
100
DictionaryVariables
280
     0
  1
127
  0
DICTIONARY
  5
34FD
102
{ACAD_REACTORS
330
34EF
102
}
330
34EF
100
AcDbDictionary
281
     1
  0
DICTIONARY
  5
343D
102
{ACAD_REACTORS
330
343C
102
}
330
343C
100
AcDbDictionary
281
     1
  3
DWGSETTINGS
350
343E
  3
TRANSSETTINGS
350
343F
  0
LAYER_INDEX
  5
352F
102
{ACAD_REACTORS
330
352E
102
}
330
352E
100
AcDbIndex
 40
2456213.490925648
100
AcDbLayerIndex
  8
0
360
3530
 90
        0
  8
OUTLINE
360
3531
 90
       18
  8
SIZE
360
3532
 90
       32
  8
BASIS
360
3533
 90
        2
  8
DETAIL
360
3534
 90
      140
  8
ARRANGE
360
3535
 90
        2
  8
DEFPOINTS
360
3536
 90
        0
  8
ETC
360
3537
 90
        3
  8
FIX
360
3538
 90
        4
  8
NOTE
360
3539
 90
       14
  8
SERVICESPACE
360
353A
 90
        0
  8
SYMBOLLINE
360
353B
 90
        0
  0
DICTIONARY
  5
3552
330
336E
100
AcDbDictionary
280
     1
281
     1
  3
ACAD_XREC_ROUNDTRIP
360
3553
  0
DICTIONARY
  5
3550
330
336A
100
AcDbDictionary
280
     1
281
     1
  3
ACAD_XREC_ROUNDTRIP
360
3551
  0
DICTIONARY
  5
3311
330
3310
100
AcDbDictionary
280
     1
281
     1
  3
ACAD_XREC_ROUNDTRIP
360
354D
  3
BUMPTILE
360
3313
  3
DIFFUSETILE
360
3312
  3
OPACITYTILE
360
3316
  3
REFLECTIONTILE
360
3315
  3
REFRACTIONTILE
360
3317
  3
SPECULARTILE
360
3314
  0
DICTIONARY
  5
3309
330
3308
100
AcDbDictionary
280
     1
281
     1
  3
ACAD_XREC_ROUNDTRIP
360
354C
  3
BUMPTILE
360
330B
  3
DIFFUSETILE
360
330A
  3
OPACITYTILE
360
330E
  3
REFLECTIONTILE
360
330D
  3
REFRACTIONTILE
360
330F
  3
SPECULARTILE
360
330C
  0
DICTIONARY
  5
3319
330
3318
100
AcDbDictionary
280
     1
281
     1
  3
ACAD_XREC_ROUNDTRIP
360
354E
  3
BUMPTILE
360
331B
  3
DIFFUSETILE
360
331A
  3
OPACITYTILE
360
331E
  3
REFLECTIONTILE
360
331D
  3
REFRACTIONTILE
360
331F
  3
SPECULARTILE
360
331C
  0
DICTIONARY
  5
3543
330
3363
100
AcDbDictionary
280
     1
281
     1
  3
ACAD_ROUNDTRIP_2008_TABLESTYLE_CELLSTYLEMAP
360
3544
  3
ACAD_XREC_ROUNDTRIP
360
354F
  0
IDBUFFER
  5
3530
330
0
100
AcDbIdBuffer
  0
IDBUFFER
  5
3531
330
0
100
AcDbIdBuffer
330
2DD3
330
2DD4
330
953
330
954
330
955
330
956
330
957
330
958
330
2DC9
330
2DCA
330
2DCB
330
2DCC
330
2DCD
330
2DCE
330
2DCF
330
2DD0
330
2DD1
330
2DD2
  0
IDBUFFER
  5
3532
330
0
100
AcDbIdBuffer
330
2DF3
330
2DF4
330
2DF5
330
2DF6
330
2DF7
330
2DF8
330
2DF9
330
2DFA
330
2DFB
330
2DFC
330
2DFD
330
2DFE
330
2DFF
330
2E00
330
2E01
330
2E02
330
2DD5
330
2DD6
330
2DD7
330
2DD8
330
2DD9
330
2DDA
330
2DDB
330
2DDC
330
2DDD
330
2DDE
330
2DDF
330
2DE0
330
2DEF
330
2DF0
330
2DF1
330
2DF2
  0
IDBUFFER
  5
3533
330
0
100
AcDbIdBuffer
330
2D2E
330
2DC8
  0
IDBUFFER
  5
3534
330
0
100
AcDbIdBuffer
330
2DA3
330
2DA4
330
2DA5
330
2DA6
330
2DA7
330
2DA8
330
2DA9
330
2DAA
330
2DAB
330
2DAC
330
2DAD
330
2DAE
330
2DAF
330
2DB0
330
2DB1
330
2DB2
330
2DB3
330
2DB4
330
2DB5
330
2DB6
330
2DB7
330
2DB8
330
2DB9
330
2DBA
330
2DBB
330
2DBC
330
2DBD
330
2DBE
330
2D2F
330
2D30
330
2D31
330
2D32
330
2D33
330
2D34
330
2D35
330
2D36
330
2D37
330
2D38
330
2D39
330
2D3A
330
2D3B
330
2D3C
330
2D3D
330
2D3E
330
2D3F
330
2D40
330
2D41
330
2D42
330
2D43
330
2D44
330
2D45
330
2D46
330
2D47
330
2D48
330
2D49
330
2D4A
330
2D4B
330
2D4C
330
2D4D
330
2D4E
330
2D4F
330
2D50
330
2D51
330
2D52
330
2D53
330
2D54
330
2D55
330
2D56
330
2D57
330
2D58
330
2D59
330
2D5A
330
2D5B
330
2D5C
330
2D5D
330
2D5E
330
2D5F
330
2D60
330
2D61
330
2D62
330
2D63
330
2D64
330
2D65
330
2D66
330
2D67
330
2D68
330
2D69
330
2D6A
330
2D6B
330
2D6C
330
2D6D
330
2D70
330
2D71
330
2D72
330
2D73
330
2D74
330
2D75
330
2D78
330
2D79
330
2D7A
330
2D7B
330
2D7C
330
2D7D
330
2D7E
330
2D7F
330
2D80
330
2D81
330
2D82
330
2D83
330
2D84
330
2D85
330
2D86
330
2D87
330
2D88
330
2D89
330
2D8A
330
2D8B
330
2D8C
330
2D8D
330
2D8E
330
2D8F
330
2D90
330
2D91
330
2D92
330
2D93
330
2D94
330
2D95
330
2D96
330
2D97
330
2D98
330
2D99
330
2D9A
330
2D9B
330
2D9C
330
2D9D
330
2D9E
330
2D9F
330
2DA0
330
2DA1
330
2DA2
  0
IDBUFFER
  5
3535
330
0
100
AcDbIdBuffer
330
2D2C
330
2D2D
  0
IDBUFFER
  5
3536
330
0
100
AcDbIdBuffer
  0
IDBUFFER
  5
3537
330
0
100
AcDbIdBuffer
330
2D2A
330
2D2B
330
2DBF
  0
IDBUFFER
  5
3538
330
0
100
AcDbIdBuffer
330
2D6E
330
2D6F
330
2D76
330
2D77
  0
IDBUFFER
  5
3539
330
0
100
AcDbIdBuffer
330
2DC0
330
2DC1
330
2DC2
330
2DC3
330
2DC4
330
2DC5
330
2DC6
330
2DC7
330
2DE1
330
2DE2
330
2DE3
330
2DE8
330
2DE9
330
2DEA
  0
IDBUFFER
  5
353A
330
0
100
AcDbIdBuffer
  0
IDBUFFER
  5
353B
330
0
100
AcDbIdBuffer
  0
XRECORD
  5
3553
102
{ACAD_REACTORS
330
3552
102
}
330
3552
100
AcDbXrecord
280
     1
102
SHADEPLOT
 70
     0
102
SHADEPLOTRESLEVEL
 70
     2
102
SHADEPLOTCUSTOMDPI
 70
   300
  0
XRECORD
  5
3551
102
{ACAD_REACTORS
330
3550
102
}
330
3550
100
AcDbXrecord
280
     1
102
SHADEPLOT
 70
     0
102
SHADEPLOTRESLEVEL
 70
     2
102
SHADEPLOTCUSTOMDPI
 70
   300
  0
XRECORD
  5
354D
102
{ACAD_REACTORS
330
3311
102
}
330
3311
100
AcDbXrecord
280
     1
102
MATERIAL
148
0.0
149
0.0
149
0.0
 93
        0
 94
      127
282
     0
 72
     0
 77
     0
171
     0
175
     0
179
     0
273
     0
  0
XRECORD
  5
3313
102
{ACAD_REACTORS
330
3311
102
}
330
3311
100
AcDbXrecord
280
     1
270
     1
271
     1
  0
XRECORD
  5
3312
102
{ACAD_REACTORS
330
3311
102
}
330
3311
100
AcDbXrecord
280
     1
270
     1
271
     1
  0
XRECORD
  5
3316
102
{ACAD_REACTORS
330
3311
102
}
330
3311
100
AcDbXrecord
280
     1
270
     1
271
     1
  0
XRECORD
  5
3315
102
{ACAD_REACTORS
330
3311
102
}
330
3311
100
AcDbXrecord
280
     1
270
     1
271
     1
  0
XRECORD
  5
3317
102
{ACAD_REACTORS
330
3311
102
}
330
3311
100
AcDbXrecord
280
     1
270
     1
271
     1
  0
XRECORD
  5
3314
102
{ACAD_REACTORS
330
3311
102
}
330
3311
100
AcDbXrecord
280
     1
270
     1
271
     1
  0
XRECORD
  5
354C
102
{ACAD_REACTORS
330
3309
102
}
330
3309
100
AcDbXrecord
280
     1
102
MATERIAL
148
0.0
149
0.0
149
0.0
 93
        0
 94
      127
282
     0
 72
     0
 77
     0
171
     0
175
     0
179
     0
273
     0
  0
XRECORD
  5
330B
102
{ACAD_REACTORS
330
3309
102
}
330
3309
100
AcDbXrecord
280
     1
270
     1
271
     1
  0
XRECORD
  5
330A
102
{ACAD_REACTORS
330
3309
102
}
330
3309
100
AcDbXrecord
280
     1
270
     1
271
     1
  0
XRECORD
  5
330E
102
{ACAD_REACTORS
330
3309
102
}
330
3309
100
AcDbXrecord
280
     1
270
     1
271
     1
  0
XRECORD
  5
330D
102
{ACAD_REACTORS
330
3309
102
}
330
3309
100
AcDbXrecord
280
     1
270
     1
271
     1
  0
XRECORD
  5
330F
102
{ACAD_REACTORS
330
3309
102
}
330
3309
100
AcDbXrecord
280
     1
270
     1
271
     1
  0
XRECORD
  5
330C
102
{ACAD_REACTORS
330
3309
102
}
330
3309
100
AcDbXrecord
280
     1
270
     1
271
     1
  0
XRECORD
  5
354E
102
{ACAD_REACTORS
330
3319
102
}
330
3319
100
AcDbXrecord
280
     1
102
MATERIAL
148
0.0
149
0.0
149
0.0
 93
        0
 94
      127
282
     0
 72
     0
 77
     0
171
     0
175
     0
179
     0
273
     0
  0
XRECORD
  5
331B
102
{ACAD_REACTORS
330
3319
102
}
330
3319
100
AcDbXrecord
280
     1
270
     1
271
     1
  0
XRECORD
  5
331A
102
{ACAD_REACTORS
330
3319
102
}
330
3319
100
AcDbXrecord
280
     1
270
     1
271
     1
  0
XRECORD
  5
331E
102
{ACAD_REACTORS
330
3319
102
}
330
3319
100
AcDbXrecord
280
     1
270
     1
271
     1
  0
XRECORD
  5
331D
102
{ACAD_REACTORS
330
3319
102
}
330
3319
100
AcDbXrecord
280
     1
270
     1
271
     1
  0
XRECORD
  5
331F
102
{ACAD_REACTORS
330
3319
102
}
330
3319
100
AcDbXrecord
280
     1
270
     1
271
     1
  0
XRECORD
  5
331C
102
{ACAD_REACTORS
330
3319
102
}
330
3319
100
AcDbXrecord
280
     1
270
     1
271
     1
  0
CELLSTYLEMAP
  5
3544
102
{ACAD_REACTORS
330
3543
102
}
330
3543
100
AcDbCellStyleMap
 90
        3
300
CELLSTYLE
  1
TABLEFORMAT_BEGIN
 90
        5
170
     1
 91
        0
 92
    32768
 62
   257
 93
        1
300
CONTENTFORMAT
  1
CONTENTFORMAT_BEGIN
 90
        0
 91
        0
 92
      512
 93
        0
300

 40
0.0
140
1.0
 94
        5
 62
     0
340
3354
144
0.25
309
CONTENTFORMAT_END
171
     0
 94
        0
309
TABLEFORMAT_END
  1
CELLSTYLE_BEGIN
 90
        1
 91
        1
300
_TITLE
309
CELLSTYLE_END
300
CELLSTYLE
  1
TABLEFORMAT_BEGIN
 90
        5
170
     1
 91
        0
 92
        0
 62
   257
 93
        1
300
CONTENTFORMAT
  1
CONTENTFORMAT_BEGIN
 90
        0
 91
        0
 92
      512
 93
        0
300

 40
0.0
140
1.0
 94
        5
 62
     0
340
3354
144
0.18
309
CONTENTFORMAT_END
171
     0
 94
        0
309
TABLEFORMAT_END
  1
CELLSTYLE_BEGIN
 90
        2
 91
        1
300
_HEADER
309
CELLSTYLE_END
300
CELLSTYLE
  1
TABLEFORMAT_BEGIN
 90
        5
170
     1
 91
        0
 92
        0
 62
   257
 93
        1
300
CONTENTFORMAT
  1
CONTENTFORMAT_BEGIN
 90
        0
 91
        0
 92
      512
 93
        0
300

 40
0.0
140
1.0
 94
        2
 62
     0
340
3354
144
0.18
309
CONTENTFORMAT_END
171
     0
 94
        0
309
TABLEFORMAT_END
  1
CELLSTYLE_BEGIN
 90
        3
 91
        2
300
_DATA
309
CELLSTYLE_END
  0
XRECORD
  5
354F
102
{ACAD_REACTORS
330
3543
102
}
330
3543
100
AcDbXrecord
280
     1
102
ACAD_ROUNDTRIP_PRE2007_TABLESTYLE
 90
      512
 91
        0
  1

 92
      512
 93
        0
  2

 94
      512
 95
        0
  3

  0
ENDSEC
  0
EOF
