  0
SECTION
  2
HEADER
  9
$ACADVER
  1
AC1009
  9
$DWGCODEPAGE
  3
dos932
  9
$INSBASE
 10
0.0
 20
0.0
 30
0.0
  9
$EXTMIN
 10
-494.42594764338168
 20
-454.37620900848009
 30
-0.001525820700358
  9
$EXTMAX
 10
1033.717357767415
 20
598.57178537474465
 30
0.000000034924604
  9
$LIMMIN
 10
-2970.0
 20
-2100.0
  9
$LIMMAX
 10
2970.0
 20
2100.0
  9
$ORTHOMODE
 70
     1
  9
$REGENMODE
 70
     1
  9
$FILLMODE
 70
     1
  9
$QTEXTMODE
 70
     0
  9
$MIRRTEXT
 70
     0
  9
$LTSCALE
 40
20.0
  9
$ATTMODE
 70
     1
  9
$TEXTSIZE
 40
64.0
  9
$TRACEWID
 40
0.05
  9
$TEXTSTYLE
  7
STANDARD
  9
$CLAYER
  8
SIZE
  9
$CELTYPE
  6
CONTINUOUS
  9
$CECOLOR
 62
     7
  9
$DIMSCALE
 40
1.0
  9
$DIMASZ
 40
12.0
  9
$DIMEXO
 40
20.0
  9
$DIMDLI
 40
200.0
  9
$DIMRND
 40
0.0
  9
$DIMDLE
 40
0.0
  9
$DIMEXE
 40
20.0
  9
$DIMTP
 40
0.0
  9
$DIMTM
 40
0.0
  9
$DIMTXT
 40
64.0
  9
$DIMCEN
 40
0.09
  9
$DIMTSZ
 40
0.0
  9
$DIMTOL
 70
     0
  9
$DIMLIM
 70
     0
  9
$DIMTIH
 70
     0
  9
$DIMTOH
 70
     0
  9
$DIMSE1
 70
     0
  9
$DIMSE2
 70
     0
  9
$DIMTAD
 70
     1
  9
$DIMZIN
 70
     8
  9
$DIMBLK
  1

  9
$DIMASO
 70
     1
  9
$DIMSHO
 70
     0
  9
$DIMPOST
  1

  9
$DIMAPOST
  1

  9
$DIMALT
 70
     0
  9
$DIMALTD
 70
     2
  9
$DIMALTF
 40
25.399999999999999
  9
$DIMLFAC
 40
1.0
  9
$DIMTOFL
 70
     1
  9
$DIMTVP
 40
0.0
  9
$DIMTIX
 70
     1
  9
$DIMSOXD
 70
     0
  9
$DIMSAH
 70
     0
  9
$DIMBLK1
  1

  9
$DIMBLK2
  1

  9
$DIMSTYLE
  2
STANDARD
  9
$DIMCLRD
 70
     7
  9
$DIMCLRE
 70
     7
  9
$DIMCLRT
 70
     7
  9
$DIMTFAC
 40
1.0
  9
$DIMGAP
 40
25.0
  9
$LUNITS
 70
     2
  9
$LUPREC
 70
     4
  9
$SKETCHINC
 40
0.1
  9
$FILLETRAD
 40
3.0
  9
$AUNITS
 70
     1
  9
$AUPREC
 70
     3
  9
$MENU
  1
ACAD
  9
$ELEVATION
 40
0.0
  9
$PELEVATION
 40
0.0
  9
$THICKNESS
 40
0.0
  9
$LIMCHECK
 70
     0
  9
$CHAMFERA
 40
0.0
  9
$CHAMFERB
 40
0.0
  9
$SKPOLY
 70
     0
  9
$TDCREATE
 40
2453019.62301037
  9
$TDUPDATE
 40
2453425.09803191
  9
$TDINDWG
 40
1.7171919097
  9
$TDUSRTIMER
 40
1.7171919097
  9
$USRTIMER
 70
     1
  9
$ANGBASE
 50
0.0
  9
$ANGDIR
 70
     0
  9
$PDMODE
 70
     3
  9
$PDSIZE
 40
-2.0
  9
$PLINEWID
 40
0.0
  9
$SPLFRAME
 70
     0
  9
$SPLINETYPE
 70
     6
  9
$SPLINESEGS
 70
     8
  9
$SURFTAB1
 70
     6
  9
$SURFTAB2
 70
     6
  9
$SURFTYPE
 70
     6
  9
$SURFU
 70
     6
  9
$SURFV
 70
     6
  9
$UCSNAME
  2

  9
$UCSORG
 10
0.0
 20
0.0
 30
0.0
  9
$UCSXDIR
 10
1.0
 20
0.0
 30
0.0
  9
$UCSYDIR
 10
0.0
 20
1.0
 30
0.0
  9
$PUCSNAME
  2

  9
$PUCSORG
 10
0.0
 20
0.0
 30
0.0
  9
$PUCSXDIR
 10
1.0
 20
0.0
 30
0.0
  9
$PUCSYDIR
 10
0.0
 20
1.0
 30
0.0
  9
$USERI1
 70
     0
  9
$USERI2
 70
     0
  9
$USERI3
 70
     0
  9
$USERI4
 70
     0
  9
$USERI5
 70
     0
  9
$USERR1
 40
20.0
  9
$USERR2
 40
0.0
  9
$USERR3
 40
0.0
  9
$USERR4
 40
0.0
  9
$USERR5
 40
0.0
  9
$WORLDVIEW
 70
     1
  9
$SHADEDGE
 70
     3
  9
$SHADEDIF
 70
    70
  9
$TILEMODE
 70
     1
  9
$MAXACTVP
 70
    48
  9
$PINSBASE
 10
0.0
 20
0.0
 30
0.0
  9
$PLIMCHECK
 70
     0
  9
$PEXTMIN
 10
-100000000000000000000.0
 20
-100000000000000000000.0
 30
-100000000000000000000.0
  9
$PEXTMAX
 10
100000000000000000000.0
 20
100000000000000000000.0
 30
100000000000000000000.0
  9
$PLIMMIN
 10
0.0
 20
0.0
  9
$PLIMMAX
 10
12.0
 20
9.0
  9
$UNITMODE
 70
     0
  9
$VISRETAIN
 70
     0
  9
$PLINEGEN
 70
     0
  9
$PSLTSCALE
 70
     0
  9
$TREEDEPTH
 70
  3020
  9
$ATTDIA
 70
     0
  9
$ATTREQ
 70
     1
  9
$BLIPMODE
 70
     1
  9
$COORDS
 70
     1
  9
$DRAGMODE
 70
     2
  9
$OSMODE
 70
     0
  9
$HANDLING
 70
     0
  9
$HANDSEED
  5
EE75
  0
ENDSEC
  0
SECTION
  2
TABLES
  0
TABLE
  2
LTYPE
 70
     2
  0
LTYPE
  2
CONTINUOUS
 70
     0
  3
実線
 72
    65
 73
     0
 40
0.0
  0
LTYPE
  2
DASHDOT
 70
     0
  3
____ _ ____ _ ____ _ ____ _ ____ _ ____ _ ____
 72
    65
 73
     4
 40
5.5
 49
4.0
 49
-0.6
 49
0.3
 49
-0.6
  0
ENDTAB
  0
TABLE
  2
LAYER
 70
    12
  0
LAYER
  2
0
 70
     0
 62
     7
  6
CONTINUOUS
  0
LAYER
  2
BASIS
 70
     0
 62
     6
  6
DASHDOT
  0
LAYER
  2
OUTLINE
 70
     0
 62
     3
  6
CONTINUOUS
  0
LAYER
  2
DETAIL
 70
     0
 62
     5
  6
CONTINUOUS
  0
LAYER
  2
SIZE
 70
     0
 62
    30
  6
CONTINUOUS
  0
LAYER
  2
ARRANGE
 70
     0
 62
     1
  6
CONTINUOUS
  0
LAYER
  2
ETC
 70
     0
 62
    61
  6
CONTINUOUS
  0
LAYER
  2
FIX
 70
     0
 62
    11
  6
CONTINUOUS
  0
LAYER
  2
NOTE
 70
     0
 62
     4
  6
CONTINUOUS
  0
LAYER
  2
DEFPOINTS
 70
    64
 62
     7
  6
CONTINUOUS
  0
LAYER
  2
SERVICESPACE
 70
    64
 62
     2
  6
DASHDOT
  0
LAYER
  2
SYMBOLLINE
 70
    64
 62
    15
  6
CONTINUOUS
  0
ENDTAB
  0
TABLE
  2
STYLE
 70
     1
  0
STYLE
  2
STANDARD
 70
     0
 40
64.0
 41
0.9
 50
0.0
 71
     0
 42
64.0
  3
SIMPLEX.shx
  4
BIGFONT.shx
  0
ENDTAB
  0
TABLE
  2
APPID
 70
    19
  0
APPID
  2
ACAD
 70
     0
  0
APPID
  2
AUTOCAD_POSTSCRIPT_FIGURE
 70
     0
  0
APPID
  2
ACAD_EXEMPT_FROM_CAD_STANDARDS
 70
     0
  0
APPID
  2
ACAD_PSEXT
 70
     0
  0
APPID
  2
ACAUTHENVIRON
 70
     0
  0
APPID
  2
GENIUS_GENOENT_13
 70
     0
  0
APPID
  2
GENIUS_GENCFG_13
 70
     0
  0
APPID
  2
GENIUS_GENCFG0_13
 70
     0
  0
APPID
  2
GENIUS_GENCFG1_13
 70
     0
  0
APPID
  2
GENIUS_GENCFG2_13
 70
     0
  0
APPID
  2
GENIUS_GENCFG3_13
 70
     0
  0
APPID
  2
GENIUS_GENCFG4_13
 70
     0
  0
APPID
  2
GENIUS_GEVCFG0_13
 70
     0
  0
APPID
  2
CONTENTBLOCKICON
 70
     0
  0
APPID
  2
CONTENTBLOCKDESCRIPTION
 70
     0
  0
APPID
  2
ACAD_NAV_VCDISPLAY
 70
     0
  0
APPID
  2
ACAD_MLEADERVER
 70
     0
  0
APPID
  2
ACDBDYNAMICBLOCKTRUENAME
 70
     0
  0
APPID
  2
ACDBDYNAMICBLOCKGUID
 70
     0
  0
ENDTAB
  0
TABLE
  2
DIMSTYLE
 70
     1
  0
DIMSTYLE
  2
STANDARD
 70
     0
  3

  4

  5
_ORIGIN
  6

  7

 40
1.0
 41
12.0
 42
20.0
 43
200.0
 44
20.0
 45
0.0
 46
0.0
 47
0.0
 48
0.0
140
64.0
141
0.09
142
0.0
143
25.399999999999999
144
1.0
145
0.0
146
1.0
147
25.0
 71
     0
 72
     0
 73
     0
 74
     0
 75
     0
 76
     0
 77
     1
 78
     8
170
     0
171
     2
172
     1
173
     0
174
     1
175
     0
176
     7
177
     7
178
     7
  0
ENDTAB
  0
TABLE
  2
VIEW
 70
     1
  0
VIEW
  2
ALL
 70
     0
 40
4282.6198079999986
 10
0.0
 20
41.309904000000003
 41
5940.0
 11
0.0
 21
0.0
 31
1.0
 12
0.0
 22
0.0
 32
0.0
 42
50.0
 43
0.0
 44
0.0
 50
0.0
 71
     0
  0
ENDTAB
  0
TABLE
  2
UCS
 70
     0
  0
ENDTAB
  0
TABLE
  2
VPORT
 70
     1
  0
VPORT
  2
*ACTIVE
 70
     0
 10
0.0
 20
0.0
 11
1.0
 21
1.0
 12
269.64570506201659
 22
72.097788183132252
 13
0.0
 23
0.0
 14
1.0
 24
1.0
 15
0.0
 25
0.0
 16
0.0
 26
0.0
 36
1.0
 17
0.0
 27
0.0
 37
0.0
 40
1060.006863619313
 41
1.767337807606264
 42
50.0
 43
0.0
 44
0.0
 50
0.0
 51
0.0
 71
     0
 72
  1000
 73
     1
 74
     3
 75
     0
 76
     0
 77
     0
 78
     0
  0
ENDTAB
  0
ENDSEC
  0
SECTION
  2
BLOCKS
  0
BLOCK
  8
0
  2
_ORIGIN
 70
     0
 10
0.0
 20
0.0
 30
0.0
  3
_ORIGIN
  1
_ORIGIN
  0
CIRCLE
  8
SIZE
  6
CONTINUOUS
 62
    30
 10
0.0
 20
0.0
 30
0.0
 40
0.5
  0
LINE
  8
SIZE
  6
CONTINUOUS
 62
    30
 10
0.0
 20
0.0
 30
0.0
 11
-1.0
 21
0.0
 31
0.0
  0
ENDBLK
  8
0
  0
ENDSEC
  0
SECTION
  2
ENTITIES
  0
TEXT
  8
ETC
  6
CONTINUOUS
 62
    61
 10
430.25871799999999
 20
534.42753900000002
 30
0.0
 40
64.0
  1
MK-3506TA3_1
 41
0.9
  0
TEXT
  8
ETC
  6
CONTINUOUS
 62
    61
 10
426.07272399999999
 20
416.47222900000003
 30
0.0
 40
64.0
  1
産業扇
 41
0.9
  0
TEXT
  8
ETC
  6
CONTINUOUS
 62
    61
 10
476.68022599999989
 20
332.647199
 30
0.0
 40
40.0
  1
MK-3506TA3
 41
0.9
  0
LINE
  8
NOTE
  6
CONTINUOUS
 62
     4
 10
-28.0
 20
0.0
 30
0.0
 11
12.0
 21
0.0
 31
0.0
  0
TEXT
  8
SIZE
  6
CONTINUOUS
 62
    30
 10
-74.057142999999996
 20
450.66002099999992
 30
0.0
 40
64.0
  1
600
 41
0.9
  0
LINE
  8
SIZE
  6
CONTINUOUS
 62
    30
 10
298.0
 20
418.66002099999992
 30
0.0
 11
0.0
 21
418.66002099999992
 31
0.0
  0
TEXT
  8
SIZE
  6
CONTINUOUS
 62
    30
 10
-115.2
 20
319.78891800000002
 30
0.0
 40
64.0
  1
287.5
 41
0.9
  0
LINE
  8
SIZE
  6
CONTINUOUS
 62
    30
 10
141.75
 20
287.78891800000002
 30
0.0
 11
0.0
 21
287.78891800000002
 31
0.0
  0
LINE
  8
OUTLINE
  6
CONTINUOUS
 62
     3
 10
-300.0
 20
0.0
 30
0.0
 11
300.0
 21
0.0
 31
0.0
  0
LINE
  8
OUTLINE
  6
CONTINUOUS
 62
     3
 10
-291.42598800000002
 20
-238.0
 30
0.0
 11
291.42598800000002
 21
-238.0
 31
0.0
  0
CIRCLE
  8
ARRANGE
  6
CONTINUOUS
 62
     1
 10
0.0
 20
0.0
 30
0.0
 40
40.0
  0
POINT
  8
ARRANGE
  6
CONTINUOUS
 62
     1
 10
0.0
 20
0.0
 30
0.0
  0
LINE
  8
DETAIL
  6
CONTINUOUS
 62
     5
 10
-285.5
 20
-18.0
 30
0.0
 11
285.5
 21
-18.0
 31
0.0
  0
LINE
  8
DETAIL
  6
CONTINUOUS
 62
     5
 10
-291.42598800000002
 20
-238.0
 30
0.0
 11
291.42598800000002
 21
-238.0
 31
0.0
  0
LINE
  8
DETAIL
  6
CONTINUOUS
 62
     5
 10
-285.5
 20
-225.109273
 30
0.0
 11
285.5
 21
-225.109273
 31
0.0
  0
LINE
  8
DETAIL
  6
CONTINUOUS
 62
     5
 10
-300.0
 20
0.0
 30
0.0
 11
300.0
 21
0.0
 31
0.0
  0
LINE
  8
NOTE
  6
CONTINUOUS
 62
     4
 10
-8.0
 20
-20.0
 30
0.0
 11
-8.0
 21
20.0
 31
0.0
  0
LINE
  8
NOTE
  6
CONTINUOUS
 62
     4
 10
-143.75
 20
-20.0
 30
0.0
 11
-143.75
 21
20.0
 31
0.0
  0
LINE
  8
NOTE
  6
CONTINUOUS
 62
     4
 10
-47.333690999999988
 20
7.270539999999983
 30
0.0
 11
-8.0
 21
0.0
 31
0.0
  0
LINE
  8
NOTE
  6
CONTINUOUS
 62
     4
 10
-8.0
 20
0.0
 30
0.0
 11
-38.428705999999977
 21
25.963318000000019
 31
0.0
  0
LINE
  8
NOTE
  6
CONTINUOUS
 62
     4
 10
-8.0
 20
0.0
 30
0.0
 11
-377.04072400000001
 21
157.1035489999999
 31
0.0
  0
CIRCLE
  8
FIX
  6
CONTINUOUS
 62
    11
 10
-143.75
 20
0.0
 30
0.0
 40
6.0
  0
LINE
  8
BASIS
  6
DASHDOT
 62
     6
 10
0.0
 20
75.610625000000027
 30
0.0
 11
0.0
 21
-296.02670599999999
 31
0.0
  0
TEXT
  8
SIZE
  6
CONTINUOUS
 62
    30
 10
-486.32937399999997
 20
-392.07496400000002
 30
0.0
 40
64.0
  1
14.5
 41
0.9
  0
LINE
  8
SIZE
  6
CONTINUOUS
 62
    30
 10
-300.0
 20
-424.07496400000002
 30
0.0
 11
-489.08617700000002
 21
-424.07496400000002
 31
0.0
  0
ARC
  8
OUTLINE
  6
CONTINUOUS
 62
     3
 10
-296.19999999999999
 20
-229.42598799999999
 30
0.0
 40
3.8
 50
180.0
 51
225.0
  0
ARC
  8
DETAIL
  6
CONTINUOUS
 62
     5
 10
-296.19999999999999
 20
-229.42598799999999
 30
0.0
 40
3.8
 50
180.0
 51
225.0
  0
LINE
  8
DETAIL
  6
CONTINUOUS
 62
     5
 10
-285.5
 20
0.0
 30
0.0
 11
-285.5
 21
-238.0
 31
0.0
  0
LINE
  8
SIZE
  6
CONTINUOUS
 62
    30
 10
-285.5
 20
-258.0
 30
0.0
 11
-285.5
 21
-454.07496400000002
 31
0.0
  0
LINE
  8
SIZE
  6
CONTINUOUS
 62
    30
 10
-300.0
 20
-249.42598799999999
 30
0.0
 11
-300.0
 21
-454.07496400000002
 31
0.0
  0
CIRCLE
  8
SIZE
  6
CONTINUOUS
 62
    30
 10
-285.5
 20
-424.07496400000002
 30
0.0
 40
6.0
  0
CIRCLE
  8
SIZE
  6
CONTINUOUS
 62
    30
 10
-300.0
 20
-424.07496400000002
 30
0.0
 40
6.0
  0
LINE
  8
SIZE
  6
CONTINUOUS
 62
    30
 10
-285.5
 20
-424.07496400000002
 30
0.0
 11
-300.0
 21
-424.07496400000002
 31
0.0
  0
LINE
  8
SIZE
  6
CONTINUOUS
 62
    30
 10
-302.0
 20
-424.07496400000002
 30
0.0
 11
-304.0
 21
-424.07496400000002
 31
0.0
  0
LINE
  8
SIZE
  6
CONTINUOUS
 62
    30
 10
-283.5
 20
-424.07496400000002
 30
0.0
 11
-281.5
 21
-424.07496400000002
 31
0.0
  0
LINE
  8
OUTLINE
  6
CONTINUOUS
 62
     3
 10
-294.11299400000001
 20
-236.88700600000001
 30
0.0
 11
-298.88700599999999
 21
-232.11299399999999
 31
0.0
  0
ARC
  8
OUTLINE
  6
CONTINUOUS
 62
     3
 10
-291.42598800000002
 20
-234.19999999999999
 30
0.0
 40
3.8
 50
225.0
 51
270.0
  0
ARC
  8
DETAIL
  6
CONTINUOUS
 62
     5
 10
-291.42598800000002
 20
-234.19999999999999
 30
0.0
 40
3.8
 50
225.0
 51
270.0
  0
LINE
  8
DETAIL
  6
CONTINUOUS
 62
     5
 10
-294.11299400000001
 20
-236.88700600000001
 30
0.0
 11
-298.88700599999999
 21
-232.11299399999999
 31
0.0
  0
LINE
  8
OUTLINE
  6
CONTINUOUS
 62
     3
 10
-300.0
 20
0.0
 30
0.0
 11
-300.0
 21
-229.42598799999999
 31
0.0
  0
LINE
  8
DETAIL
  6
CONTINUOUS
 62
     5
 10
-300.0
 20
0.0
 30
0.0
 11
-300.0
 21
-229.42598799999999
 31
0.0
  0
LINE
  8
OUTLINE
  6
CONTINUOUS
 62
     3
 10
-285.25
 20
0.0
 30
0.0
 11
-299.75
 21
0.0
 31
0.0
  0
LINE
  8
DETAIL
  6
CONTINUOUS
 62
     5
 10
-285.25
 20
0.0
 30
0.0
 11
-299.75
 21
0.0
 31
0.0
  0
LINE
  8
NOTE
  6
CONTINUOUS
 62
     4
 10
-163.75
 20
0.0
 30
0.0
 11
-123.75
 21
0.0
 31
0.0
  0
TEXT
  8
NOTE
  6
CONTINUOUS
 62
     4
 10
-476.46840800000001
 20
185.36464100000001
 30
0.0
 40
64.0
  1
EL
 41
0.9
  0
LINE
  8
NOTE
  6
CONTINUOUS
 62
     4
 10
-494.13406800000001
 20
157.1035489999999
 30
0.0
 11
-377.04072400000001
 21
157.1035489999999
 31
0.0
  0
LINE
  8
SIZE
  6
CONTINUOUS
 62
    30
 10
-300.0
 20
20.0
 30
0.0
 11
-300.0
 21
448.66002099999992
 31
0.0
  0
LINE
  8
SIZE
  6
CONTINUOUS
 62
    30
 10
-143.75
 20
40.0
 30
0.0
 11
-143.75
 21
317.78891800000002
 31
0.0
  0
TEXT
  8
SIZE
  6
CONTINUOUS
 62
    30
 10
-245.28683799999999
 20
191.38238000000001
 30
0.0
 40
64.0
  1
292
 41
0.9
  0
LINE
  8
SIZE
  6
CONTINUOUS
 62
    30
 10
-298.0
 20
159.38238000000001
 30
0.0
 11
-154.0
 21
159.38238000000001
 31
0.0
  0
LINE
  8
SIZE
  6
CONTINUOUS
 62
    30
 10
-300.0
 20
20.0
 30
0.0
 11
-300.0
 21
189.38238000000001
 31
0.0
  0
CIRCLE
  8
SIZE
  6
CONTINUOUS
 62
    30
 10
-300.0
 20
159.38238000000001
 30
0.0
 40
6.0
  0
LINE
  8
SIZE
  6
CONTINUOUS
 62
    30
 10
-8.0
 20
40.0
 30
0.0
 11
-8.0
 21
189.38238000000001
 31
0.0
  0
LINE
  8
SIZE
  6
CONTINUOUS
 62
    30
 10
-10.0
 20
159.38238000000001
 30
0.0
 11
-154.0
 21
159.38238000000001
 31
0.0
  0
CIRCLE
  8
SIZE
  6
CONTINUOUS
 62
    30
 10
-8.0
 20
159.38238000000001
 30
0.0
 40
6.0
  0
LINE
  8
SIZE
  6
CONTINUOUS
 62
    30
 10
-298.0
 20
418.66002099999992
 30
0.0
 11
0.0
 21
418.66002099999992
 31
0.0
  0
CIRCLE
  8
SIZE
  6
CONTINUOUS
 62
    30
 10
-300.0
 20
418.66002099999992
 30
0.0
 40
6.0
  0
LINE
  8
SIZE
  6
CONTINUOUS
 62
    30
 10
-141.75
 20
287.78891800000002
 30
0.0
 11
0.0
 21
287.78891800000002
 31
0.0
  0
CIRCLE
  8
SIZE
  6
CONTINUOUS
 62
    30
 10
-143.75
 20
287.78891800000002
 30
0.0
 40
6.0
  0
LINE
  8
NOTE
  6
CONTINUOUS
 62
     4
 10
143.75
 20
-20.0
 30
0.0
 11
143.75
 21
20.0
 31
0.0
  0
LINE
  8
NOTE
  6
CONTINUOUS
 62
     4
 10
170.03538399999999
 20
30.15093000000002
 30
0.0
 11
143.75
 21
0.0
 31
0.0
  0
LINE
  8
NOTE
  6
CONTINUOUS
 62
     4
 10
143.75
 20
0.0
 30
0.0
 11
181.58927499999999
 21
12.96877899999998
 31
0.0
  0
CIRCLE
  8
SIZE
  6
CONTINUOUS
 62
    30
 10
487.10294499999998
 20
0.0
 30
0.0
 40
6.0
  0
CIRCLE
  8
SIZE
  6
CONTINUOUS
 62
    30
 10
572.37336600000003
 20
0.0
 30
0.0
 40
6.0
  0
LINE
  8
NOTE
  6
CONTINUOUS
 62
     4
 10
143.75
 20
0.0
 30
0.0
 11
388.89713899999992
 21
164.44972800000011
 31
0.0
  0
LINE
  8
SIZE
  6
CONTINUOUS
 62
    30
 10
487.10294499999998
 20
0.0
 30
0.0
 11
487.10294499999998
 21
124.699567
 31
0.0
  0
CIRCLE
  8
FIX
  6
CONTINUOUS
 62
    11
 10
143.75
 20
0.0
 30
0.0
 40
6.0
  0
LINE
  8
SIZE
  6
CONTINUOUS
 62
    30
 10
305.5
 20
-238.0
 30
0.0
 11
602.37336600000003
 21
-238.0
 31
0.0
  0
LINE
  8
SIZE
  6
CONTINUOUS
 62
    30
 10
320.0
 20
0.0
 30
0.0
 11
602.37336600000003
 21
0.0
 31
0.0
  0
LINE
  8
SIZE
  6
CONTINUOUS
 62
    30
 10
305.5
 20
-18.0
 30
0.0
 11
517.10294499999998
 21
-18.0
 31
0.0
  0
LINE
  8
SIZE
  6
CONTINUOUS
 62
    30
 10
320.0
 20
0.0
 30
0.0
 11
517.10294499999998
 21
0.0
 31
0.0
  0
LINE
  8
SIZE
  6
CONTINUOUS
 62
    30
 10
300.0
 20
-424.21653199999997
 30
0.0
 11
503.72393099999999
 21
-424.21653199999997
 31
0.0
  0
ARC
  8
OUTLINE
  6
CONTINUOUS
 62
     3
 10
296.19999999999999
 20
-229.42598799999999
 30
0.0
 40
3.8
 50
315.0
 51
0.0
  0
LINE
  8
DETAIL
  6
CONTINUOUS
 62
     5
 10
285.5
 20
0.0
 30
0.0
 11
285.5
 21
-238.0
 31
0.0
  0
ARC
  8
DETAIL
  6
CONTINUOUS
 62
     5
 10
296.19999999999999
 20
-229.42598799999999
 30
0.0
 40
3.8
 50
315.0
 51
0.0
  0
LINE
  8
SIZE
  6
CONTINUOUS
 62
    30
 10
300.0
 20
-249.42598799999999
 30
0.0
 11
300.0
 21
-454.21653199999997
 31
0.0
  0
LINE
  8
SIZE
  6
CONTINUOUS
 62
    30
 10
285.5
 20
-258.0
 30
0.0
 11
285.5
 21
-454.21653199999997
 31
0.0
  0
CIRCLE
  8
SIZE
  6
CONTINUOUS
 62
    30
 10
300.0
 20
-424.21653199999997
 30
0.0
 40
6.0
  0
CIRCLE
  8
SIZE
  6
CONTINUOUS
 62
    30
 10
285.5
 20
-424.21653199999997
 30
0.0
 40
6.0
  0
LINE
  8
SIZE
  6
CONTINUOUS
 62
    30
 10
300.0
 20
-424.21653199999997
 30
0.0
 11
285.5
 21
-424.21653199999997
 31
0.0
  0
LINE
  8
SIZE
  6
CONTINUOUS
 62
    30
 10
283.5
 20
-424.21653199999997
 30
0.0
 11
281.5
 21
-424.21653199999997
 31
0.0
  0
LINE
  8
SIZE
  6
CONTINUOUS
 62
    30
 10
302.0
 20
-424.21653199999997
 30
0.0
 11
304.0
 21
-424.21653199999997
 31
0.0
  0
ARC
  8
OUTLINE
  6
CONTINUOUS
 62
     3
 10
291.42598800000002
 20
-234.19999999999999
 30
0.0
 40
3.8
 50
270.0
 51
315.0
  0
LINE
  8
OUTLINE
  6
CONTINUOUS
 62
     3
 10
294.11299400000013
 20
-236.88700600000001
 30
0.0
 11
298.88700599999987
 21
-232.11299399999999
 31
0.0
  0
LINE
  8
DETAIL
  6
CONTINUOUS
 62
     5
 10
294.11299400000013
 20
-236.88700600000001
 30
0.0
 11
298.88700599999987
 21
-232.11299399999999
 31
0.0
  0
ARC
  8
DETAIL
  6
CONTINUOUS
 62
     5
 10
291.42598800000002
 20
-234.19999999999999
 30
0.0
 40
3.8
 50
270.0
 51
315.0
  0
LINE
  8
NOTE
  6
CONTINUOUS
 62
     4
 10
123.75
 20
0.0
 30
0.0
 11
163.75
 21
0.0
 31
0.0
  0
LINE
  8
OUTLINE
  6
CONTINUOUS
 62
     3
 10
300.0
 20
0.0
 30
0.0
 11
300.0
 21
-229.42598799999999
 31
0.0
  0
LINE
  8
DETAIL
  6
CONTINUOUS
 62
     5
 10
300.0
 20
0.0
 30
0.0
 11
300.0
 21
-229.42598799999999
 31
0.0
  0
LINE
  8
OUTLINE
  6
CONTINUOUS
 62
     3
 10
285.5
 20
0.0
 30
0.0
 11
300.0
 21
0.0
 31
0.0
  0
LINE
  8
DETAIL
  6
CONTINUOUS
 62
     5
 10
285.5
 20
0.0
 30
0.0
 11
300.0
 21
0.0
 31
0.0
  0
CIRCLE
  8
SIZE
  6
CONTINUOUS
 62
    30
 10
572.37336600000003
 20
-238.0
 30
0.0
 40
6.0
  0
LINE
  8
SIZE
  6
CONTINUOUS
 62
    30
 10
572.37336600000003
 20
-2.0
 30
0.0
 11
572.37336600000003
 21
-236.0
 31
0.0
  0
TEXT
  8
SIZE
  6
CONTINUOUS
 62
    30
 10
330.59077600000001
 20
-392.21653199999997
 30
0.0
 40
64.0
  1
14.5
 41
0.9
  0
CIRCLE
  8
SIZE
  6
CONTINUOUS
 62
    30
 10
487.10294499999998
 20
-18.0
 30
0.0
 40
6.0
  0
TEXT
  8
SIZE
  6
CONTINUOUS
 62
    30
 10
540.37336600000003
 20
-193.057143
 30
0.0
 40
64.0
  1
238
 50
90.0
 41
0.9
  0
LINE
  8
SIZE
  6
CONTINUOUS
 62
    30
 10
487.10294499999998
 20
-18.0
 30
0.0
 11
487.10294499999998
 21
0.0
 31
0.0
  0
LINE
  8
SIZE
  6
CONTINUOUS
 62
    30
 10
487.10294499999998
 20
-20.0
 30
0.0
 11
487.10294499999998
 21
-22.0
 31
0.0
  0
LINE
  8
NOTE
  6
CONTINUOUS
 62
     4
 10
388.89713899999992
 20
164.44972800000011
 30
0.0
 11
851.73743899999999
 21
164.44972800000011
 31
0.0
  0
TEXT
  8
NOTE
  6
CONTINUOUS
 62
     4
 10
399.49653499999999
 20
189.17818399999999
 30
0.0
 40
64.0
  1
4-φ12×21
 41
0.9
  0
LINE
  8
SIZE
  6
CONTINUOUS
 62
    30
 10
300.0
 20
20.0
 30
0.0
 11
300.0
 21
448.66002099999992
 31
0.0
  0
LINE
  8
SIZE
  6
CONTINUOUS
 62
    30
 10
143.75
 20
40.0
 30
0.0
 11
143.75
 21
317.78891800000002
 31
0.0
  0
CIRCLE
  8
SIZE
  6
CONTINUOUS
 62
    30
 10
143.75
 20
287.78891800000002
 30
0.0
 40
6.0
  0
CIRCLE
  8
SIZE
  6
CONTINUOUS
 62
    30
 10
300.0
 20
418.66002099999992
 30
0.0
 40
6.0
  0
TEXT
  8
SIZE
  6
CONTINUOUS
 62
    30
 10
455.10294499999998
 20
27.863623000000018
 30
0.0
 40
64.0
  1
18
 50
90.0
 41
0.9
  0
LINE
  8
SIZE
  6
CONTINUOUS
 62
    30
 10
487.10294499999998
 20
2.0
 30
0.0
 11
487.10294499999998
 21
4.0
 31
0.0
  0
ENDSEC
  0
EOF
