  0
SECTION
  2
HEADER
  9
$ACADVER
  1
AC1009
  9
$DWGCODEPAGE
  3
dos932
  9
$INSBASE
 10
0.0
 20
0.0
 30
0.0
  9
$EXTMIN
 10
-726.91038394918542
 20
-547.6226690779713
 30
-0.000000034918195
  9
$EXTMAX
 10
1072.6913568362249
 20
491.54663876577621
 30
0.000000081493575
  9
$LIMMIN
 10
-2970.0
 20
-2100.0
  9
$LIMMAX
 10
2970.0
 20
2100.0
  9
$ORTHOMODE
 70
     1
  9
$REGENMODE
 70
     1
  9
$FILLMODE
 70
     1
  9
$QTEXTMODE
 70
     0
  9
$MIRRTEXT
 70
     0
  9
$LTSCALE
 40
20.0
  9
$ATTMODE
 70
     1
  9
$TEXTSIZE
 40
64.0
  9
$TRACEWID
 40
0.05
  9
$TEXTSTYLE
  7
STANDARD
  9
$CLAYER
  8
SIZE
  9
$CELTYPE
  6
CONTINUOUS
  9
$CECOLOR
 62
     7
  9
$DIMSCALE
 40
1.0
  9
$DIMASZ
 40
12.0
  9
$DIMEXO
 40
20.0
  9
$DIMDLI
 40
200.0
  9
$DIMRND
 40
0.0
  9
$DIMDLE
 40
0.0
  9
$DIMEXE
 40
20.0
  9
$DIMTP
 40
0.0
  9
$DIMTM
 40
0.0
  9
$DIMTXT
 40
64.0
  9
$DIMCEN
 40
0.09
  9
$DIMTSZ
 40
0.0
  9
$DIMTOL
 70
     0
  9
$DIMLIM
 70
     0
  9
$DIMTIH
 70
     0
  9
$DIMTOH
 70
     0
  9
$DIMSE1
 70
     0
  9
$DIMSE2
 70
     0
  9
$DIMTAD
 70
     1
  9
$DIMZIN
 70
     8
  9
$DIMBLK
  1

  9
$DIMASO
 70
     1
  9
$DIMSHO
 70
     0
  9
$DIMPOST
  1

  9
$DIMAPOST
  1

  9
$DIMALT
 70
     0
  9
$DIMALTD
 70
     2
  9
$DIMALTF
 40
25.399999999999999
  9
$DIMLFAC
 40
1.0
  9
$DIMTOFL
 70
     1
  9
$DIMTVP
 40
0.0
  9
$DIMTIX
 70
     1
  9
$DIMSOXD
 70
     0
  9
$DIMSAH
 70
     0
  9
$DIMBLK1
  1

  9
$DIMBLK2
  1

  9
$DIMSTYLE
  2
STANDARD
  9
$DIMCLRD
 70
     7
  9
$DIMCLRE
 70
     7
  9
$DIMCLRT
 70
     7
  9
$DIMTFAC
 40
1.0
  9
$DIMGAP
 40
25.0
  9
$LUNITS
 70
     2
  9
$LUPREC
 70
     4
  9
$SKETCHINC
 40
0.1
  9
$FILLETRAD
 40
3.0
  9
$AUNITS
 70
     1
  9
$AUPREC
 70
     3
  9
$MENU
  1
ACAD
  9
$ELEVATION
 40
0.0
  9
$PELEVATION
 40
0.0
  9
$THICKNESS
 40
0.0
  9
$LIMCHECK
 70
     0
  9
$CHAMFERA
 40
0.0
  9
$CHAMFERB
 40
0.0
  9
$SKPOLY
 70
     0
  9
$TDCREATE
 40
2453019.62301037
  9
$TDUPDATE
 40
2453425.098082639
  9
$TDINDWG
 40
1.7199233912
  9
$TDUSRTIMER
 40
1.7199233912
  9
$USRTIMER
 70
     1
  9
$ANGBASE
 50
0.0
  9
$ANGDIR
 70
     0
  9
$PDMODE
 70
     3
  9
$PDSIZE
 40
-2.0
  9
$PLINEWID
 40
0.0
  9
$SPLFRAME
 70
     0
  9
$SPLINETYPE
 70
     6
  9
$SPLINESEGS
 70
     8
  9
$SURFTAB1
 70
     6
  9
$SURFTAB2
 70
     6
  9
$SURFTYPE
 70
     6
  9
$SURFU
 70
     6
  9
$SURFV
 70
     6
  9
$UCSNAME
  2

  9
$UCSORG
 10
0.0
 20
0.0
 30
0.0
  9
$UCSXDIR
 10
1.0
 20
0.0
 30
0.0
  9
$UCSYDIR
 10
0.0
 20
1.0
 30
0.0
  9
$PUCSNAME
  2

  9
$PUCSORG
 10
0.0
 20
0.0
 30
0.0
  9
$PUCSXDIR
 10
1.0
 20
0.0
 30
0.0
  9
$PUCSYDIR
 10
0.0
 20
1.0
 30
0.0
  9
$USERI1
 70
     0
  9
$USERI2
 70
     0
  9
$USERI3
 70
     0
  9
$USERI4
 70
     0
  9
$USERI5
 70
     0
  9
$USERR1
 40
20.0
  9
$USERR2
 40
0.0
  9
$USERR3
 40
0.0
  9
$USERR4
 40
0.0
  9
$USERR5
 40
0.0
  9
$WORLDVIEW
 70
     1
  9
$SHADEDGE
 70
     3
  9
$SHADEDIF
 70
    70
  9
$TILEMODE
 70
     1
  9
$MAXACTVP
 70
    48
  9
$PINSBASE
 10
0.0
 20
0.0
 30
0.0
  9
$PLIMCHECK
 70
     0
  9
$PEXTMIN
 10
-100000000000000000000.0
 20
-100000000000000000000.0
 30
-100000000000000000000.0
  9
$PEXTMAX
 10
100000000000000000000.0
 20
100000000000000000000.0
 30
100000000000000000000.0
  9
$PLIMMIN
 10
0.0
 20
0.0
  9
$PLIMMAX
 10
12.0
 20
9.0
  9
$UNITMODE
 70
     0
  9
$VISRETAIN
 70
     0
  9
$PLINEGEN
 70
     0
  9
$PSLTSCALE
 70
     0
  9
$TREEDEPTH
 70
  3020
  9
$ATTDIA
 70
     0
  9
$ATTREQ
 70
     1
  9
$BLIPMODE
 70
     1
  9
$COORDS
 70
     1
  9
$DRAGMODE
 70
     2
  9
$OSMODE
 70
     0
  9
$HANDLING
 70
     0
  9
$HANDSEED
  5
EF53
  0
ENDSEC
  0
SECTION
  2
TABLES
  0
TABLE
  2
LTYPE
 70
     2
  0
LTYPE
  2
CONTINUOUS
 70
     0
  3
実線
 72
    65
 73
     0
 40
0.0
  0
LTYPE
  2
DASHDOT
 70
     0
  3
____ _ ____ _ ____ _ ____ _ ____ _ ____ _ ____
 72
    65
 73
     4
 40
5.5
 49
4.0
 49
-0.6
 49
0.3
 49
-0.6
  0
ENDTAB
  0
TABLE
  2
LAYER
 70
    12
  0
LAYER
  2
0
 70
     0
 62
     7
  6
CONTINUOUS
  0
LAYER
  2
BASIS
 70
     0
 62
     6
  6
DASHDOT
  0
LAYER
  2
OUTLINE
 70
     0
 62
     3
  6
CONTINUOUS
  0
LAYER
  2
DETAIL
 70
     0
 62
     5
  6
CONTINUOUS
  0
LAYER
  2
SIZE
 70
     0
 62
    30
  6
CONTINUOUS
  0
LAYER
  2
ARRANGE
 70
     0
 62
     1
  6
CONTINUOUS
  0
LAYER
  2
ETC
 70
     0
 62
    61
  6
CONTINUOUS
  0
LAYER
  2
FIX
 70
     0
 62
    11
  6
CONTINUOUS
  0
LAYER
  2
NOTE
 70
     0
 62
     4
  6
CONTINUOUS
  0
LAYER
  2
DEFPOINTS
 70
    64
 62
     7
  6
CONTINUOUS
  0
LAYER
  2
SERVICESPACE
 70
    64
 62
     2
  6
DASHDOT
  0
LAYER
  2
SYMBOLLINE
 70
    64
 62
    15
  6
CONTINUOUS
  0
ENDTAB
  0
TABLE
  2
STYLE
 70
     1
  0
STYLE
  2
STANDARD
 70
     0
 40
64.0
 41
0.9
 50
0.0
 71
     0
 42
64.0
  3
SIMPLEX.shx
  4
BIGFONT.shx
  0
ENDTAB
  0
TABLE
  2
APPID
 70
    19
  0
APPID
  2
ACAD
 70
     0
  0
APPID
  2
AUTOCAD_POSTSCRIPT_FIGURE
 70
     0
  0
APPID
  2
ACAD_EXEMPT_FROM_CAD_STANDARDS
 70
     0
  0
APPID
  2
ACAD_PSEXT
 70
     0
  0
APPID
  2
ACAUTHENVIRON
 70
     0
  0
APPID
  2
GENIUS_GENOENT_13
 70
     0
  0
APPID
  2
GENIUS_GENCFG_13
 70
     0
  0
APPID
  2
GENIUS_GENCFG0_13
 70
     0
  0
APPID
  2
GENIUS_GENCFG1_13
 70
     0
  0
APPID
  2
GENIUS_GENCFG2_13
 70
     0
  0
APPID
  2
GENIUS_GENCFG3_13
 70
     0
  0
APPID
  2
GENIUS_GENCFG4_13
 70
     0
  0
APPID
  2
GENIUS_GEVCFG0_13
 70
     0
  0
APPID
  2
CONTENTBLOCKICON
 70
     0
  0
APPID
  2
CONTENTBLOCKDESCRIPTION
 70
     0
  0
APPID
  2
ACAD_NAV_VCDISPLAY
 70
     0
  0
APPID
  2
ACAD_MLEADERVER
 70
     0
  0
APPID
  2
ACDBDYNAMICBLOCKTRUENAME
 70
     0
  0
APPID
  2
ACDBDYNAMICBLOCKGUID
 70
     0
  0
ENDTAB
  0
TABLE
  2
DIMSTYLE
 70
     1
  0
DIMSTYLE
  2
STANDARD
 70
     0
  3

  4

  5
_ORIGIN
  6

  7

 40
1.0
 41
12.0
 42
20.0
 43
200.0
 44
20.0
 45
0.0
 46
0.0
 47
0.0
 48
0.0
140
64.0
141
0.09
142
0.0
143
25.399999999999999
144
1.0
145
0.0
146
1.0
147
25.0
 71
     0
 72
     0
 73
     0
 74
     0
 75
     0
 76
     0
 77
     1
 78
     8
170
     0
171
     2
172
     1
173
     0
174
     1
175
     0
176
     7
177
     7
178
     7
  0
ENDTAB
  0
TABLE
  2
VIEW
 70
     1
  0
VIEW
  2
ALL
 70
     0
 40
4282.6198079999986
 10
0.0
 20
41.309904000000003
 41
5940.0
 11
0.0
 21
0.0
 31
1.0
 12
0.0
 22
0.0
 32
0.0
 42
50.0
 43
0.0
 44
0.0
 50
0.0
 71
     0
  0
ENDTAB
  0
TABLE
  2
UCS
 70
     0
  0
ENDTAB
  0
TABLE
  2
VPORT
 70
     1
  0
VPORT
  2
*ACTIVE
 70
     0
 10
0.0
 20
0.0
 11
1.0
 21
1.0
 12
172.89048644351971
 22
-28.038015156097568
 13
0.0
 23
0.0
 14
1.0
 24
1.0
 15
0.0
 25
0.0
 16
0.0
 26
0.0
 36
1.0
 17
0.0
 27
0.0
 37
0.0
 40
755.0879672335094
 41
2.09922480620155
 42
50.0
 43
0.0
 44
0.0
 50
0.0
 51
0.0
 71
     0
 72
  1000
 73
     1
 74
     3
 75
     0
 76
     0
 77
     0
 78
     0
  0
ENDTAB
  0
ENDSEC
  0
SECTION
  2
BLOCKS
  0
BLOCK
  8
0
  2
_ORIGIN
 70
     0
 10
0.0
 20
0.0
 30
0.0
  3
_ORIGIN
  1
_ORIGIN
  0
CIRCLE
  8
SIZE
  6
CONTINUOUS
 62
    30
 10
0.0
 20
0.0
 30
0.0
 40
0.5
  0
LINE
  8
SIZE
  6
CONTINUOUS
 62
    30
 10
0.0
 20
0.0
 30
0.0
 11
-1.0
 21
0.0
 31
0.0
  0
ENDBLK
  8
0
  0
ENDSEC
  0
SECTION
  2
ENTITIES
  0
TEXT
  8
ETC
  6
CONTINUOUS
 62
    61
 10
444.49812300000008
 20
407.89185099999997
 30
0.0
 40
64.0
  1
MK-3506TA3_3
 41
0.9
  0
TEXT
  8
ETC
  6
CONTINUOUS
 62
    61
 10
440.31212899999991
 20
289.93654099999998
 30
0.0
 40
64.0
  1
産業扇
 41
0.9
  0
TEXT
  8
ETC
  6
CONTINUOUS
 62
    61
 10
490.91963099999998
 20
208.8831789999999
 30
0.0
 40
40.0
  1
MK-3506TA3
 41
0.9
  0
LINE
  8
NOTE
  6
CONTINUOUS
 62
     4
 10
28.0
 20
-18.5
 30
0.0
 11
-12.0
 21
-18.5
 31
0.0
  0
LINE
  8
NOTE
  6
CONTINUOUS
 62
     4
 10
5.688526000000024
 20
21.433158000000049
 30
0.0
 11
8.0
 21
-18.5
 31
0.0
  0
LINE
  8
NOTE
  6
CONTINUOUS
 62
     4
 10
8.0
 20
-18.5
 30
0.0
 11
-13.96837400000004
 21
14.927392000000051
 31
0.0
  0
TEXT
  8
SIZE
  6
CONTINUOUS
 62
    30
 10
-74.057142999999996
 20
427.35933
 30
0.0
 40
64.0
  1
600
 41
0.9
  0
LINE
  8
SIZE
  6
CONTINUOUS
 62
    30
 10
298.0
 20
395.35933
 30
0.0
 11
-298.0
 21
395.35933
 31
0.0
  0
TEXT
  8
SIZE
  6
CONTINUOUS
 62
    30
 10
-115.2
 20
-485.52873
 30
0.0
 40
64.0
  1
287.5
 41
0.9
  0
LINE
  8
SIZE
  6
CONTINUOUS
 62
    30
 10
141.75
 20
-517.52873
 30
0.0
 11
0.0
 21
-517.52873
 31
0.0
  0
LINE
  8
DETAIL
  6
CONTINUOUS
 62
     5
 10
-285.5
 20
-18.5
 30
0.0
 11
285.5
 21
-18.5
 31
0.0
  0
POINT
  8
ARRANGE
  6
CONTINUOUS
 62
     1
 10
0.0
 20
0.0
 30
0.0
  0
CIRCLE
  8
ARRANGE
  6
CONTINUOUS
 62
     1
 10
0.0
 20
0.0
 30
0.0
 40
40.0
  0
LINE
  8
OUTLINE
  6
CONTINUOUS
 62
     3
 10
-291.42598800000002
 20
-300.0
 30
0.0
 11
286.0
 21
-300.0
 31
0.0
  0
LINE
  8
OUTLINE
  6
CONTINUOUS
 62
     3
 10
-286.0
 20
0.0
 30
0.0
 11
286.0
 21
0.0
 31
0.0
  0
LINE
  8
NOTE
  6
CONTINUOUS
 62
     4
 10
8.0
 20
-18.5
 30
0.0
 11
-47.183162000000038
 21
145.82438400000001
 31
0.0
  0
LINE
  8
BASIS
  6
DASHDOT
 62
     6
 10
-390.68125600000002
 20
-150.0
 30
0.0
 11
392.73775500000011
 21
-150.0
 31
0.0
  0
LINE
  8
DETAIL
  6
CONTINUOUS
 62
     5
 10
-291.42598800000002
 20
-300.0
 30
0.0
 11
286.0
 21
-300.0
 31
0.0
  0
LINE
  8
DETAIL
  6
CONTINUOUS
 62
     5
 10
-286.0
 20
0.0
 30
0.0
 11
291.42598800000002
 21
0.0
 31
0.0
  0
TEXT
  8
SIZE
  6
CONTINUOUS
 62
    30
 10
-662.49280899999997
 20
-224.057143
 30
0.0
 40
64.0
  1
300
 50
90.0
 41
0.9
  0
LINE
  8
SIZE
  6
CONTINUOUS
 62
    30
 10
-630.49280899999997
 20
-2.0
 30
0.0
 11
-630.49280899999997
 21
-150.0
 31
0.0
  0
LINE
  8
DETAIL
  6
CONTINUOUS
 62
     5
 10
-265.0
 20
-300.0
 30
0.0
 11
-265.0
 21
-20.0
 31
0.0
  0
LINE
  8
OUTLINE
  6
CONTINUOUS
 62
     3
 10
-300.0
 20
-291.42598800000002
 30
0.0
 11
-300.0
 21
-8.574012000000039
 31
0.0
  0
LINE
  8
DETAIL
  6
CONTINUOUS
 62
     5
 10
-285.5
 20
-300.0
 30
0.0
 11
-285.5
 21
0.0
 31
0.0
  0
LINE
  8
BASIS
  6
DASHDOT
 62
     6
 10
0.0
 20
84.990794000000051
 30
0.0
 11
0.0
 21
-387.56011000000001
 31
0.0
  0
LINE
  8
DETAIL
  6
CONTINUOUS
 62
     5
 10
-300.0
 20
-291.42598800000002
 30
0.0
 11
-300.0
 21
-8.574012000000039
 31
0.0
  0
TEXT
  8
SIZE
  6
CONTINUOUS
 62
    30
 10
-487.76762500000001
 20
-485.52873
 30
0.0
 40
64.0
  1
14.5
 41
0.9
  0
LINE
  8
SIZE
  6
CONTINUOUS
 62
    30
 10
-305.5
 20
-300.0
 30
0.0
 11
-660.49280899999997
 21
-300.0
 31
0.0
  0
LINE
  8
SIZE
  6
CONTINUOUS
 62
    30
 10
-300.0
 20
-517.52873
 30
0.0
 11
-491.40687800000001
 21
-517.52873
 31
0.0
  0
LINE
  8
SIZE
  6
CONTINUOUS
 62
    30
 10
-630.49280899999997
 20
-298.0
 30
0.0
 11
-630.49280899999997
 21
-150.0
 31
0.0
  0
CIRCLE
  8
SIZE
  6
CONTINUOUS
 62
    30
 10
-630.49280899999997
 20
-300.0
 30
0.0
 40
6.0
  0
LINE
  8
SIZE
  6
CONTINUOUS
 62
    30
 10
-285.5
 20
-320.0
 30
0.0
 11
-285.5
 21
-547.52873
 31
0.0
  0
LINE
  8
SIZE
  6
CONTINUOUS
 62
    30
 10
-300.0
 20
-311.42598800000002
 30
0.0
 11
-300.0
 21
-547.52873
 31
0.0
  0
LINE
  8
SIZE
  6
CONTINUOUS
 62
    30
 10
-143.75
 20
-240.0
 30
0.0
 11
-143.75
 21
-547.52873
 31
0.0
  0
CIRCLE
  8
SIZE
  6
CONTINUOUS
 62
    30
 10
-285.5
 20
-517.52873
 30
0.0
 40
6.0
  0
CIRCLE
  8
SIZE
  6
CONTINUOUS
 62
    30
 10
-300.0
 20
-517.52873
 30
0.0
 40
6.0
  0
LINE
  8
SIZE
  6
CONTINUOUS
 62
    30
 10
-285.5
 20
-517.52873
 30
0.0
 11
-300.0
 21
-517.52873
 31
0.0
  0
LINE
  8
SIZE
  6
CONTINUOUS
 62
    30
 10
-302.0
 20
-517.52873
 30
0.0
 11
-304.0
 21
-517.52873
 31
0.0
  0
LINE
  8
SIZE
  6
CONTINUOUS
 62
    30
 10
-283.5
 20
-517.52873
 30
0.0
 11
-281.5
 21
-517.52873
 31
0.0
  0
LINE
  8
SIZE
  6
CONTINUOUS
 62
    30
 10
-141.75
 20
-517.52873
 30
0.0
 11
0.0
 21
-517.52873
 31
0.0
  0
CIRCLE
  8
SIZE
  6
CONTINUOUS
 62
    30
 10
-143.75
 20
-517.52873
 30
0.0
 40
6.0
  0
ARC
  8
OUTLINE
  6
CONTINUOUS
 62
     3
 10
-296.19999999999999
 20
-291.42598800000002
 30
0.0
 40
3.8
 50
180.0
 51
225.0000000000002
  0
LINE
  8
OUTLINE
  6
CONTINUOUS
 62
     3
 10
-298.88700599999999
 20
-294.11299400000001
 30
0.0
 11
-294.11299400000001
 21
-298.88700599999999
 31
0.0
  0
ARC
  8
OUTLINE
  6
CONTINUOUS
 62
     3
 10
-291.42598800000002
 20
-296.19999999999999
 30
0.0
 40
3.8
 50
225.0000000000002
 51
270.0
  0
ARC
  8
DETAIL
  6
CONTINUOUS
 62
     5
 10
-291.42598800000002
 20
-296.19999999999999
 30
0.0
 40
3.8
 50
225.0000000000002
 51
270.0
  0
LINE
  8
DETAIL
  6
CONTINUOUS
 62
     5
 10
-298.88700599999999
 20
-294.11299400000001
 30
0.0
 11
-294.11299400000001
 21
-298.88700599999999
 31
0.0
  0
ARC
  8
DETAIL
  6
CONTINUOUS
 62
     5
 10
-296.19999999999999
 20
-291.42598800000002
 30
0.0
 40
3.8
 50
180.0
 51
225.0000000000002
  0
LINE
  8
NOTE
  6
CONTINUOUS
 62
     4
 10
-163.75
 20
-200.0
 30
0.0
 11
-123.75
 21
-200.0
 31
0.0
  0
LINE
  8
NOTE
  6
CONTINUOUS
 62
     4
 10
-143.75
 20
-220.0
 30
0.0
 11
-143.75
 21
-180.0
 31
0.0
  0
LINE
  8
DETAIL
  6
CONTINUOUS
 62
     5
 10
-148.25
 20
-194.0
 30
0.0
 11
-139.25
 21
-194.0
 31
0.0
  0
LINE
  8
DETAIL
  6
CONTINUOUS
 62
     5
 10
-148.25
 20
-206.0
 30
0.0
 11
-139.25
 21
-206.0
 31
0.0
  0
ARC
  8
DETAIL
  6
CONTINUOUS
 62
     5
 10
-148.25
 20
-200.0
 30
0.0
 40
6.0
 50
90.000003999999095
 51
270.0
  0
ARC
  8
DETAIL
  6
CONTINUOUS
 62
     5
 10
-139.25
 20
-200.0
 30
0.0
 40
6.0
 50
270.0
 51
90.0
  0
CIRCLE
  8
FIX
  6
CONTINUOUS
 62
    11
 10
-143.75
 20
-200.0
 30
0.0
 40
6.0
  0
LINE
  8
SIZE
  6
CONTINUOUS
 62
    30
 10
-306.0
 20
0.0
 30
0.0
 11
-660.49280899999997
 21
0.0
 31
0.0
  0
LINE
  8
SIZE
  6
CONTINUOUS
 62
    30
 10
-306.0
 20
0.0
 30
0.0
 11
-413.99796199999997
 21
0.0
 31
0.0
  0
CIRCLE
  8
SIZE
  6
CONTINUOUS
 62
    30
 10
-630.49280899999997
 20
0.0
 30
0.0
 40
6.0
  0
LINE
  8
SIZE
  6
CONTINUOUS
 62
    30
 10
-300.0
 20
11.425987999999959
 30
0.0
 11
-300.0
 21
425.35933
 31
0.0
  0
LINE
  8
OUTLINE
  6
CONTINUOUS
 62
     3
 10
-294.11299400000001
 20
-1.112993999999958
 30
0.0
 11
-298.88700599999999
 21
-5.887006000000042
 31
0.0
  0
LINE
  8
OUTLINE
  6
CONTINUOUS
 62
     3
 10
-286.0
 20
0.0
 30
0.0
 11
-291.42598800000002
 21
0.0
 31
0.0
  0
ARC
  8
OUTLINE
  6
CONTINUOUS
 62
     3
 10
-296.19999999999999
 20
-8.574012000000039
 30
0.0
 40
3.8
 50
134.9999999999998
 51
180.0
  0
ARC
  8
OUTLINE
  6
CONTINUOUS
 62
     3
 10
-291.42598800000002
 20
-3.799999999999955
 30
0.0
 40
3.8
 50
90.0
 51
134.9999999999998
  0
ARC
  8
DETAIL
  6
CONTINUOUS
 62
     5
 10
-296.19999999999999
 20
-8.574012000000039
 30
0.0
 40
3.8
 50
134.9999999999998
 51
180.0
  0
ARC
  8
DETAIL
  6
CONTINUOUS
 62
     5
 10
-291.42598800000002
 20
-3.799999999999955
 30
0.0
 40
3.8
 50
90.0
 51
134.9999999999998
  0
LINE
  8
DETAIL
  6
CONTINUOUS
 62
     5
 10
-286.0
 20
0.0
 30
0.0
 11
-291.42598800000002
 21
0.0
 31
0.0
  0
LINE
  8
DETAIL
  6
CONTINUOUS
 62
     5
 10
-294.11299400000001
 20
-1.112993999999958
 30
0.0
 11
-298.88700599999999
 21
-5.887006000000042
 31
0.0
  0
LINE
  8
NOTE
  6
CONTINUOUS
 62
     4
 10
-143.75
 20
-70.0
 30
0.0
 11
-143.75
 21
-30.0
 31
0.0
  0
LINE
  8
NOTE
  6
CONTINUOUS
 62
     4
 10
-163.75
 20
-50.0
 30
0.0
 11
-123.75
 21
-50.0
 31
0.0
  0
CIRCLE
  8
FIX
  6
CONTINUOUS
 62
    11
 10
-143.75
 20
-50.0
 30
0.0
 40
6.0
  0
ARC
  8
DETAIL
  6
CONTINUOUS
 62
     5
 10
-139.25
 20
-50.0
 30
0.0
 40
6.0
 50
270.0
 51
90.0
  0
ARC
  8
DETAIL
  6
CONTINUOUS
 62
     5
 10
-148.25
 20
-50.0
 30
0.0
 40
6.0
 50
90.000003999999095
 51
270.0
  0
LINE
  8
DETAIL
  6
CONTINUOUS
 62
     5
 10
-148.25
 20
-56.0
 30
0.0
 11
-139.25
 21
-56.0
 31
0.0
  0
LINE
  8
DETAIL
  6
CONTINUOUS
 62
     5
 10
-148.25
 20
-44.0
 30
0.0
 11
-139.25
 21
-44.0
 31
0.0
  0
LINE
  8
NOTE
  6
CONTINUOUS
 62
     4
 10
-47.183162000000038
 20
145.82438400000001
 30
0.0
 11
-150.98772699999989
 21
145.82438400000001
 31
0.0
  0
TEXT
  8
NOTE
  6
CONTINUOUS
 62
     4
 10
-146.44924599999999
 20
174.08547700000011
 30
0.0
 40
64.0
  1
EL
 41
0.9
  0
CIRCLE
  8
SIZE
  6
CONTINUOUS
 62
    30
 10
-300.0
 20
395.35933
 30
0.0
 40
6.0
  0
TEXT
  8
SIZE
  6
CONTINUOUS
 62
    30
 10
500.34481399999999
 20
-193.57142899999999
 30
0.0
 40
64.0
  1
150
 50
90.0
 41
0.9
  0
LINE
  8
SIZE
  6
CONTINUOUS
 62
    30
 10
532.34481400000004
 20
-198.0
 30
0.0
 11
532.34481400000004
 21
-125.0
 31
0.0
  0
LINE
  8
DETAIL
  6
CONTINUOUS
 62
     5
 10
265.0
 20
-300.0
 30
0.0
 11
265.0
 21
-20.0
 31
0.0
  0
LINE
  8
OUTLINE
  6
CONTINUOUS
 62
     3
 10
300.0
 20
-291.42618099999999
 30
0.0
 11
300.0
 21
-8.574204000000009
 31
0.0
  0
LINE
  8
DETAIL
  6
CONTINUOUS
 62
     5
 10
285.5
 20
-300.0
 30
0.0
 11
285.5
 21
0.0
 31
0.0
  0
LINE
  8
DETAIL
  6
CONTINUOUS
 62
     5
 10
300.0
 20
-291.42618099999999
 30
0.0
 11
300.0
 21
-8.574204000000009
 31
0.0
  0
LINE
  8
NOTE
  6
CONTINUOUS
 62
     4
 10
390.61609800000002
 20
-320.13460900000001
 30
0.0
 11
853.19393200000013
 21
-320.13460900000001
 31
0.0
  0
TEXT
  8
NOTE
  6
CONTINUOUS
 62
     4
 10
402.84282400000012
 20
-289.569501
 30
0.0
 40
64.0
  1
4-φ12×21
 41
0.9
  0
TEXT
  8
SIZE
  6
CONTINUOUS
 62
    30
 10
324.74046900000008
 20
-484.03563700000001
 30
0.0
 40
64.0
  1
14.5
 41
0.9
  0
LINE
  8
SIZE
  6
CONTINUOUS
 62
    30
 10
183.75
 20
-200.0
 30
0.0
 11
562.34481400000004
 21
-200.0
 31
0.0
  0
LINE
  8
NOTE
  6
CONTINUOUS
 62
     4
 10
143.75
 20
-200.0
 30
0.0
 11
390.61609800000002
 21
-320.13460900000001
 31
0.0
  0
LINE
  8
SIZE
  6
CONTINUOUS
 62
    30
 10
300.0
 20
-516.03563699999995
 30
0.0
 11
493.83913799999999
 21
-516.03563699999995
 31
0.0
  0
LINE
  8
SIZE
  6
CONTINUOUS
 62
    30
 10
285.5
 20
-320.0
 30
0.0
 11
285.5
 21
-546.03563699999995
 31
0.0
  0
LINE
  8
SIZE
  6
CONTINUOUS
 62
    30
 10
300.0
 20
-311.42618099999999
 30
0.0
 11
300.0
 21
-546.03563699999995
 31
0.0
  0
LINE
  8
SIZE
  6
CONTINUOUS
 62
    30
 10
143.75
 20
-240.0
 30
0.0
 11
143.75
 21
-547.52873
 31
0.0
  0
CIRCLE
  8
SIZE
  6
CONTINUOUS
 62
    30
 10
143.75
 20
-517.52873
 30
0.0
 40
6.0
  0
CIRCLE
  8
SIZE
  6
CONTINUOUS
 62
    30
 10
285.5
 20
-516.03563699999995
 30
0.0
 40
6.0
  0
CIRCLE
  8
SIZE
  6
CONTINUOUS
 62
    30
 10
300.0
 20
-516.03563699999995
 30
0.0
 40
6.0
  0
LINE
  8
SIZE
  6
CONTINUOUS
 62
    30
 10
285.5
 20
-516.03563699999995
 30
0.0
 11
300.0
 21
-516.03563699999995
 31
0.0
  0
LINE
  8
SIZE
  6
CONTINUOUS
 62
    30
 10
302.0
 20
-516.03563699999995
 30
0.0
 11
304.0
 21
-516.03563699999995
 31
0.0
  0
LINE
  8
SIZE
  6
CONTINUOUS
 62
    30
 10
283.5
 20
-516.03563699999995
 30
0.0
 11
281.5
 21
-516.03563699999995
 31
0.0
  0
LINE
  8
NOTE
  6
CONTINUOUS
 62
     4
 10
183.01751300000001
 20
-207.61986999999999
 30
0.0
 11
143.75
 21
-200.0
 31
0.0
  0
LINE
  8
NOTE
  6
CONTINUOUS
 62
     4
 10
143.75
 20
-200.0
 30
0.0
 11
173.946729
 21
-226.23275799999999
 31
0.0
  0
LINE
  8
NOTE
  6
CONTINUOUS
 62
     4
 10
163.75
 20
-200.0
 30
0.0
 11
123.75
 21
-200.0
 31
0.0
  0
LINE
  8
NOTE
  6
CONTINUOUS
 62
     4
 10
143.75
 20
-220.0
 30
0.0
 11
143.75
 21
-180.0
 31
0.0
  0
CIRCLE
  8
FIX
  6
CONTINUOUS
 62
    11
 10
143.75
 20
-200.0
 30
0.0
 40
6.0
  0
ARC
  8
DETAIL
  6
CONTINUOUS
 62
     5
 10
139.25
 20
-200.0
 30
0.0
 40
6.0
 50
90.0
 51
270.0
  0
ARC
  8
DETAIL
  6
CONTINUOUS
 62
     5
 10
148.25
 20
-200.0
 30
0.0
 40
6.0
 50
270.0
 51
89.999996000000891
  0
LINE
  8
DETAIL
  6
CONTINUOUS
 62
     5
 10
148.25
 20
-206.0
 30
0.0
 11
139.25
 21
-206.0
 31
0.0
  0
LINE
  8
DETAIL
  6
CONTINUOUS
 62
     5
 10
148.25
 20
-194.0
 30
0.0
 11
139.25
 21
-194.0
 31
0.0
  0
ARC
  8
OUTLINE
  6
CONTINUOUS
 62
     3
 10
296.19999999999999
 20
-291.42618099999999
 30
0.0
 40
3.8
 50
314.99999999999977
 51
0.0
  0
LINE
  8
OUTLINE
  6
CONTINUOUS
 62
     3
 10
298.88700599999987
 20
-294.11318699999998
 30
0.0
 11
294.11299400000013
 21
-298.88719800000001
 31
0.0
  0
LINE
  8
OUTLINE
  6
CONTINUOUS
 62
     3
 10
286.0
 20
-300.00019200000003
 30
0.0
 11
291.42598800000002
 21
-300.00019200000003
 31
0.0
  0
ARC
  8
OUTLINE
  6
CONTINUOUS
 62
     3
 10
291.42598800000002
 20
-296.20019200000002
 30
0.0
 40
3.8
 50
270.0
 51
314.99999999999977
  0
ARC
  8
DETAIL
  6
CONTINUOUS
 62
     5
 10
291.42598800000002
 20
-296.20019200000002
 30
0.0
 40
3.8
 50
270.0
 51
314.99999999999977
  0
LINE
  8
DETAIL
  6
CONTINUOUS
 62
     5
 10
286.0
 20
-300.00019200000003
 30
0.0
 11
291.42598800000002
 21
-300.00019200000003
 31
0.0
  0
LINE
  8
DETAIL
  6
CONTINUOUS
 62
     5
 10
298.88700599999987
 20
-294.11318699999998
 30
0.0
 11
294.11299400000013
 21
-298.88719800000001
 31
0.0
  0
ARC
  8
DETAIL
  6
CONTINUOUS
 62
     5
 10
296.19999999999999
 20
-291.42618099999999
 30
0.0
 40
3.8
 50
314.99999999999977
 51
0.0
  0
CIRCLE
  8
SIZE
  6
CONTINUOUS
 62
    30
 10
532.34481400000004
 20
-200.0
 30
0.0
 40
6.0
  0
LINE
  8
SIZE
  6
CONTINUOUS
 62
    30
 10
183.75
 20
-50.0
 30
0.0
 11
562.34481400000004
 21
-50.0
 31
0.0
  0
LINE
  8
SIZE
  6
CONTINUOUS
 62
    30
 10
311.42598800000002
 20
0.0
 30
0.0
 11
562.34481400000004
 21
0.0
 31
0.0
  0
LINE
  8
SIZE
  6
CONTINUOUS
 62
    30
 10
183.75
 20
-50.0
 30
0.0
 11
562.34481400000004
 21
-50.0
 31
0.0
  0
LINE
  8
SIZE
  6
CONTINUOUS
 62
    30
 10
300.0
 20
11.425795999999989
 30
0.0
 11
300.0
 21
425.35933
 31
0.0
  0
LINE
  8
SIZE
  6
CONTINUOUS
 62
    30
 10
8.0
 20
40.0
 30
0.0
 11
8.0
 21
177.00462800000011
 31
0.0
  0
LINE
  8
SIZE
  6
CONTINUOUS
 62
    30
 10
300.0
 20
11.425987999999959
 30
0.0
 11
300.0
 21
177.00462800000011
 31
0.0
  0
LINE
  8
NOTE
  6
CONTINUOUS
 62
     4
 10
8.0
 20
-38.5
 30
0.0
 11
8.0
 21
1.5
 31
0.0
  0
LINE
  8
NOTE
  6
CONTINUOUS
 62
     4
 10
143.75
 20
-70.0
 30
0.0
 11
143.75
 21
-30.0
 31
0.0
  0
LINE
  8
NOTE
  6
CONTINUOUS
 62
     4
 10
163.75
 20
-50.0
 30
0.0
 11
123.75
 21
-50.0
 31
0.0
  0
LINE
  8
DETAIL
  6
CONTINUOUS
 62
     5
 10
148.25
 20
-44.0
 30
0.0
 11
139.25
 21
-44.0
 31
0.0
  0
LINE
  8
DETAIL
  6
CONTINUOUS
 62
     5
 10
148.25
 20
-56.0
 30
0.0
 11
139.25
 21
-56.0
 31
0.0
  0
ARC
  8
DETAIL
  6
CONTINUOUS
 62
     5
 10
148.25
 20
-50.0
 30
0.0
 40
6.0
 50
270.0
 51
89.999996000000891
  0
ARC
  8
DETAIL
  6
CONTINUOUS
 62
     5
 10
139.25
 20
-50.0
 30
0.0
 40
6.0
 50
90.0
 51
270.0
  0
CIRCLE
  8
FIX
  6
CONTINUOUS
 62
    11
 10
143.75
 20
-50.0
 30
0.0
 40
6.0
  0
LINE
  8
OUTLINE
  6
CONTINUOUS
 62
     3
 10
294.11299400000013
 20
-1.113187000000039
 30
0.0
 11
298.88700599999987
 21
-5.887198000000012
 31
0.0
  0
LINE
  8
OUTLINE
  6
CONTINUOUS
 62
     3
 10
286.0
 20
-0.00019199999997
 30
0.0
 11
291.42598800000002
 21
-0.00019199999997
 31
0.0
  0
ARC
  8
OUTLINE
  6
CONTINUOUS
 62
     3
 10
291.42598800000002
 20
-3.800192000000038
 30
0.0
 40
3.8
 50
45.000000000000227
 51
90.0
  0
ARC
  8
OUTLINE
  6
CONTINUOUS
 62
     3
 10
296.19999999999999
 20
-8.574204000000009
 30
0.0
 40
3.8
 50
0.0
 51
45.000000000000227
  0
ARC
  8
DETAIL
  6
CONTINUOUS
 62
     5
 10
296.19999999999999
 20
-8.574204000000009
 30
0.0
 40
3.8
 50
0.0
 51
45.000000000000227
  0
ARC
  8
DETAIL
  6
CONTINUOUS
 62
     5
 10
291.42598800000002
 20
-3.800192000000038
 30
0.0
 40
3.8
 50
45.000000000000227
 51
90.0
  0
LINE
  8
DETAIL
  6
CONTINUOUS
 62
     5
 10
294.11299400000013
 20
-1.113187000000039
 30
0.0
 11
298.88700599999987
 21
-5.887198000000012
 31
0.0
  0
TEXT
  8
SIZE
  6
CONTINUOUS
 62
    30
 10
79.942857000000004
 20
179.00462800000011
 30
0.0
 40
64.0
  1
292
 41
0.9
  0
LINE
  8
SIZE
  6
CONTINUOUS
 62
    30
 10
298.0
 20
147.00462800000011
 30
0.0
 11
10.0
 21
147.00462800000011
 31
0.0
  0
CIRCLE
  8
SIZE
  6
CONTINUOUS
 62
    30
 10
8.0
 20
147.00462800000011
 30
0.0
 40
6.0
  0
CIRCLE
  8
SIZE
  6
CONTINUOUS
 62
    30
 10
300.0
 20
147.00462800000011
 30
0.0
 40
6.0
  0
CIRCLE
  8
SIZE
  6
CONTINUOUS
 62
    30
 10
300.0
 20
395.35933
 30
0.0
 40
6.0
  0
TEXT
  8
SIZE
  6
CONTINUOUS
 62
    30
 10
500.34481399999999
 20
31.194605000000021
 30
0.0
 40
64.0
  1
50
 50
90.0
 41
0.9
  0
LINE
  8
SIZE
  6
CONTINUOUS
 62
    30
 10
532.34481400000004
 20
2.0
 30
0.0
 11
532.34481400000004
 21
132.93614299999999
 31
0.0
  0
LINE
  8
SIZE
  6
CONTINUOUS
 62
    30
 10
532.34481400000004
 20
-50.0
 30
0.0
 11
532.34481400000004
 21
0.0
 31
0.0
  0
CIRCLE
  8
SIZE
  6
CONTINUOUS
 62
    30
 10
532.34481400000004
 20
-50.0
 30
0.0
 40
6.0
  0
CIRCLE
  8
SIZE
  6
CONTINUOUS
 62
    30
 10
532.34481400000004
 20
-50.0
 30
0.0
 40
6.0
  0
LINE
  8
SIZE
  6
CONTINUOUS
 62
    30
 10
532.34481400000004
 20
-52.0
 30
0.0
 11
532.34481400000004
 21
-54.0
 31
0.0
  0
LINE
  8
SIZE
  6
CONTINUOUS
 62
    30
 10
532.34481400000004
 20
-52.0
 30
0.0
 11
532.34481400000004
 21
-125.0
 31
0.0
  0
CIRCLE
  8
SIZE
  6
CONTINUOUS
 62
    30
 10
532.34481400000004
 20
0.0
 30
0.0
 40
6.0
  0
LINE
  8
SIZE
  6
CONTINUOUS
 62
    30
 10
532.34481400000004
 20
2.0
 30
0.0
 11
532.34481400000004
 21
4.0
 31
0.0
  0
LINE
  8
SIZE
  6
CONTINUOUS
 62
    30
 10
-265.0
 20
0.0
 30
0.0
 11
-265.0
 21
293.12574699999999
 31
0.0
  0
LINE
  8
SIZE
  6
CONTINUOUS
 62
    30
 10
265.0
 20
0.0
 30
0.0
 11
265.0
 21
293.12574699999999
 31
0.0
  0
LINE
  8
SIZE
  6
CONTINUOUS
 62
    30
 10
-253.0
 20
273.12574699999999
 30
0.0
 11
253.0
 21
273.12574699999999
 31
0.0
  0
CIRCLE
  8
SIZE
  6
CONTINUOUS
 62
    30
 10
-265.0
 20
273.12574699999999
 30
0.0
 40
6.0
  0
LINE
  8
SIZE
  6
CONTINUOUS
 62
    30
 10
-265.0
 20
273.12574699999999
 30
0.0
 11
-253.0
 21
273.12574699999999
 31
0.0
  0
CIRCLE
  8
SIZE
  6
CONTINUOUS
 62
    30
 10
265.0
 20
273.12574699999999
 30
0.0
 40
6.0
  0
LINE
  8
SIZE
  6
CONTINUOUS
 62
    30
 10
265.0
 20
273.12574699999999
 30
0.0
 11
253.0
 21
273.12574699999999
 31
0.0
  0
TEXT
  8
SIZE
  6
CONTINUOUS
 62
    30
 10
-74.057142857142864
 20
298.12574699999999
 30
0.0
 40
64.0
  1
530
 41
0.9
 72
     1
 11
0.0
 21
298.12574699999999
 31
0.0
  0
LINE
  8
DETAIL
  6
CONTINUOUS
 62
     5
 10
-265.0
 20
-20.0
 30
0.0
 11
265.0
 21
-20.0
 31
0.0
  0
LINE
  8
SIZE
  6
CONTINUOUS
 62
    30
 10
-311.42598800000002
 20
0.0
 30
0.0
 11
-419.14374700000002
 21
0.0
 31
0.0
  0
LINE
  8
SIZE
  6
CONTINUOUS
 62
    30
 10
-305.5
 20
-18.5
 30
0.0
 11
-419.14374700000002
 21
-18.5
 31
0.0
  0
LINE
  8
SIZE
  6
CONTINUOUS
 62
    30
 10
-399.14374700000002
 20
-30.5
 30
0.0
 11
-399.14374700000002
 21
-42.5
 31
0.0
  0
LINE
  8
SIZE
  6
CONTINUOUS
 62
    30
 10
-399.14374700000002
 20
12.0
 30
0.0
 11
-399.14374700000002
 21
238.57142900000011
 31
0.0
  0
LINE
  8
SIZE
  6
CONTINUOUS
 62
    30
 10
-399.14374700000002
 20
-18.5
 30
0.0
 11
-399.14374700000002
 21
0.0
 31
0.0
  0
CIRCLE
  8
SIZE
  6
CONTINUOUS
 62
    30
 10
-399.14374700000002
 20
-18.5
 30
0.0
 40
6.0
  0
LINE
  8
SIZE
  6
CONTINUOUS
 62
    30
 10
-399.14374700000002
 20
-18.5
 30
0.0
 11
-399.14374700000002
 21
-30.5
 31
0.0
  0
CIRCLE
  8
SIZE
  6
CONTINUOUS
 62
    30
 10
-399.14374700000002
 20
0.0
 30
0.0
 40
6.0
  0
LINE
  8
SIZE
  6
CONTINUOUS
 62
    30
 10
-399.14374700000002
 20
0.0
 30
0.0
 11
-399.14374700000002
 21
12.0
 31
0.0
  0
TEXT
  8
SIZE
  6
CONTINUOUS
 62
    30
 10
-424.14374700000002
 20
48.999999714285707
 30
0.0
 40
64.0
  1
18.5
 50
90.0
 41
0.9
 72
     1
 11
-424.14374700000002
 21
131.28571400000001
 31
0.0
  0
LINE
  8
SIZE
  6
CONTINUOUS
 62
    30
 10
-285.0
 20
-20.0
 30
0.0
 11
-531.42674699999998
 21
-20.0
 31
0.0
  0
LINE
  8
SIZE
  6
CONTINUOUS
 62
    30
 10
-285.0
 20
-300.0
 30
0.0
 11
-531.42674699999998
 21
-300.0
 31
0.0
  0
LINE
  8
SIZE
  6
CONTINUOUS
 62
    30
 10
-511.42674699999998
 20
-32.0
 30
0.0
 11
-511.42674699999998
 21
-288.0
 31
0.0
  0
CIRCLE
  8
SIZE
  6
CONTINUOUS
 62
    30
 10
-511.42674699999998
 20
-20.0
 30
0.0
 40
6.0
  0
LINE
  8
SIZE
  6
CONTINUOUS
 62
    30
 10
-511.42674699999998
 20
-20.0
 30
0.0
 11
-511.42674699999998
 21
-32.0
 31
0.0
  0
CIRCLE
  8
SIZE
  6
CONTINUOUS
 62
    30
 10
-511.42674699999998
 20
-300.0
 30
0.0
 40
6.0
  0
LINE
  8
SIZE
  6
CONTINUOUS
 62
    30
 10
-511.42674699999998
 20
-300.0
 30
0.0
 11
-511.42674699999998
 21
-288.0
 31
0.0
  0
TEXT
  8
SIZE
  6
CONTINUOUS
 62
    30
 10
-536.42674699999998
 20
-234.05714285714279
 30
0.0
 40
64.0
  1
280
 50
90.0
 41
0.9
 72
     1
 11
-536.42674699999998
 21
-160.0
 31
0.0
  0
ENDSEC
  0
EOF
