  0
SECTION
  2
HEADER
  9
$ACADVER
  1
AC1009
  9
$DWGCODEPAGE
  3
dos932
  9
$INSBASE
 10
0.0
 20
0.0
 30
0.0
  9
$EXTMIN
 10
-1032.3577720000869
 20
-673.55345535738525
 30
-0.000000034918195
  9
$EXTMAX
 10
1333.273327354425
 20
517.82227356198928
 30
0.000000081493575
  9
$LIMMIN
 10
-2970.0
 20
-2100.0
  9
$LIMMAX
 10
2970.0
 20
2100.0
  9
$ORTHOMODE
 70
     1
  9
$REGENMODE
 70
     1
  9
$FILLMODE
 70
     1
  9
$QTEXTMODE
 70
     0
  9
$MIRRTEXT
 70
     0
  9
$LTSCALE
 40
20.0
  9
$ATTMODE
 70
     1
  9
$TEXTSIZE
 40
64.0
  9
$TRACEWID
 40
0.05
  9
$TEXTSTYLE
  7
STANDARD
  9
$CLAYER
  8
SIZE
  9
$CELTYPE
  6
CONTINUOUS
  9
$CECOLOR
 62
     7
  9
$DIMSCALE
 40
1.0
  9
$DIMASZ
 40
12.0
  9
$DIMEXO
 40
20.0
  9
$DIMDLI
 40
200.0
  9
$DIMRND
 40
0.0
  9
$DIMDLE
 40
0.0
  9
$DIMEXE
 40
20.0
  9
$DIMTP
 40
0.0
  9
$DIMTM
 40
0.0
  9
$DIMTXT
 40
64.0
  9
$DIMCEN
 40
0.09
  9
$DIMTSZ
 40
0.0
  9
$DIMTOL
 70
     0
  9
$DIMLIM
 70
     0
  9
$DIMTIH
 70
     0
  9
$DIMTOH
 70
     0
  9
$DIMSE1
 70
     0
  9
$DIMSE2
 70
     0
  9
$DIMTAD
 70
     1
  9
$DIMZIN
 70
     8
  9
$DIMBLK
  1

  9
$DIMASO
 70
     1
  9
$DIMSHO
 70
     0
  9
$DIMPOST
  1

  9
$DIMAPOST
  1

  9
$DIMALT
 70
     0
  9
$DIMALTD
 70
     2
  9
$DIMALTF
 40
25.399999999999999
  9
$DIMLFAC
 40
1.0
  9
$DIMTOFL
 70
     1
  9
$DIMTVP
 40
0.0
  9
$DIMTIX
 70
     1
  9
$DIMSOXD
 70
     0
  9
$DIMSAH
 70
     0
  9
$DIMBLK1
  1

  9
$DIMBLK2
  1

  9
$DIMSTYLE
  2
STANDARD
  9
$DIMCLRD
 70
     7
  9
$DIMCLRE
 70
     7
  9
$DIMCLRT
 70
     7
  9
$DIMTFAC
 40
1.0
  9
$DIMGAP
 40
25.0
  9
$LUNITS
 70
     2
  9
$LUPREC
 70
     4
  9
$SKETCHINC
 40
0.1
  9
$FILLETRAD
 40
3.0
  9
$AUNITS
 70
     1
  9
$AUPREC
 70
     3
  9
$MENU
  1
ACAD
  9
$ELEVATION
 40
0.0
  9
$PELEVATION
 40
0.0
  9
$THICKNESS
 40
0.0
  9
$LIMCHECK
 70
     0
  9
$CHAMFERA
 40
0.0
  9
$CHAMFERB
 40
0.0
  9
$SKPOLY
 70
     0
  9
$TDCREATE
 40
2453019.62301037
  9
$TDUPDATE
 40
2453425.100124363
  9
$TDINDWG
 40
1.7205715394
  9
$TDUSRTIMER
 40
1.7205715394
  9
$USRTIMER
 70
     1
  9
$ANGBASE
 50
0.0
  9
$ANGDIR
 70
     0
  9
$PDMODE
 70
     3
  9
$PDSIZE
 40
-2.0
  9
$PLINEWID
 40
0.0
  9
$SPLFRAME
 70
     0
  9
$SPLINETYPE
 70
     6
  9
$SPLINESEGS
 70
     8
  9
$SURFTAB1
 70
     6
  9
$SURFTAB2
 70
     6
  9
$SURFTYPE
 70
     6
  9
$SURFU
 70
     6
  9
$SURFV
 70
     6
  9
$UCSNAME
  2

  9
$UCSORG
 10
0.0
 20
0.0
 30
0.0
  9
$UCSXDIR
 10
1.0
 20
0.0
 30
0.0
  9
$UCSYDIR
 10
0.0
 20
1.0
 30
0.0
  9
$PUCSNAME
  2

  9
$PUCSORG
 10
0.0
 20
0.0
 30
0.0
  9
$PUCSXDIR
 10
1.0
 20
0.0
 30
0.0
  9
$PUCSYDIR
 10
0.0
 20
1.0
 30
0.0
  9
$USERI1
 70
     0
  9
$USERI2
 70
     0
  9
$USERI3
 70
     0
  9
$USERI4
 70
     0
  9
$USERI5
 70
     0
  9
$USERR1
 40
20.0
  9
$USERR2
 40
0.0
  9
$USERR3
 40
0.0
  9
$USERR4
 40
0.0
  9
$USERR5
 40
0.0
  9
$WORLDVIEW
 70
     1
  9
$SHADEDGE
 70
     3
  9
$SHADEDIF
 70
    70
  9
$TILEMODE
 70
     1
  9
$MAXACTVP
 70
    48
  9
$PINSBASE
 10
0.0
 20
0.0
 30
0.0
  9
$PLIMCHECK
 70
     0
  9
$PEXTMIN
 10
-100000000000000000000.0
 20
-100000000000000000000.0
 30
-100000000000000000000.0
  9
$PEXTMAX
 10
100000000000000000000.0
 20
100000000000000000000.0
 30
100000000000000000000.0
  9
$PLIMMIN
 10
0.0
 20
0.0
  9
$PLIMMAX
 10
12.0
 20
9.0
  9
$UNITMODE
 70
     0
  9
$VISRETAIN
 70
     0
  9
$PLINEGEN
 70
     0
  9
$PSLTSCALE
 70
     0
  9
$TREEDEPTH
 70
  3020
  9
$ATTDIA
 70
     0
  9
$ATTREQ
 70
     1
  9
$BLIPMODE
 70
     1
  9
$COORDS
 70
     1
  9
$DRAGMODE
 70
     2
  9
$OSMODE
 70
     0
  9
$HANDLING
 70
     0
  9
$HANDSEED
  5
EF9F
  0
ENDSEC
  0
SECTION
  2
TABLES
  0
TABLE
  2
LTYPE
 70
     2
  0
LTYPE
  2
CONTINUOUS
 70
     0
  3
実線
 72
    65
 73
     0
 40
0.0
  0
LTYPE
  2
DASHDOT
 70
     0
  3
____ _ ____ _ ____ _ ____ _ ____ _ ____ _ ____
 72
    65
 73
     4
 40
5.5
 49
4.0
 49
-0.6
 49
0.3
 49
-0.6
  0
ENDTAB
  0
TABLE
  2
LAYER
 70
    12
  0
LAYER
  2
0
 70
     0
 62
     7
  6
CONTINUOUS
  0
LAYER
  2
BASIS
 70
     0
 62
     6
  6
DASHDOT
  0
LAYER
  2
OUTLINE
 70
     0
 62
     3
  6
CONTINUOUS
  0
LAYER
  2
DETAIL
 70
     0
 62
     5
  6
CONTINUOUS
  0
LAYER
  2
SIZE
 70
     0
 62
    30
  6
CONTINUOUS
  0
LAYER
  2
ARRANGE
 70
     0
 62
     1
  6
CONTINUOUS
  0
LAYER
  2
ETC
 70
     0
 62
    61
  6
CONTINUOUS
  0
LAYER
  2
FIX
 70
     0
 62
    11
  6
CONTINUOUS
  0
LAYER
  2
NOTE
 70
     0
 62
     4
  6
CONTINUOUS
  0
LAYER
  2
DEFPOINTS
 70
    64
 62
     7
  6
CONTINUOUS
  0
LAYER
  2
SERVICESPACE
 70
    64
 62
     2
  6
DASHDOT
  0
LAYER
  2
SYMBOLLINE
 70
    64
 62
    15
  6
CONTINUOUS
  0
ENDTAB
  0
TABLE
  2
STYLE
 70
     1
  0
STYLE
  2
STANDARD
 70
     0
 40
64.0
 41
0.9
 50
0.0
 71
     0
 42
64.0
  3
SIMPLEX.shx
  4
BIGFONT.shx
  0
ENDTAB
  0
TABLE
  2
APPID
 70
    19
  0
APPID
  2
ACAD
 70
     0
  0
APPID
  2
AUTOCAD_POSTSCRIPT_FIGURE
 70
     0
  0
APPID
  2
ACAD_EXEMPT_FROM_CAD_STANDARDS
 70
     0
  0
APPID
  2
ACAD_PSEXT
 70
     0
  0
APPID
  2
ACAUTHENVIRON
 70
     0
  0
APPID
  2
GENIUS_GENOENT_13
 70
     0
  0
APPID
  2
GENIUS_GENCFG_13
 70
     0
  0
APPID
  2
GENIUS_GENCFG0_13
 70
     0
  0
APPID
  2
GENIUS_GENCFG1_13
 70
     0
  0
APPID
  2
GENIUS_GENCFG2_13
 70
     0
  0
APPID
  2
GENIUS_GENCFG3_13
 70
     0
  0
APPID
  2
GENIUS_GENCFG4_13
 70
     0
  0
APPID
  2
GENIUS_GEVCFG0_13
 70
     0
  0
APPID
  2
CONTENTBLOCKICON
 70
     0
  0
APPID
  2
CONTENTBLOCKDESCRIPTION
 70
     0
  0
APPID
  2
ACAD_NAV_VCDISPLAY
 70
     0
  0
APPID
  2
ACAD_MLEADERVER
 70
     0
  0
APPID
  2
ACDBDYNAMICBLOCKTRUENAME
 70
     0
  0
APPID
  2
ACDBDYNAMICBLOCKGUID
 70
     0
  0
ENDTAB
  0
TABLE
  2
DIMSTYLE
 70
     1
  0
DIMSTYLE
  2
STANDARD
 70
     0
  3

  4

  5
_ORIGIN
  6

  7

 40
1.0
 41
12.0
 42
20.0
 43
200.0
 44
20.0
 45
0.0
 46
0.0
 47
0.0
 48
0.0
140
64.0
141
0.09
142
0.0
143
25.399999999999999
144
1.0
145
0.0
146
1.0
147
25.0
 71
     0
 72
     0
 73
     0
 74
     0
 75
     0
 76
     0
 77
     1
 78
     8
170
     0
171
     2
172
     1
173
     0
174
     1
175
     0
176
     7
177
     7
178
     7
  0
ENDTAB
  0
TABLE
  2
VIEW
 70
     1
  0
VIEW
  2
ALL
 70
     0
 40
4282.6198079999986
 10
0.0
 20
41.309904000000003
 41
5940.0
 11
0.0
 21
0.0
 31
1.0
 12
0.0
 22
0.0
 32
0.0
 42
50.0
 43
0.0
 44
0.0
 50
0.0
 71
     0
  0
ENDTAB
  0
TABLE
  2
UCS
 70
     0
  0
ENDTAB
  0
TABLE
  2
VPORT
 70
     1
  0
VPORT
  2
*ACTIVE
 70
     0
 10
0.0
 20
0.0
 11
1.0
 21
1.0
 12
150.45777767716939
 22
-77.865590897697984
 13
0.0
 23
0.0
 14
1.0
 24
1.0
 15
0.0
 25
0.0
 16
0.0
 26
0.0
 36
1.0
 17
0.0
 27
0.0
 37
0.0
 40
891.73358319924216
 41
2.195615514333896
 42
50.0
 43
0.0
 44
0.0
 50
0.0
 51
0.0
 71
     0
 72
  1000
 73
     1
 74
     3
 75
     0
 76
     0
 77
     0
 78
     0
  0
ENDTAB
  0
ENDSEC
  0
SECTION
  2
BLOCKS
  0
BLOCK
  8
0
  2
_ORIGIN
 70
     0
 10
0.0
 20
0.0
 30
0.0
  3
_ORIGIN
  1
_ORIGIN
  0
CIRCLE
  8
SIZE
  6
CONTINUOUS
 62
    30
 10
0.0
 20
0.0
 30
0.0
 40
0.5
  0
LINE
  8
SIZE
  6
CONTINUOUS
 62
    30
 10
0.0
 20
0.0
 30
0.0
 11
-1.0
 21
0.0
 31
0.0
  0
ENDBLK
  8
0
  0
ENDSEC
  0
SECTION
  2
ENTITIES
  0
TEXT
  8
ETC
  6
CONTINUOUS
 62
    61
 10
716.00361799999996
 20
422.04574700000012
 30
0.0
 40
64.0
  1
MK-5012TA3_3
 41
0.9
  0
TEXT
  8
ETC
  6
CONTINUOUS
 62
    61
 10
711.81762400000002
 20
304.09043700000012
 30
0.0
 40
64.0
  1
産業扇
 41
0.9
  0
TEXT
  8
ETC
  6
CONTINUOUS
 62
    61
 10
762.42512699999997
 20
196.25465700000001
 30
0.0
 40
40.0
  1
MK-5012TA3
 41
0.9
  0
TEXT
  8
SIZE
  6
CONTINUOUS
 62
    30
 10
-96.0
 20
453.57362699999999
 30
0.0
 40
64.0
  1
1258
 41
0.9
  0
LINE
  8
SIZE
  6
CONTINUOUS
 62
    30
 10
627.0
 20
421.57362699999999
 30
0.0
 11
0.0
 21
421.57362699999999
 31
0.0
  0
TEXT
  8
SIZE
  6
CONTINUOUS
 62
    30
 10
-75.428571000000034
 20
-482.54805499999998
 30
0.0
 40
64.0
  1
434
 41
0.9
  0
LINE
  8
SIZE
  6
CONTINUOUS
 62
    30
 10
215.0
 20
-514.54805499999998
 30
0.0
 11
0.0
 21
-514.54805499999998
 31
0.0
  0
TEXT
  8
SIZE
  6
CONTINUOUS
 62
    30
 10
-75.262997999999925
 20
-611.40601500000002
 30
0.0
 40
64.0
  1
946
 41
0.9
  0
LINE
  8
SIZE
  6
CONTINUOUS
 62
    30
 10
471.0
 20
-643.40601500000002
 30
0.0
 11
0.0
 21
-643.40601500000002
 31
0.0
  0
LINE
  8
NOTE
  6
CONTINUOUS
 62
     4
 10
224.4304239999999
 20
145.82438400000001
 30
0.0
 11
115.29270700000011
 21
145.82438400000001
 31
0.0
  0
TEXT
  8
NOTE
  6
CONTINUOUS
 62
     4
 10
119.8311879999999
 20
174.08547700000011
 30
0.0
 40
64.0
  1
EL
 41
0.9
  0
POINT
  8
ARRANGE
  6
CONTINUOUS
 62
     1
 10
0.0
 20
0.0
 30
0.0
  0
CIRCLE
  8
ARRANGE
  6
CONTINUOUS
 62
     1
 10
0.0
 20
0.0
 30
0.0
 40
40.0
  0
LINE
  8
OUTLINE
  6
CONTINUOUS
 62
     3
 10
-620.42598799999996
 20
-300.0
 30
0.0
 11
620.42598799999996
 21
-300.0
 31
0.0
  0
LINE
  8
BASIS
  6
DASHDOT
 62
     6
 10
-712.18125599999996
 20
-150.0
 30
0.0
 11
701.44652199999996
 21
-150.0
 31
0.0
  0
LINE
  8
DETAIL
  6
CONTINUOUS
 62
     5
 10
-620.42598799999996
 20
-300.0
 30
0.0
 11
620.42598799999996
 21
-300.0
 31
0.0
  0
LINE
  8
DETAIL
  6
CONTINUOUS
 62
     5
 10
614.5
 20
-18.5
 30
0.0
 11
-614.5
 21
-18.5
 31
0.0
  0
TEXT
  8
SIZE
  6
CONTINUOUS
 62
    30
 10
-968.32354299999997
 20
-224.057143
 30
0.0
 40
64.0
  1
300
 50
90.0
 41
0.9
  0
LINE
  8
SIZE
  6
CONTINUOUS
 62
    30
 10
-936.32354299999997
 20
-2.0
 30
0.0
 11
-936.32354299999997
 21
-150.0
 31
0.0
  0
LINE
  8
DETAIL
  6
CONTINUOUS
 62
     5
 10
-594.0
 20
-300.0
 30
0.0
 11
-594.0
 21
-20.0
 31
0.0
  0
LINE
  8
OUTLINE
  6
CONTINUOUS
 62
     3
 10
-629.0
 20
-291.42598800000002
 30
0.0
 11
-629.0
 21
-8.574012000000039
 31
0.0
  0
LINE
  8
DETAIL
  6
CONTINUOUS
 62
     5
 10
-614.5
 20
-300.0
 30
0.0
 11
-614.5
 21
0.0
 31
0.0
  0
LINE
  8
BASIS
  6
DASHDOT
 62
     6
 10
0.0
 20
84.990794000000051
 30
0.0
 11
0.0
 21
-387.56011000000001
 31
0.0
  0
LINE
  8
DETAIL
  6
CONTINUOUS
 62
     5
 10
-629.0
 20
-291.42598800000002
 30
0.0
 11
-629.0
 21
-8.574012000000039
 31
0.0
  0
TEXT
  8
SIZE
  6
CONTINUOUS
 62
    30
 10
-810.766392
 20
-480.13731300000001
 30
0.0
 40
64.0
  1
14.5
 41
0.9
  0
LINE
  8
SIZE
  6
CONTINUOUS
 62
    30
 10
-634.5
 20
-300.0
 30
0.0
 11
-966.32354299999997
 21
-300.0
 31
0.0
  0
LINE
  8
SIZE
  6
CONTINUOUS
 62
    30
 10
-629.0
 20
-512.13731299999995
 30
0.0
 11
-820.40687800000001
 21
-512.13731299999995
 31
0.0
  0
LINE
  8
SIZE
  6
CONTINUOUS
 62
    30
 10
-936.32354299999997
 20
-298.0
 30
0.0
 11
-936.32354299999997
 21
-150.0
 31
0.0
  0
CIRCLE
  8
SIZE
  6
CONTINUOUS
 62
    30
 10
-936.32354299999997
 20
-300.0
 30
0.0
 40
6.0
  0
LINE
  8
SIZE
  6
CONTINUOUS
 62
    30
 10
-473.0
 20
-240.0
 30
0.0
 11
-473.0
 21
-673.40601500000002
 31
0.0
  0
LINE
  8
SIZE
  6
CONTINUOUS
 62
    30
 10
-471.0
 20
-643.40601500000002
 30
0.0
 11
0.0
 21
-643.40601500000002
 31
0.0
  0
CIRCLE
  8
SIZE
  6
CONTINUOUS
 62
    30
 10
-473.0
 20
-643.40601500000002
 30
0.0
 40
6.0
  0
LINE
  8
SIZE
  6
CONTINUOUS
 62
    30
 10
-614.5
 20
-320.0
 30
0.0
 11
-614.5
 21
-542.13731299999995
 31
0.0
  0
LINE
  8
SIZE
  6
CONTINUOUS
 62
    30
 10
-629.0
 20
-311.42598800000002
 30
0.0
 11
-629.0
 21
-542.13731299999995
 31
0.0
  0
CIRCLE
  8
SIZE
  6
CONTINUOUS
 62
    30
 10
-614.5
 20
-512.13731299999995
 30
0.0
 40
6.0
  0
CIRCLE
  8
SIZE
  6
CONTINUOUS
 62
    30
 10
-629.0
 20
-512.13731299999995
 30
0.0
 40
6.0
  0
LINE
  8
SIZE
  6
CONTINUOUS
 62
    30
 10
-614.5
 20
-512.13731299999995
 30
0.0
 11
-629.0
 21
-512.13731299999995
 31
0.0
  0
LINE
  8
SIZE
  6
CONTINUOUS
 62
    30
 10
-631.0
 20
-512.13731299999995
 30
0.0
 11
-633.0
 21
-512.13731299999995
 31
0.0
  0
LINE
  8
SIZE
  6
CONTINUOUS
 62
    30
 10
-612.5
 20
-512.13731299999995
 30
0.0
 11
-610.5
 21
-512.13731299999995
 31
0.0
  0
LINE
  8
NOTE
  6
CONTINUOUS
 62
     4
 10
-493.0
 20
-200.0
 30
0.0
 11
-453.0
 21
-200.0
 31
0.0
  0
ARC
  8
OUTLINE
  6
CONTINUOUS
 62
     3
 10
-625.20000000000016
 20
-291.42598800000002
 30
0.0
 40
3.8
 50
180.0
 51
225.0000000000048
  0
LINE
  8
OUTLINE
  6
CONTINUOUS
 62
     3
 10
-627.88700600000004
 20
-294.11299400000001
 30
0.0
 11
-623.11299399999996
 21
-298.88700599999999
 31
0.0
  0
ARC
  8
OUTLINE
  6
CONTINUOUS
 62
     3
 10
-620.42598799999996
 20
-296.19999999999999
 30
0.0
 40
3.8
 50
225.0000000000048
 51
270.0
  0
ARC
  8
DETAIL
  6
CONTINUOUS
 62
     5
 10
-620.42598799999996
 20
-296.19999999999999
 30
0.0
 40
3.8
 50
225.0000000000048
 51
270.0
  0
LINE
  8
DETAIL
  6
CONTINUOUS
 62
     5
 10
-627.88700600000004
 20
-294.11299400000001
 30
0.0
 11
-623.11299399999996
 21
-298.88700599999999
 31
0.0
  0
ARC
  8
DETAIL
  6
CONTINUOUS
 62
     5
 10
-625.20000000000016
 20
-291.42598800000002
 30
0.0
 40
3.8
 50
180.0
 51
225.0000000000048
  0
LINE
  8
NOTE
  6
CONTINUOUS
 62
     4
 10
-473.0
 20
-220.0
 30
0.0
 11
-473.0
 21
-180.0
 31
0.0
  0
CIRCLE
  8
FIX
  6
CONTINUOUS
 62
    11
 10
-473.0
 20
-200.0
 30
0.0
 40
6.0
  0
ARC
  8
DETAIL
  6
CONTINUOUS
 62
     5
 10
-468.5
 20
-200.0
 30
0.0
 40
6.0
 50
270.0
 51
90.0
  0
ARC
  8
DETAIL
  6
CONTINUOUS
 62
     5
 10
-477.5
 20
-200.0
 30
0.0
 40
6.0
 50
90.000004000005603
 51
270.0
  0
LINE
  8
DETAIL
  6
CONTINUOUS
 62
     5
 10
-477.5
 20
-206.0
 30
0.0
 11
-468.5
 21
-206.0
 31
0.0
  0
LINE
  8
DETAIL
  6
CONTINUOUS
 62
     5
 10
-477.5
 20
-194.0
 30
0.0
 11
-468.5
 21
-194.0
 31
0.0
  0
LINE
  8
SIZE
  6
CONTINUOUS
 62
    30
 10
-217.0
 20
-240.0
 30
0.0
 11
-217.0
 21
-544.54805499999998
 31
0.0
  0
LINE
  8
SIZE
  6
CONTINUOUS
 62
    30
 10
-215.0
 20
-514.54805499999998
 30
0.0
 11
0.0
 21
-514.54805499999998
 31
0.0
  0
CIRCLE
  8
SIZE
  6
CONTINUOUS
 62
    30
 10
-217.0
 20
-514.54805499999998
 30
0.0
 40
6.0
  0
LINE
  8
NOTE
  6
CONTINUOUS
 62
     4
 10
-237.0
 20
-200.0
 30
0.0
 11
-197.0
 21
-200.0
 31
0.0
  0
LINE
  8
NOTE
  6
CONTINUOUS
 62
     4
 10
-217.0
 20
-220.0
 30
0.0
 11
-217.0
 21
-180.0
 31
0.0
  0
LINE
  8
DETAIL
  6
CONTINUOUS
 62
     5
 10
-221.5
 20
-194.0
 30
0.0
 11
-212.5
 21
-194.0
 31
0.0
  0
LINE
  8
DETAIL
  6
CONTINUOUS
 62
     5
 10
-221.5
 20
-206.0
 30
0.0
 11
-212.5
 21
-206.0
 31
0.0
  0
ARC
  8
DETAIL
  6
CONTINUOUS
 62
     5
 10
-221.5
 20
-200.0
 30
0.0
 40
6.0
 50
90.000004000005603
 51
270.0
  0
ARC
  8
DETAIL
  6
CONTINUOUS
 62
     5
 10
-212.5
 20
-200.0
 30
0.0
 40
6.0
 50
270.0
 51
90.0
  0
CIRCLE
  8
FIX
  6
CONTINUOUS
 62
    11
 10
-217.0
 20
-200.0
 30
0.0
 40
6.0
  0
LINE
  8
SIZE
  6
CONTINUOUS
 62
    30
 10
-634.5
 20
0.0
 30
0.0
 11
-966.32354299999997
 21
0.0
 31
0.0
  0
CIRCLE
  8
SIZE
  6
CONTINUOUS
 62
    30
 10
-936.32354299999997
 20
0.0
 30
0.0
 40
6.0
  0
LINE
  8
SIZE
  6
CONTINUOUS
 62
    30
 10
-629.0
 20
11.425987999999959
 30
0.0
 11
-629.0
 21
451.57362699999999
 31
0.0
  0
LINE
  8
SIZE
  6
CONTINUOUS
 62
    30
 10
-627.0
 20
421.57362699999999
 30
0.0
 11
0.0
 21
421.57362699999999
 31
0.0
  0
LINE
  8
NOTE
  6
CONTINUOUS
 62
     4
 10
-493.0
 20
-50.0
 30
0.0
 11
-453.0
 21
-50.0
 31
0.0
  0
LINE
  8
OUTLINE
  6
CONTINUOUS
 62
     3
 10
-623.11299399999996
 20
-1.112993999999958
 30
0.0
 11
-627.88700600000004
 21
-5.887006000000042
 31
0.0
  0
LINE
  8
OUTLINE
  6
CONTINUOUS
 62
     3
 10
620.42598799999996
 20
0.0
 30
0.0
 11
-620.42598799999996
 21
0.0
 31
0.0
  0
ARC
  8
OUTLINE
  6
CONTINUOUS
 62
     3
 10
-625.20000000000016
 20
-8.574012000000039
 30
0.0
 40
3.8
 50
134.9999999999952
 51
180.0
  0
ARC
  8
OUTLINE
  6
CONTINUOUS
 62
     3
 10
-620.42598799999996
 20
-3.799999999999955
 30
0.0
 40
3.8
 50
90.0
 51
134.9999999999952
  0
ARC
  8
DETAIL
  6
CONTINUOUS
 62
     5
 10
-625.20000000000016
 20
-8.574012000000039
 30
0.0
 40
3.8
 50
134.9999999999952
 51
180.0
  0
ARC
  8
DETAIL
  6
CONTINUOUS
 62
     5
 10
-620.42598799999996
 20
-3.799999999999955
 30
0.0
 40
3.8
 50
90.0
 51
134.9999999999952
  0
LINE
  8
DETAIL
  6
CONTINUOUS
 62
     5
 10
620.42598799999996
 20
0.0
 30
0.0
 11
-620.42598799999996
 21
0.0
 31
0.0
  0
LINE
  8
DETAIL
  6
CONTINUOUS
 62
     5
 10
-623.11299399999996
 20
-1.112993999999958
 30
0.0
 11
-627.88700600000004
 21
-5.887006000000042
 31
0.0
  0
LINE
  8
NOTE
  6
CONTINUOUS
 62
     4
 10
-473.0
 20
-70.0
 30
0.0
 11
-473.0
 21
-30.0
 31
0.0
  0
LINE
  8
DETAIL
  6
CONTINUOUS
 62
     5
 10
-477.5
 20
-44.0
 30
0.0
 11
-468.5
 21
-44.0
 31
0.0
  0
LINE
  8
DETAIL
  6
CONTINUOUS
 62
     5
 10
-477.5
 20
-56.0
 30
0.0
 11
-468.5
 21
-56.0
 31
0.0
  0
ARC
  8
DETAIL
  6
CONTINUOUS
 62
     5
 10
-477.5
 20
-50.0
 30
0.0
 40
6.0
 50
90.000004000005603
 51
270.0
  0
ARC
  8
DETAIL
  6
CONTINUOUS
 62
     5
 10
-468.5
 20
-50.0
 30
0.0
 40
6.0
 50
270.0
 51
90.0
  0
CIRCLE
  8
FIX
  6
CONTINUOUS
 62
    11
 10
-473.0
 20
-50.0
 30
0.0
 40
6.0
  0
CIRCLE
  8
SIZE
  6
CONTINUOUS
 62
    30
 10
-629.0
 20
421.57362699999999
 30
0.0
 40
6.0
  0
LINE
  8
NOTE
  6
CONTINUOUS
 62
     4
 10
-217.0
 20
-70.0
 30
0.0
 11
-217.0
 21
-30.0
 31
0.0
  0
LINE
  8
NOTE
  6
CONTINUOUS
 62
     4
 10
-237.0
 20
-50.0
 30
0.0
 11
-197.0
 21
-50.0
 31
0.0
  0
CIRCLE
  8
FIX
  6
CONTINUOUS
 62
    11
 10
-217.0
 20
-50.0
 30
0.0
 40
6.0
  0
ARC
  8
DETAIL
  6
CONTINUOUS
 62
     5
 10
-212.5
 20
-50.0
 30
0.0
 40
6.0
 50
270.0
 51
90.0
  0
ARC
  8
DETAIL
  6
CONTINUOUS
 62
     5
 10
-221.5
 20
-50.0
 30
0.0
 40
6.0
 50
90.000004000005603
 51
270.0
  0
LINE
  8
DETAIL
  6
CONTINUOUS
 62
     5
 10
-221.5
 20
-56.0
 30
0.0
 11
-212.5
 21
-56.0
 31
0.0
  0
LINE
  8
DETAIL
  6
CONTINUOUS
 62
     5
 10
-221.5
 20
-44.0
 30
0.0
 11
-212.5
 21
-44.0
 31
0.0
  0
TEXT
  8
SIZE
  6
CONTINUOUS
 62
    30
 10
885.98036000000002
 20
-193.57142899999999
 30
0.0
 40
64.0
  1
150
 50
90.0
 41
0.9
  0
LINE
  8
SIZE
  6
CONTINUOUS
 62
    30
 10
917.98036000000002
 20
-52.0
 30
0.0
 11
917.98036000000002
 21
-198.0
 31
0.0
  0
LINE
  8
DETAIL
  6
CONTINUOUS
 62
     5
 10
594.0
 20
-300.0
 30
0.0
 11
594.0
 21
-20.0
 31
0.0
  0
LINE
  8
OUTLINE
  6
CONTINUOUS
 62
     3
 10
629.0
 20
-291.42618099999999
 30
0.0
 11
629.0
 21
-8.574204000000009
 31
0.0
  0
LINE
  8
DETAIL
  6
CONTINUOUS
 62
     5
 10
614.5
 20
-300.0
 30
0.0
 11
614.5
 21
0.0
 31
0.0
  0
LINE
  8
DETAIL
  6
CONTINUOUS
 62
     5
 10
629.0
 20
-291.42618099999999
 30
0.0
 11
629.0
 21
-8.574204000000009
 31
0.0
  0
TEXT
  8
SIZE
  6
CONTINUOUS
 62
    30
 10
648.00643300000002
 20
-481.22137900000001
 30
0.0
 40
64.0
  1
14.5
 41
0.9
  0
LINE
  8
SIZE
  6
CONTINUOUS
 62
    30
 10
513.0
 20
-200.0
 30
0.0
 11
947.98036000000002
 21
-200.0
 31
0.0
  0
LINE
  8
NOTE
  6
CONTINUOUS
 62
     4
 10
473.0
 20
-200.0
 30
0.0
 11
721.21862999999985
 21
-333.34842300000003
 31
0.0
  0
LINE
  8
SIZE
  6
CONTINUOUS
 62
    30
 10
629.0
 20
-513.22137900000007
 30
0.0
 11
822.83913800000005
 21
-513.22137900000007
 31
0.0
  0
LINE
  8
SIZE
  6
CONTINUOUS
 62
    30
 10
473.0
 20
-240.0
 30
0.0
 11
473.0
 21
-673.40601500000002
 31
0.0
  0
CIRCLE
  8
SIZE
  6
CONTINUOUS
 62
    30
 10
473.0
 20
-643.40601500000002
 30
0.0
 40
6.0
  0
LINE
  8
SIZE
  6
CONTINUOUS
 62
    30
 10
217.0
 20
-240.0
 30
0.0
 11
217.0
 21
-544.54805499999998
 31
0.0
  0
CIRCLE
  8
SIZE
  6
CONTINUOUS
 62
    30
 10
217.0
 20
-514.54805499999998
 30
0.0
 40
6.0
  0
LINE
  8
NOTE
  6
CONTINUOUS
 62
     4
 10
237.0
 20
-200.0
 30
0.0
 11
197.0
 21
-200.0
 31
0.0
  0
LINE
  8
NOTE
  6
CONTINUOUS
 62
     4
 10
217.0
 20
-220.0
 30
0.0
 11
217.0
 21
-180.0
 31
0.0
  0
CIRCLE
  8
FIX
  6
CONTINUOUS
 62
    11
 10
217.0
 20
-200.0
 30
0.0
 40
6.0
  0
ARC
  8
DETAIL
  6
CONTINUOUS
 62
     5
 10
212.5
 20
-200.0
 30
0.0
 40
6.0
 50
90.0
 51
270.0
  0
ARC
  8
DETAIL
  6
CONTINUOUS
 62
     5
 10
221.5
 20
-200.0
 30
0.0
 40
6.0
 50
270.0
 51
89.999995999994383
  0
LINE
  8
DETAIL
  6
CONTINUOUS
 62
     5
 10
221.5
 20
-206.0
 30
0.0
 11
212.5
 21
-206.0
 31
0.0
  0
LINE
  8
DETAIL
  6
CONTINUOUS
 62
     5
 10
221.5
 20
-194.0
 30
0.0
 11
212.5
 21
-194.0
 31
0.0
  0
LINE
  8
SIZE
  6
CONTINUOUS
 62
    30
 10
629.0
 20
-311.42618099999999
 30
0.0
 11
629.0
 21
-543.22137900000007
 31
0.0
  0
LINE
  8
SIZE
  6
CONTINUOUS
 62
    30
 10
614.5
 20
-320.0
 30
0.0
 11
614.5
 21
-543.22137900000007
 31
0.0
  0
CIRCLE
  8
SIZE
  6
CONTINUOUS
 62
    30
 10
629.0
 20
-513.22137900000007
 30
0.0
 40
6.0
  0
CIRCLE
  8
SIZE
  6
CONTINUOUS
 62
    30
 10
614.5
 20
-513.22137900000007
 30
0.0
 40
6.0
  0
LINE
  8
SIZE
  6
CONTINUOUS
 62
    30
 10
629.0
 20
-513.22137900000007
 30
0.0
 11
614.5
 21
-513.22137900000007
 31
0.0
  0
LINE
  8
SIZE
  6
CONTINUOUS
 62
    30
 10
612.5
 20
-513.22137900000007
 30
0.0
 11
610.5
 21
-513.22137900000007
 31
0.0
  0
LINE
  8
SIZE
  6
CONTINUOUS
 62
    30
 10
631.0
 20
-513.22137900000007
 30
0.0
 11
633.0
 21
-513.22137900000007
 31
0.0
  0
LINE
  8
NOTE
  6
CONTINUOUS
 62
     4
 10
493.0
 20
-200.0
 30
0.0
 11
453.0
 21
-200.0
 31
0.0
  0
LINE
  8
NOTE
  6
CONTINUOUS
 62
     4
 10
512.07787899999994
 20
-208.53928500000001
 30
0.0
 11
473.0
 21
-200.0
 31
0.0
  0
LINE
  8
NOTE
  6
CONTINUOUS
 62
     4
 10
473.0
 20
-200.0
 30
0.0
 11
502.57279399999987
 21
-226.93417700000001
 31
0.0
  0
LINE
  8
NOTE
  6
CONTINUOUS
 62
     4
 10
473.0
 20
-220.0
 30
0.0
 11
473.0
 21
-180.0
 31
0.0
  0
LINE
  8
DETAIL
  6
CONTINUOUS
 62
     5
 10
477.5
 20
-194.0
 30
0.0
 11
468.5
 21
-194.0
 31
0.0
  0
LINE
  8
DETAIL
  6
CONTINUOUS
 62
     5
 10
477.5
 20
-206.0
 30
0.0
 11
468.5
 21
-206.0
 31
0.0
  0
ARC
  8
DETAIL
  6
CONTINUOUS
 62
     5
 10
477.5
 20
-200.0
 30
0.0
 40
6.0
 50
270.0
 51
89.999995999994383
  0
ARC
  8
DETAIL
  6
CONTINUOUS
 62
     5
 10
468.5
 20
-200.0
 30
0.0
 40
6.0
 50
90.0
 51
270.0
  0
CIRCLE
  8
FIX
  6
CONTINUOUS
 62
    11
 10
473.0
 20
-200.0
 30
0.0
 40
6.0
  0
ARC
  8
OUTLINE
  6
CONTINUOUS
 62
     3
 10
625.20000000000027
 20
-291.42618099999999
 30
0.0
 40
3.8
 50
314.99999999999523
 51
0.0
  0
LINE
  8
OUTLINE
  6
CONTINUOUS
 62
     3
 10
627.88700599999993
 20
-294.11318699999998
 30
0.0
 11
623.11299400000007
 21
-298.88719800000001
 31
0.0
  0
ARC
  8
OUTLINE
  6
CONTINUOUS
 62
     3
 10
620.42670217010834
 20
-296.20126083109921
 30
0.0
 40
3.798739236033456
 50
269.98922828581721
 51
315.00378252297782
  0
ARC
  8
DETAIL
  6
CONTINUOUS
 62
     5
 10
620.42670217010834
 20
-296.20126083109921
 30
0.0
 40
3.798739236033456
 50
269.98922828581721
 51
315.00378252297782
  0
LINE
  8
DETAIL
  6
CONTINUOUS
 62
     5
 10
627.88700599999993
 20
-294.11318699999998
 30
0.0
 11
623.11299400000007
 21
-298.88719800000001
 31
0.0
  0
ARC
  8
DETAIL
  6
CONTINUOUS
 62
     5
 10
625.20000000000027
 20
-291.42618099999999
 30
0.0
 40
3.8
 50
314.99999999999523
 51
0.0
  0
LINE
  8
NOTE
  6
CONTINUOUS
 62
     4
 10
721.21862999999985
 20
-333.34842300000003
 30
0.0
 11
1178.329
 21
-333.34842300000003
 31
0.0
  0
TEXT
  8
NOTE
  6
CONTINUOUS
 62
     4
 10
730.00921400000016
 20
-304.77654200000001
 30
0.0
 40
64.0
  1
8-φ12×21
 41
0.9
  0
CIRCLE
  8
SIZE
  6
CONTINUOUS
 62
    30
 10
917.98036000000002
 20
-200.0
 30
0.0
 40
6.0
  0
LINE
  8
SIZE
  6
CONTINUOUS
 62
    30
 10
513.0
 20
-50.0
 30
0.0
 11
947.98036000000002
 21
-50.0
 31
0.0
  0
LINE
  8
SIZE
  6
CONTINUOUS
 62
    30
 10
634.5
 20
0.0
 30
0.0
 11
947.98036000000002
 21
0.0
 31
0.0
  0
LINE
  8
SIZE
  6
CONTINUOUS
 62
    30
 10
513.0
 20
-50.0
 30
0.0
 11
947.98036000000002
 21
-50.0
 31
0.0
  0
LINE
  8
SIZE
  6
CONTINUOUS
 62
    30
 10
629.0
 20
11.425795999999989
 30
0.0
 11
629.0
 21
451.57362699999999
 31
0.0
  0
LINE
  8
NOTE
  6
CONTINUOUS
 62
     4
 10
323.86994299999992
 20
19.283615000000051
 30
0.0
 11
337.0
 21
-18.5
 31
0.0
  0
LINE
  8
NOTE
  6
CONTINUOUS
 62
     4
 10
337.0
 20
-18.5
 30
0.0
 11
306.73722900000013
 21
7.656541999999945
 31
0.0
  0
LINE
  8
NOTE
  6
CONTINUOUS
 62
     4
 10
357.0
 20
-18.5
 30
0.0
 11
317.0
 21
-18.5
 31
0.0
  0
LINE
  8
NOTE
  6
CONTINUOUS
 62
     4
 10
337.0
 20
-18.5
 30
0.0
 11
224.4304239999999
 21
145.82438400000001
 31
0.0
  0
LINE
  8
NOTE
  6
CONTINUOUS
 62
     4
 10
217.0
 20
-70.0
 30
0.0
 11
217.0
 21
-30.0
 31
0.0
  0
LINE
  8
NOTE
  6
CONTINUOUS
 62
     4
 10
237.0
 20
-50.0
 30
0.0
 11
197.0
 21
-50.0
 31
0.0
  0
LINE
  8
DETAIL
  6
CONTINUOUS
 62
     5
 10
221.5
 20
-44.0
 30
0.0
 11
212.5
 21
-44.0
 31
0.0
  0
LINE
  8
DETAIL
  6
CONTINUOUS
 62
     5
 10
221.5
 20
-56.0
 30
0.0
 11
212.5
 21
-56.0
 31
0.0
  0
ARC
  8
DETAIL
  6
CONTINUOUS
 62
     5
 10
221.5
 20
-50.0
 30
0.0
 40
6.0
 50
270.0
 51
89.999995999994383
  0
ARC
  8
DETAIL
  6
CONTINUOUS
 62
     5
 10
212.5
 20
-50.0
 30
0.0
 40
6.0
 50
90.0
 51
270.0
  0
CIRCLE
  8
FIX
  6
CONTINUOUS
 62
    11
 10
217.0
 20
-50.0
 30
0.0
 40
6.0
  0
LINE
  8
SIZE
  6
CONTINUOUS
 62
    30
 10
337.0
 20
24.0
 30
0.0
 11
337.0
 21
190.64453099999989
 31
0.0
  0
LINE
  8
SIZE
  6
CONTINUOUS
 62
    30
 10
629.0
 20
11.425795999999989
 30
0.0
 11
629.0
 21
190.64453099999989
 31
0.0
  0
LINE
  8
NOTE
  6
CONTINUOUS
 62
     4
 10
493.0
 20
-50.0
 30
0.0
 11
453.0
 21
-50.0
 31
0.0
  0
LINE
  8
NOTE
  6
CONTINUOUS
 62
     4
 10
337.0
 20
-38.5
 30
0.0
 11
337.0
 21
1.5
 31
0.0
  0
LINE
  8
NOTE
  6
CONTINUOUS
 62
     4
 10
473.0
 20
-70.0
 30
0.0
 11
473.0
 21
-30.0
 31
0.0
  0
CIRCLE
  8
FIX
  6
CONTINUOUS
 62
    11
 10
473.0
 20
-50.0
 30
0.0
 40
6.0
  0
ARC
  8
DETAIL
  6
CONTINUOUS
 62
     5
 10
468.5
 20
-50.0
 30
0.0
 40
6.0
 50
90.0
 51
270.0
  0
ARC
  8
DETAIL
  6
CONTINUOUS
 62
     5
 10
477.5
 20
-50.0
 30
0.0
 40
6.0
 50
270.0
 51
89.999995999994383
  0
LINE
  8
DETAIL
  6
CONTINUOUS
 62
     5
 10
477.5
 20
-56.0
 30
0.0
 11
468.5
 21
-56.0
 31
0.0
  0
LINE
  8
DETAIL
  6
CONTINUOUS
 62
     5
 10
477.5
 20
-44.0
 30
0.0
 11
468.5
 21
-44.0
 31
0.0
  0
LINE
  8
OUTLINE
  6
CONTINUOUS
 62
     3
 10
623.11299400000007
 20
-1.113187000000039
 30
0.0
 11
627.88700599999993
 21
-5.887198000000012
 31
0.0
  0
ARC
  8
OUTLINE
  6
CONTINUOUS
 62
     3
 10
620.42527339179844
 20
-3.80126148675275
 30
0.0
 40
3.801261553923145
 50
45.003782331883308
 51
89.989228830057371
  0
ARC
  8
OUTLINE
  6
CONTINUOUS
 62
     3
 10
625.20000000000027
 20
-8.574204000000009
 30
0.0
 40
3.8
 50
0.0
 51
45.000000000004839
  0
ARC
  8
DETAIL
  6
CONTINUOUS
 62
     5
 10
625.20000000000027
 20
-8.574204000000009
 30
0.0
 40
3.8
 50
0.0
 51
45.000000000004839
  0
ARC
  8
DETAIL
  6
CONTINUOUS
 62
     5
 10
620.42527339179844
 20
-3.80126148675275
 30
0.0
 40
3.801261553923145
 50
45.003782331883308
 51
89.989228830057371
  0
LINE
  8
DETAIL
  6
CONTINUOUS
 62
     5
 10
623.11299400000007
 20
-1.113187000000039
 30
0.0
 11
627.88700599999993
 21
-5.887198000000012
 31
0.0
  0
TEXT
  8
SIZE
  6
CONTINUOUS
 62
    30
 10
408.942857
 20
192.64453099999989
 30
0.0
 40
64.0
  1
292
 41
0.9
  0
LINE
  8
SIZE
  6
CONTINUOUS
 62
    30
 10
627.0
 20
160.64453099999989
 30
0.0
 11
339.0
 21
160.64453099999989
 31
0.0
  0
CIRCLE
  8
SIZE
  6
CONTINUOUS
 62
    30
 10
337.0
 20
160.64453099999989
 30
0.0
 40
6.0
  0
CIRCLE
  8
SIZE
  6
CONTINUOUS
 62
    30
 10
629.0
 20
160.64453099999989
 30
0.0
 40
6.0
  0
CIRCLE
  8
SIZE
  6
CONTINUOUS
 62
    30
 10
629.0
 20
421.57362699999999
 30
0.0
 40
6.0
  0
TEXT
  8
SIZE
  6
CONTINUOUS
 62
    30
 10
885.98036000000002
 20
35.382107000000019
 30
0.0
 40
64.0
  1
50
 50
90.0
 41
0.9
  0
LINE
  8
SIZE
  6
CONTINUOUS
 62
    30
 10
917.98036000000002
 20
0.0
 30
0.0
 11
917.98036000000002
 21
142.81640100000001
 31
0.0
  0
LINE
  8
SIZE
  6
CONTINUOUS
 62
    30
 10
917.98036000000002
 20
-50.0
 30
0.0
 11
917.98036000000002
 21
0.0
 31
0.0
  0
CIRCLE
  8
SIZE
  6
CONTINUOUS
 62
    30
 10
917.98036000000002
 20
-50.0
 30
0.0
 40
6.0
  0
CIRCLE
  8
SIZE
  6
CONTINUOUS
 62
    30
 10
917.98036000000002
 20
-50.0
 30
0.0
 40
6.0
  0
LINE
  8
SIZE
  6
CONTINUOUS
 62
    30
 10
917.98036000000002
 20
-52.0
 30
0.0
 11
917.98036000000002
 21
-54.0
 31
0.0
  0
CIRCLE
  8
SIZE
  6
CONTINUOUS
 62
    30
 10
917.98036000000002
 20
0.0
 30
0.0
 40
6.0
  0
LINE
  8
SIZE
  6
CONTINUOUS
 62
    30
 10
917.98036000000002
 20
2.0
 30
0.0
 11
917.98036000000002
 21
4.0
 31
0.0
  0
LINE
  8
DETAIL
  6
CONTINUOUS
 62
     5
 10
-594.0
 20
-20.0
 30
0.0
 11
594.0
 21
-20.0
 31
0.0
  0
LINE
  8
SIZE
  6
CONTINUOUS
 62
    30
 10
-640.42598799999996
 20
-300.0
 30
0.0
 11
-835.34416499999998
 21
-300.0
 31
0.0
  0
LINE
  8
SIZE
  6
CONTINUOUS
 62
    30
 10
-614.0
 20
-20.0
 30
0.0
 11
-835.34416499999998
 21
-20.0
 31
0.0
  0
LINE
  8
SIZE
  6
CONTINUOUS
 62
    30
 10
-815.34416499999998
 20
-288.0
 30
0.0
 11
-815.34416499999998
 21
-32.0
 31
0.0
  0
CIRCLE
  8
SIZE
  6
CONTINUOUS
 62
    30
 10
-815.34416499999998
 20
-300.0
 30
0.0
 40
6.0
  0
LINE
  8
SIZE
  6
CONTINUOUS
 62
    30
 10
-815.34416499999998
 20
-300.0
 30
0.0
 11
-815.34416499999998
 21
-288.0
 31
0.0
  0
CIRCLE
  8
SIZE
  6
CONTINUOUS
 62
    30
 10
-815.34416499999998
 20
-20.0
 30
0.0
 40
6.0
  0
LINE
  8
SIZE
  6
CONTINUOUS
 62
    30
 10
-815.34416499999998
 20
-20.0
 30
0.0
 11
-815.34416499999998
 21
-32.0
 31
0.0
  0
TEXT
  8
SIZE
  6
CONTINUOUS
 62
    30
 10
-840.34416499999998
 20
-234.05714285714279
 30
0.0
 40
64.0
  1
280
 50
90.0
 41
0.9
 72
     1
 11
-840.34416499999998
 21
-160.0
 31
0.0
  0
LINE
  8
SIZE
  6
CONTINUOUS
 62
    30
 10
-637.71299399999998
 20
0.0
 30
0.0
 11
-714.73696199999995
 21
0.0
 31
0.0
  0
LINE
  8
SIZE
  6
CONTINUOUS
 62
    30
 10
-634.5
 20
-18.5
 30
0.0
 11
-714.73696199999995
 21
-18.5
 31
0.0
  0
LINE
  8
SIZE
  6
CONTINUOUS
 62
    30
 10
-694.73696199999995
 20
-30.5
 30
0.0
 11
-694.73696199999995
 21
-42.5
 31
0.0
  0
LINE
  8
SIZE
  6
CONTINUOUS
 62
    30
 10
-694.73696199999995
 20
12.0
 30
0.0
 11
-694.73696199999995
 21
238.57142900000011
 31
0.0
  0
LINE
  8
SIZE
  6
CONTINUOUS
 62
    30
 10
-694.73696199999995
 20
-18.5
 30
0.0
 11
-694.73696199999995
 21
0.0
 31
0.0
  0
CIRCLE
  8
SIZE
  6
CONTINUOUS
 62
    30
 10
-694.73696199999995
 20
-18.5
 30
0.0
 40
6.0
  0
LINE
  8
SIZE
  6
CONTINUOUS
 62
    30
 10
-694.73696199999995
 20
-18.5
 30
0.0
 11
-694.73696199999995
 21
-30.5
 31
0.0
  0
CIRCLE
  8
SIZE
  6
CONTINUOUS
 62
    30
 10
-694.73696199999995
 20
0.0
 30
0.0
 40
6.0
  0
LINE
  8
SIZE
  6
CONTINUOUS
 62
    30
 10
-694.73696199999995
 20
0.0
 30
0.0
 11
-694.73696199999995
 21
12.0
 31
0.0
  0
TEXT
  8
SIZE
  6
CONTINUOUS
 62
    30
 10
-719.73696199999995
 20
48.999999714285707
 30
0.0
 40
64.0
  1
18.5
 50
90.0
 41
0.9
 72
     1
 11
-719.73696199999995
 21
131.28571400000001
 31
0.0
  0
LINE
  8
SIZE
  6
CONTINUOUS
 62
    30
 10
-594.0
 20
0.0
 30
0.0
 11
-594.0
 21
321.87355600000001
 31
0.0
  0
LINE
  8
SIZE
  6
CONTINUOUS
 62
    30
 10
594.0
 20
0.0
 30
0.0
 11
594.0
 21
321.87355600000001
 31
0.0
  0
LINE
  8
SIZE
  6
CONTINUOUS
 62
    30
 10
-582.0
 20
301.87355600000001
 30
0.0
 11
582.0
 21
301.87355600000001
 31
0.0
  0
CIRCLE
  8
SIZE
  6
CONTINUOUS
 62
    30
 10
-594.0
 20
301.87355600000001
 30
0.0
 40
6.0
  0
LINE
  8
SIZE
  6
CONTINUOUS
 62
    30
 10
-594.0
 20
301.87355600000001
 30
0.0
 11
-582.0
 21
301.87355600000001
 31
0.0
  0
CIRCLE
  8
SIZE
  6
CONTINUOUS
 62
    30
 10
594.0
 20
301.87355600000001
 30
0.0
 40
6.0
  0
LINE
  8
SIZE
  6
CONTINUOUS
 62
    30
 10
594.0
 20
301.87355600000001
 30
0.0
 11
582.0
 21
301.87355600000001
 31
0.0
  0
TEXT
  8
SIZE
  6
CONTINUOUS
 62
    30
 10
-90.514285714285691
 20
326.87355600000001
 30
0.0
 40
64.0
  1
1188
 41
0.9
 72
     1
 11
0.0
 21
326.87355600000001
 31
0.0
  0
ENDSEC
  0
EOF
