  0
SECTION
  2
HEADER
  9
$ACADVER
  1
AC1009
  9
$INSBASE
 10
0.0
 20
0.0
 30
0.0
  9
$EXTMIN
 10
-252.87142900000001
 20
-279.29285700000003
 30
0.0
  9
$EXTMAX
 10
654.46073817377294
 20
418.11490100000009
 30
50.0
  9
$LIMMIN
 10
-2970.0
 20
-2100.0
  9
$LIMMAX
 10
2970.0
 20
2100.0
  9
$ORTHOMODE
 70
     1
  9
$REGENMODE
 70
     1
  9
$FILLMODE
 70
     1
  9
$QTEXTMODE
 70
     0
  9
$MIRRTEXT
 70
     0
  9
$DRAGMODE
 70
     2
  9
$LTSCALE
 40
20.0
  9
$OSMODE
 70
    55
  9
$ATTMODE
 70
     1
  9
$TEXTSIZE
 40
64.0
  9
$TRACEWID
 40
0.05
  9
$TEXTSTYLE
  7
STANDARD
  9
$CLAYER
  8
SIZE
  9
$CELTYPE
  6
CONTINUOUS
  9
$CECOLOR
 62
     7
  9
$DIMSCALE
 40
1.0
  9
$DIMASZ
 40
12.0
  9
$DIMEXO
 40
20.0
  9
$DIMDLI
 40
200.0
  9
$DIMRND
 40
0.0
  9
$DIMDLE
 40
0.0
  9
$DIMEXE
 40
20.0
  9
$DIMTP
 40
0.0
  9
$DIMTM
 40
0.0
  9
$DIMTXT
 40
64.0
  9
$DIMCEN
 40
0.09
  9
$DIMTSZ
 40
0.0
  9
$DIMTOL
 70
     0
  9
$DIMLIM
 70
     0
  9
$DIMTIH
 70
     0
  9
$DIMTOH
 70
     0
  9
$DIMSE1
 70
     0
  9
$DIMSE2
 70
     0
  9
$DIMTAD
 70
     1
  9
$DIMZIN
 70
     8
  9
$DIMBLK
  1
DOT1
  9
$DIMASO
 70
     1
  9
$DIMSHO
 70
     0
  9
$DIMPOST
  1

  9
$DIMAPOST
  1

  9
$DIMALT
 70
     0
  9
$DIMALTD
 70
     2
  9
$DIMALTF
 40
25.399999999999999
  9
$DIMLFAC
 40
1.0
  9
$DIMTOFL
 70
     1
  9
$DIMTVP
 40
0.0
  9
$DIMTIX
 70
     1
  9
$DIMSOXD
 70
     0
  9
$DIMSAH
 70
     1
  9
$DIMBLK1
  1
ORIGIN
  9
$DIMBLK2
  1
ORIGIN
  9
$DIMSTYLE
  2
STANDARD
  9
$DIMCLRD
 70
     7
  9
$DIMCLRE
 70
     7
  9
$DIMCLRT
 70
     7
  9
$DIMTFAC
 40
1.0
  9
$DIMGAP
 40
25.0
  9
$LUNITS
 70
     2
  9
$LUPREC
 70
     4
  9
$SKETCHINC
 40
0.1
  9
$FILLETRAD
 40
3.0
  9
$AUNITS
 70
     1
  9
$AUPREC
 70
     3
  9
$MENU
  1
ACAD
  9
$ELEVATION
 40
0.0
  9
$PELEVATION
 40
0.0
  9
$THICKNESS
 40
50.0
  9
$LIMCHECK
 70
     0
  9
$BLIPMODE
 70
     0
  9
$CHAMFERA
 40
0.0
  9
$CHAMFERB
 40
0.0
  9
$SKPOLY
 70
     0
  9
$TDCREATE
 40
2453019.6230103709
  9
$TDUPDATE
 40
2456388.6764261001
  9
$TDINDWG
 40
1.7078523495
  9
$TDUSRTIMER
 40
1.7078521759
  9
$USRTIMER
 70
     1
  9
$ANGBASE
 50
0.0
  9
$ANGDIR
 70
     0
  9
$PDMODE
 70
     3
  9
$PDSIZE
 40
-2.0
  9
$PLINEWID
 40
0.0
  9
$COORDS
 70
     1
  9
$SPLFRAME
 70
     0
  9
$SPLINETYPE
 70
     6
  9
$SPLINESEGS
 70
     8
  9
$ATTDIA
 70
     0
  9
$ATTREQ
 70
     1
  9
$HANDLING
 70
     1
  9
$HANDSEED
  5
1F8
  9
$SURFTAB1
 70
     6
  9
$SURFTAB2
 70
     6
  9
$SURFTYPE
 70
     6
  9
$SURFU
 70
     6
  9
$SURFV
 70
     6
  9
$UCSNAME
  2

  9
$UCSORG
 10
0.0
 20
0.0
 30
0.0
  9
$UCSXDIR
 10
1.0
 20
0.0
 30
0.0
  9
$UCSYDIR
 10
0.0
 20
1.0
 30
0.0
  9
$PUCSNAME
  2

  9
$PUCSORG
 10
0.0
 20
0.0
 30
0.0
  9
$PUCSXDIR
 10
1.0
 20
0.0
 30
0.0
  9
$PUCSYDIR
 10
0.0
 20
1.0
 30
0.0
  9
$USERI1
 70
     0
  9
$USERI2
 70
     0
  9
$USERI3
 70
     0
  9
$USERI4
 70
     0
  9
$USERI5
 70
     0
  9
$USERR1
 40
20.0
  9
$USERR2
 40
0.0
  9
$USERR3
 40
0.0
  9
$USERR4
 40
0.0
  9
$USERR5
 40
0.0
  9
$WORLDVIEW
 70
     1
  9
$SHADEDGE
 70
     3
  9
$SHADEDIF
 70
    70
  9
$TILEMODE
 70
     1
  9
$MAXACTVP
 70
    48
  9
$PLIMCHECK
 70
     0
  9
$PEXTMIN
 10
-1.0000000000000000E+020
 20
-1.0000000000000000E+020
 30
-1.0000000000000000E+020
  9
$PEXTMAX
 10
1.0000000000000000E+020
 20
1.0000000000000000E+020
 30
1.0000000000000000E+020
  9
$PLIMMIN
 10
0.0
 20
0.0
  9
$PLIMMAX
 10
12.0
 20
9.0
  9
$UNITMODE
 70
     0
  9
$VISRETAIN
 70
     0
  9
$PLINEGEN
 70
     0
  9
$PSLTSCALE
 70
     0
  0
ENDSEC
  0
SECTION
  2
TABLES
  0
TABLE
  2
VPORT
 70
     1
  0
VPORT
  2
*ACTIVE
 70
     0
 10
0.0
 20
0.0
 11
1.0
 21
1.0
 12
336.13182556217828
 22
140.67263340751219
 13
0.0
 23
0.0
 14
1.0
 24
1.0
 15
0.0
 25
0.0
 16
0.0
 26
0.0
 36
1.0
 17
0.0
 27
0.0
 37
0.0
 40
1086.8371945327151
 41
1.6865079365079361
 42
50.0
 43
0.0
 44
0.0
 50
0.0
 51
0.0
 71
     0
 72
  1000
 73
     1
 74
     0
 75
     0
 76
     0
 77
     0
 78
     0
  0
ENDTAB
  0
TABLE
  2
LTYPE
 70
     3
  0
LTYPE
  2
CONTINUOUS
 70
     0
  3
実線
 72
    65
 73
     0
 40
0.0
  0
LTYPE
  2
DASHDOT
 70
     0
  3
____ _ ____ _ ____ _ ____ _ ____ _ ____ _ ____
 72
    65
 73
     4
 40
5.5
 49
4.0
 49
-0.6
 49
0.3
 49
-0.6
  0
ENDTAB
  0
TABLE
  2
LAYER
 70
    12
  0
LAYER
  2
0
 70
     0
 62
     7
  6
CONTINUOUS
  0
LAYER
  2
SIZE
 70
     0
 62
    30
  6
CONTINUOUS
  0
LAYER
  2
BASIS
 70
     0
 62
     6
  6
DASHDOT
  0
LAYER
  2
OUTLINE
 70
     0
 62
     3
  6
CONTINUOUS
  0
LAYER
  2
DETAIL
 70
     0
 62
     5
  6
CONTINUOUS
  0
LAYER
  2
ARRANGE
 70
     0
 62
     1
  6
CONTINUOUS
  0
LAYER
  2
DEFPOINTS
 70
     0
 62
     7
  6
CONTINUOUS
  0
LAYER
  2
ETC
 70
     0
 62
    61
  6
CONTINUOUS
  0
LAYER
  2
FIX
 70
     0
 62
    11
  6
CONTINUOUS
  0
LAYER
  2
NOTE
 70
     0
 62
     4
  6
CONTINUOUS
  0
LAYER
  2
SERVICESPACE
 70
     0
 62
     2
  6
DASHDOT
  0
LAYER
  2
SYMBOLLINE
 70
     0
 62
    15
  6
CONTINUOUS
  0
ENDTAB
  0
TABLE
  2
STYLE
 70
     2
  0
STYLE
  2
STANDARD
 70
     0
 40
64.0
 41
0.9
 50
0.0
 71
     0
 42
64.0
  3
SIMPLEX.shx
  4
BIGFONT.shx
  0
STYLE
  2
ANNOTATIVE
 70
     0
 40
0.0
 41
1.0
 50
0.0
 71
     0
 42
0.2
  3
txt
  4

  0
ENDTAB
  0
TABLE
  2
VIEW
 70
     1
  0
VIEW
  2
ALL
 70
     0
 40
4282.6198080000004
 10
0.0
 20
41.309904000000003
 41
5940.0
 11
0.0
 21
0.0
 31
1.0
 12
0.0
 22
0.0
 32
0.0
 42
50.0
 43
0.0
 44
0.0
 50
0.0
 71
     0
  0
ENDTAB
  0
TABLE
  2
UCS
 70
     0
  0
ENDTAB
  0
TABLE
  2
APPID
 70
    18
  0
APPID
  2
ACAD
 70
     0
  0
APPID
  2
ACADANNOTATIVE
 70
     0
  0
APPID
  2
AUTOCAD_POSTSCRIPT_FIGURE
 70
     0
  0
APPID
  2
ACAD_EXEMPT_FROM_CAD_STANDARDS
 70
     0
  0
APPID
  2
ACAD_PSEXT
 70
     0
  0
APPID
  2
ACAUTHENVIRON
 70
     0
  0
APPID
  2
GENIUS_GENOENT_13
 70
     0
  0
APPID
  2
GENIUS_GENCFG_13
 70
     0
  0
APPID
  2
GENIUS_GENCFG0_13
 70
     0
  0
APPID
  2
GENIUS_GENCFG1_13
 70
     0
  0
APPID
  2
GENIUS_GENCFG2_13
 70
     0
  0
APPID
  2
GENIUS_GENCFG3_13
 70
     0
  0
APPID
  2
GENIUS_GENCFG4_13
 70
     0
  0
APPID
  2
GENIUS_GEVCFG0_13
 70
     0
  0
APPID
  2
CONTENTBLOCKICON
 70
     0
  0
APPID
  2
CONTENTBLOCKDESCRIPTION
 70
     0
  0
APPID
  2
ACAD_NAV_VCDISPLAY
 70
     0
  0
APPID
  2
ACAD_MLEADERVER
 70
     0
  0
ENDTAB
  0
TABLE
  2
DIMSTYLE
 70
     2
  0
DIMSTYLE
  2
STANDARD
 70
     0
  3

  4

  5

  6

  7

 40
1.0
 41
0.18
 42
0.0625
 43
0.38
 44
0.18
 45
0.0
 46
0.0
 47
0.0
 48
0.0
140
0.18
141
0.09
142
0.0
143
25.399999999999999
144
1.0
145
0.0
146
1.0
147
0.09
 71
     0
 72
     0
 73
     1
 74
     1
 75
     0
 76
     0
 77
     0
 78
     0
170
     0
171
     2
172
     0
173
     0
174
     0
175
     0
176
     7
177
     7
178
     7
  0
DIMSTYLE
  2
ANNOTATIVE
 70
     0
  3

  4

  5

  6

  7

 40
1.0
 41
0.18
 42
0.0625
 43
0.38
 44
0.18
 45
0.0
 46
0.0
 47
0.0
 48
0.0
140
0.18
141
0.09
142
0.0
143
25.399999999999999
144
1.0
145
0.0
146
1.0
147
0.09
 71
     0
 72
     0
 73
     1
 74
     1
 75
     0
 76
     0
 77
     0
 78
     0
170
     0
171
     2
172
     0
173
     0
174
     0
175
     0
176
     0
177
     0
178
     0
  0
ENDTAB
  0
ENDSEC
  0
SECTION
  2
BLOCKS
  0
BLOCK
  8
0
  2
$MODEL_SPACE
 70
     0
 10
0.0
 20
0.0
 30
0.0
  3
$MODEL_SPACE
  1

  0
ENDBLK
  5
6D
  8
0
  0
BLOCK
 67
     1
  8
0
  2
$PAPER_SPACE
 70
     0
 10
0.0
 20
0.0
 30
0.0
  3
$PAPER_SPACE
  1

  0
ENDBLK
  5
69
 67
     1
  8
0
  0
BLOCK
  8
0
  2
DOT1
 70
     0
 10
0.0
 20
0.0
 30
0.0
  3
DOT1
  1

  0
CIRCLE
  5
90
  8
SIZE
  6
CONTINUOUS
 62
     7
 10
0.0
 20
0.0
 30
0.0
 40
3.0
  0
ENDBLK
  5
91
  8
0
  0
BLOCK
  8
0
  2
_ORIGIN
 70
     0
 10
0.0
 20
0.0
 30
0.0
  3
_ORIGIN
  1

  0
CIRCLE
  5
94
  8
0
  6
CONTINUOUS
 62
     7
 10
0.0
 20
0.0
 30
0.0
 40
0.5
  0
LINE
  5
95
  8
0
  6
CONTINUOUS
 62
     7
 10
0.0
 20
0.0
 30
0.0
 11
-1.0
 21
0.0
 31
0.0
  0
ENDBLK
  5
96
  8
0
  0
ENDSEC
  0
SECTION
  2
ENTITIES
  0
TEXT
  5
97
  8
ETC
  6
CONTINUOUS
 62
    61
 10
97.102462000000003
 20
354.11490099999997
 30
0.0
 40
64.0
  1
P-04SW2_4
 41
0.9
  0
TEXT
  5
98
  8
ETC
  6
CONTINUOUS
 62
    61
 10
92.916467999999995
 20
236.15959100000001
 30
0.0
 40
64.0
  1
システム部材
 41
0.9
  0
CIRCLE
  5
99
  8
ARRANGE
  6
CONTINUOUS
 62
     1
 10
0.0
 20
0.0
 30
0.0
 40
40.0
  0
POINT
  5
9A
  8
ARRANGE
  6
CONTINUOUS
 62
     1
 10
0.0
 20
0.0
 30
0.0
 39
50.0
  0
TEXT
  5
9B
  8
ETC
  6
CONTINUOUS
 62
    61
 10
367.61620294593359
 20
128.32381100000001
 30
0.0
 40
40.0
  1
P-04SW2
 41
0.9
  0
LINE
  5
9C
  8
BASIS
  6
DASHDOT
 62
     6
 39
50.0
 10
-44.172938000000002
 20
0.0
 30
0.0
 11
44.172938000000002
 21
0.0
 31
0.0
  0
LINE
  5
9D
  8
OUTLINE
  6
CONTINUOUS
 62
     3
 10
10.0
 20
32.850000000000001
 30
0.0
 11
25.199999999999999
 21
32.850000000000001
 31
0.0
  0
LINE
  5
9E
  8
OUTLINE
  6
CONTINUOUS
 62
     3
 10
10.0
 20
-32.850000000000001
 30
0.0
 11
20.199999999999999
 21
-32.850000000000001
 31
0.0
  0
LINE
  5
9F
  8
OUTLINE
  6
CONTINUOUS
 62
     3
 10
-10.5
 20
46.754544999999993
 30
0.0
 11
-10.5
 21
43.04999999999999
 31
0.0
  0
LINE
  5
A0
  8
OUTLINE
  6
CONTINUOUS
 62
     3
 10
0.0
 20
60.000098000000001
 30
0.0
 11
0.0
 21
35.927715999999997
 31
0.0
  0
LINE
  5
A1
  8
OUTLINE
  6
CONTINUOUS
 62
     3
 10
-10.5
 20
57.040874000000002
 30
0.0
 11
-10.5
 21
43.04999999999999
 31
0.0
  0
LINE
  5
A2
  8
OUTLINE
  6
CONTINUOUS
 62
     3
 10
-14.300000000000001
 20
1.0
 30
0.0
 11
-14.300000000000001
 21
15.59285
 31
0.0
  0
LINE
  5
A3
  8
OUTLINE
  6
CONTINUOUS
 62
     3
 10
7.5
 20
34.934407
 30
0.0
 11
7.5
 21
34.350000000000001
 31
0.0
  0
LINE
  5
A4
  8
OUTLINE
  6
CONTINUOUS
 62
     3
 10
-10.5
 20
-56.366131000000003
 30
0.0
 11
-10.5
 21
-43.04999999999999
 31
0.0
  0
LINE
  5
A5
  8
OUTLINE
  6
CONTINUOUS
 62
     3
 10
0.0
 20
-60.000098999999999
 30
0.0
 11
0.0
 21
-35.927717000000001
 31
0.0
  0
LINE
  5
A6
  8
OUTLINE
  6
CONTINUOUS
 62
     3
 10
-10.5
 20
-46.754545999999998
 30
0.0
 11
-10.5
 21
-43.04999999999999
 31
0.0
  0
LINE
  5
A7
  8
OUTLINE
  6
CONTINUOUS
 62
     3
 10
-12.800000000000001
 20
-43.04999999999999
 30
0.0
 11
-14.300000000000001
 21
-41.549999999999997
 31
0.0
  0
ARC
  5
A8
  8
OUTLINE
  6
CONTINUOUS
 62
     3
 10
-7.0
 20
-56.366131000000003
 30
0.0
 40
3.5
 50
180.0
 51
268.90878400000003
  0
LINE
  5
A9
  8
OUTLINE
  6
CONTINUOUS
 62
     3
 10
-10.5
 20
-43.04999999999999
 30
0.0
 11
-12.800000000000001
 21
-43.04999999999999
 31
0.0
  0
LINE
  5
AA
  8
OUTLINE
  6
CONTINUOUS
 62
     3
 10
-7.066654999999999
 20
-59.865496
 30
0.0
 11
0.0
 21
-60.000098999999999
 31
0.0
  0
LINE
  5
AB
  8
OUTLINE
  6
CONTINUOUS
 62
     3
 10
7.5
 20
-34.934407
 30
0.0
 11
7.5
 21
-34.350000000000001
 31
0.0
  0
LINE
  5
AC
  8
OUTLINE
  6
CONTINUOUS
 62
     3
 10
-14.300000000000001
 20
-13.689335
 30
0.0
 11
-14.300000000000001
 21
-41.549999999999997
 31
0.0
  0
LINE
  5
AD
  8
OUTLINE
  6
CONTINUOUS
 62
     3
 10
7.0350609999999989
 20
-35.43317600000001
 30
0.0
 11
0.0
 21
-35.927717000000001
 31
0.0
  0
LINE
  5
AE
  8
OUTLINE
  6
CONTINUOUS
 62
     3
 10
7.5
 20
-34.350000000000001
 30
0.0
 11
10.0
 21
-34.350000000000001
 31
0.0
  0
ARC
  5
AF
  8
OUTLINE
  6
CONTINUOUS
 62
     3
 10
7.0
 20
-34.934407
 30
0.0
 40
0.5
 50
274.02107699999999
 51
0.0
  0
ARC
  5
B0
  8
OUTLINE
  6
CONTINUOUS
 62
     3
 10
10.0
 20
-33.850000000000001
 30
0.0
 40
0.5
 50
270.0
 51
0.0
  0
LINE
  5
B1
  8
OUTLINE
  6
CONTINUOUS
 62
     3
 10
10.5
 20
-33.850000000000001
 30
0.0
 11
10.5
 21
-33.350000000000001
 31
0.0
  0
ARC
  5
B2
  8
OUTLINE
  6
CONTINUOUS
 62
     3
 10
10.0
 20
-33.350000000000001
 30
0.0
 40
0.5
 50
0.0
 51
90.0
  0
LINE
  5
B3
  8
OUTLINE
  6
CONTINUOUS
 62
     3
 10
-14.300000000000001
 20
-1.0
 30
0.0
 11
-14.300000000000001
 21
-13.85
 31
0.0
  0
ARC
  5
B4
  8
OUTLINE
  6
CONTINUOUS
 62
     3
 10
-13.300000000000001
 20
-1.0
 30
0.0
 40
1.0
 50
90.0
 51
180.0
  0
ARC
  5
B5
  8
OUTLINE
  6
CONTINUOUS
 62
     3
 10
-13.300000000000001
 20
1.0
 30
0.0
 40
1.0
 50
180.0
 51
270.0
  0
LINE
  5
B6
  8
OUTLINE
  6
CONTINUOUS
 62
     3
 10
-14.300000000000001
 20
14.85
 30
0.0
 11
-14.300000000000001
 21
41.549999999999997
 31
0.0
  0
LINE
  5
B7
  8
OUTLINE
  6
CONTINUOUS
 62
     3
 10
-12.800000000000001
 20
43.04999999999999
 30
0.0
 11
-14.300000000000001
 21
41.549999999999997
 31
0.0
  0
LINE
  5
B8
  8
OUTLINE
  6
CONTINUOUS
 62
     3
 10
-10.5
 20
43.04999999999999
 30
0.0
 11
-12.800000000000001
 21
43.04999999999999
 31
0.0
  0
LINE
  5
B9
  8
OUTLINE
  6
CONTINUOUS
 62
     3
 10
7.0350609999999989
 20
35.43317600000001
 30
0.0
 11
0.0
 21
35.927715999999997
 31
0.0
  0
LINE
  5
BA
  8
OUTLINE
  6
CONTINUOUS
 62
     3
 10
7.5
 20
34.350000000000001
 30
0.0
 11
10.0
 21
34.350000000000001
 31
0.0
  0
ARC
  5
BB
  8
OUTLINE
  6
CONTINUOUS
 62
     3
 10
7.0
 20
34.934407
 30
0.0
 40
0.5
 50
0.0
 51
85.97892299999998
  0
LINE
  5
BC
  8
OUTLINE
  6
CONTINUOUS
 62
     3
 10
10.5
 20
33.850000000000001
 30
0.0
 11
10.5
 21
33.350000000000001
 31
0.0
  0
ARC
  5
BD
  8
OUTLINE
  6
CONTINUOUS
 62
     3
 10
10.0
 20
33.350000000000001
 30
0.0
 40
0.5
 50
270.0
 51
0.0
  0
ARC
  5
BE
  8
OUTLINE
  6
CONTINUOUS
 62
     3
 10
10.0
 20
33.850000000000001
 30
0.0
 40
0.5
 50
0.0
 51
90.0
  0
ARC
  5
BF
  8
OUTLINE
  6
CONTINUOUS
 62
     3
 10
-7.0659029999999987
 20
56.364874999999998
 30
0.0
 40
3.5
 50
91.091215999999989
 51
178.922191
  0
LINE
  5
C0
  8
OUTLINE
  6
CONTINUOUS
 62
     3
 10
-7.1325580000000004
 20
59.864240000000002
 30
0.0
 11
0.0
 21
60.000098000000001
 31
0.0
  0
LINE
  5
C1
  8
OUTLINE
  6
CONTINUOUS
 62
     3
 10
25.199999999999999
 20
13.15
 30
0.0
 11
25.199999999999999
 21
-15.5
 31
0.0
  0
LINE
  5
C2
  8
OUTLINE
  6
CONTINUOUS
 62
     3
 10
21.199999999999999
 20
-31.850000000000001
 30
0.0
 11
21.199999999999999
 21
-18.5
 31
0.0
  0
ARC
  5
C3
  8
OUTLINE
  6
CONTINUOUS
 62
     3
 10
20.199999999999999
 20
-31.850000000000001
 30
0.0
 40
1.0
 50
270.0
 51
0.0
  0
ARC
  5
C4
  8
OUTLINE
  6
CONTINUOUS
 62
     3
 10
22.199999999999999
 20
-15.5
 30
0.0
 40
3.0
 50
270.0
 51
0.0
  0
LINE
  5
C5
  8
OUTLINE
  6
CONTINUOUS
 62
     3
 10
22.199999999999999
 20
-18.5
 30
0.0
 11
21.199999999999999
 21
-18.5
 31
0.0
  0
LINE
  5
C6
  8
OUTLINE
  6
CONTINUOUS
 62
     3
 10
26.199999999999999
 20
31.850000000000001
 30
0.0
 11
26.199999999999999
 21
14.15
 31
0.0
  0
ARC
  5
C7
  8
OUTLINE
  6
CONTINUOUS
 62
     3
 10
25.199999999999999
 20
14.15
 30
0.0
 40
1.0
 50
270.0
 51
0.0
  0
ARC
  5
C8
  8
OUTLINE
  6
CONTINUOUS
 62
     3
 10
25.199999999999999
 20
31.850000000000001
 30
0.0
 40
1.0
 50
0.0
 51
90.0
  0
LINE
  5
C9
  8
NOTE
  6
CONTINUOUS
 62
     4
 39
50.0
 10
-5.0838710000000003
 20
41.749999999999993
 30
0.0
 11
5.0838710000000003
 21
41.749999999999993
 31
0.0
  0
CIRCLE
  5
CA
  8
FIX
  6
CONTINUOUS
 62
    11
 39
50.0
 10
0.0
 20
41.749999999999993
 30
0.0
 40
2.5
  0
LINE
  5
CB
  8
NOTE
  6
CONTINUOUS
 62
     4
 39
50.0
 10
-5.0838710000000003
 20
-41.749999999999993
 30
0.0
 11
5.0838710000000003
 21
-41.749999999999993
 31
0.0
  0
CIRCLE
  5
CC
  8
FIX
  6
CONTINUOUS
 62
    11
 39
50.0
 10
0.0
 20
-41.749999999999993
 30
0.0
 40
2.5
  0
LINE
  5
CD
  8
SIZE
  6
CONTINUOUS
 62
    30
 10
25.083870999999998
 20
41.749999999999993
 30
0.0
 11
167.07639
 21
41.749999999999993
 31
0.0
  0
LINE
  5
CE
  8
SIZE
  6
CONTINUOUS
 62
    30
 10
25.083870999999998
 20
-41.749999999999993
 30
0.0
 11
167.07639
 21
-41.749999999999993
 31
0.0
  0
LINE
  5
CF
  8
SIZE
  6
CONTINUOUS
 62
    30
 10
147.07639
 20
29.75
 30
0.0
 11
147.07639
 21
-29.75
 31
0.0
  0
LINE
  5
D0
  8
SIZE
  6
CONTINUOUS
 62
    30
 10
147.07639
 20
-41.749999999999993
 30
0.0
 11
147.07639
 21
-279.29285700000003
 31
0.0
  0
CIRCLE
  5
D1
  8
SIZE
  6
CONTINUOUS
 62
    30
 10
147.07639
 20
41.749999999999993
 30
0.0
 40
6.0
  0
LINE
  5
D2
  8
SIZE
  6
CONTINUOUS
 62
    30
 10
147.07639
 20
41.749999999999993
 30
0.0
 11
147.07639
 21
29.75
 31
0.0
  0
CIRCLE
  5
D3
  8
SIZE
  6
CONTINUOUS
 62
    30
 10
147.07639
 20
-41.749999999999993
 30
0.0
 40
6.0
  0
LINE
  5
D4
  8
SIZE
  6
CONTINUOUS
 62
    30
 10
147.07639
 20
-41.749999999999993
 30
0.0
 11
147.07639
 21
-29.75
 31
0.0
  0
TEXT
  5
D5
  8
SIZE
  6
CONTINUOUS
 62
    30
 10
122.07639
 20
-254.29285757142861
 30
0.0
 40
64.0
  1
83.5
 50
90.0
 41
0.9
 72
     1
 11
122.07639
 21
-166.52142900000001
 31
0.0
  0
POINT
  5
D6
  8
DEFPOINTS
  6
CONTINUOUS
 62
    30
 10
5.0838710000000003
 20
41.749999999999993
 30
0.0
  0
POINT
  5
D7
  8
DEFPOINTS
  6
CONTINUOUS
 62
    30
 10
5.0838710000000003
 20
-41.749999999999993
 30
0.0
  0
POINT
  5
D8
  8
DEFPOINTS
  6
CONTINUOUS
 62
    30
 10
147.07639
 20
-41.749999999999993
 30
0.0
  0
LINE
  5
D9
  8
SIZE
  6
CONTINUOUS
 62
    30
 10
20.0
 20
60.000098000000001
 30
0.0
 11
294.007994
 21
60.000098000000001
 31
0.0
  0
LINE
  5
DA
  8
SIZE
  6
CONTINUOUS
 62
    30
 10
20.0
 20
-60.000098999999999
 30
0.0
 11
294.007994
 21
-60.000098999999999
 31
0.0
  0
LINE
  5
DB
  8
SIZE
  6
CONTINUOUS
 62
    30
 10
274.007994
 20
48.000098000000001
 30
0.0
 11
274.007994
 21
-48.000098999999999
 31
0.0
  0
LINE
  5
DC
  8
SIZE
  6
CONTINUOUS
 62
    30
 10
274.007994
 20
-60.000098999999999
 30
0.0
 11
274.007994
 21
-259.14295600000003
 31
0.0
  0
CIRCLE
  5
DD
  8
SIZE
  6
CONTINUOUS
 62
    30
 10
274.007994
 20
60.000098000000001
 30
0.0
 40
6.0
  0
LINE
  5
DE
  8
SIZE
  6
CONTINUOUS
 62
    30
 10
274.007994
 20
60.000098000000001
 30
0.0
 11
274.007994
 21
48.000098000000001
 31
0.0
  0
CIRCLE
  5
DF
  8
SIZE
  6
CONTINUOUS
 62
    30
 10
274.007994
 20
-60.000098999999999
 30
0.0
 40
6.0
  0
LINE
  5
E0
  8
SIZE
  6
CONTINUOUS
 62
    30
 10
274.007994
 20
-60.000098999999999
 30
0.0
 11
274.007994
 21
-48.000098999999999
 31
0.0
  0
TEXT
  5
E1
  8
SIZE
  6
CONTINUOUS
 62
    30
 10
249.007994
 20
-234.1429565714285
 30
0.0
 40
64.0
  1
120
 50
90.0
 41
0.9
 72
     1
 11
249.007994
 21
-165.571528
 31
0.0
  0
POINT
  5
E2
  8
DEFPOINTS
  6
CONTINUOUS
 62
    30
 10
0.0
 20
60.000098000000001
 30
0.0
  0
POINT
  5
E3
  8
DEFPOINTS
  6
CONTINUOUS
 62
    30
 10
0.0
 20
-60.000098999999999
 30
0.0
  0
POINT
  5
E4
  8
DEFPOINTS
  6
CONTINUOUS
 62
    30
 10
274.007994
 20
-60.000098999999999
 30
0.0
  0
LINE
  5
E5
  8
SIZE
  6
CONTINUOUS
 62
    30
 10
0.0
 20
80.000097999999994
 30
0.0
 11
0.0
 21
148.013544
 31
0.0
  0
LINE
  5
E6
  8
SIZE
  6
CONTINUOUS
 62
    30
 10
-10.503170000000001
 20
77.024565999999965
 30
0.0
 11
-10.503170000000001
 21
148.013544
 31
0.0
  0
LINE
  5
E7
  8
SIZE
  6
CONTINUOUS
 62
    30
 10
12.0
 20
128.013544
 30
0.0
 11
24.0
 21
128.013544
 31
0.0
  0
LINE
  5
E8
  8
SIZE
  6
CONTINUOUS
 62
    30
 10
-22.503170000000001
 20
128.013544
 30
0.0
 11
-249.07459900000001
 21
128.013544
 31
0.0
  0
LINE
  5
E9
  8
SIZE
  6
CONTINUOUS
 62
    30
 10
0.0
 20
128.013544
 30
0.0
 11
-10.503170000000001
 21
128.013544
 31
0.0
  0
CIRCLE
  5
EA
  8
SIZE
  6
CONTINUOUS
 62
    30
 10
0.0
 20
128.013544
 30
0.0
 40
6.0
  0
LINE
  5
EB
  8
SIZE
  6
CONTINUOUS
 62
    30
 10
0.0
 20
128.013544
 30
0.0
 11
12.0
 21
128.013544
 31
0.0
  0
CIRCLE
  5
EC
  8
SIZE
  6
CONTINUOUS
 62
    30
 10
-10.503170000000001
 20
128.013544
 30
0.0
 40
6.0
  0
LINE
  5
ED
  8
SIZE
  6
CONTINUOUS
 62
    30
 10
-10.503170000000001
 20
128.013544
 30
0.0
 11
-22.503170000000001
 21
128.013544
 31
0.0
  0
TEXT
  5
EE
  8
SIZE
  6
CONTINUOUS
 62
    30
 10
-224.0745992857143
 20
153.013544
 30
0.0
 40
64.0
  1
10.5
 41
0.9
 72
     1
 11
-141.78888499999999
 21
153.013544
 31
0.0
  0
POINT
  5
EF
  8
DEFPOINTS
  6
CONTINUOUS
 62
    30
 10
0.0
 20
60.000098000000001
 30
0.0
  0
POINT
  5
F0
  8
DEFPOINTS
  6
CONTINUOUS
 62
    30
 10
-10.503170000000001
 20
57.024566
 30
0.0
  0
POINT
  5
F1
  8
DEFPOINTS
  6
CONTINUOUS
 62
    30
 10
-10.503170000000001
 20
128.013544
 30
0.0
  0
LINE
  5
F2
  8
SIZE
  6
CONTINUOUS
 62
    30
 10
0.0
 20
80.000097999999994
 30
0.0
 11
0.0
 21
268.01354400000002
 31
0.0
  0
LINE
  5
F3
  8
SIZE
  6
CONTINUOUS
 62
    30
 10
-14.300000000000001
 20
61.549999999999997
 30
0.0
 11
-14.300000000000001
 21
268.01354400000002
 31
0.0
  0
LINE
  5
F4
  8
SIZE
  6
CONTINUOUS
 62
    30
 10
12.0
 20
248.013544
 30
0.0
 11
24.0
 21
248.013544
 31
0.0
  0
LINE
  5
F5
  8
SIZE
  6
CONTINUOUS
 62
    30
 10
-26.300000000000001
 20
248.013544
 30
0.0
 11
-252.87142900000001
 21
248.013544
 31
0.0
  0
LINE
  5
F6
  8
SIZE
  6
CONTINUOUS
 62
    30
 10
0.0
 20
248.013544
 30
0.0
 11
-14.300000000000001
 21
248.013544
 31
0.0
  0
CIRCLE
  5
F7
  8
SIZE
  6
CONTINUOUS
 62
    30
 10
0.0
 20
248.013544
 30
0.0
 40
6.0
  0
LINE
  5
F8
  8
SIZE
  6
CONTINUOUS
 62
    30
 10
0.0
 20
248.013544
 30
0.0
 11
12.0
 21
248.013544
 31
0.0
  0
CIRCLE
  5
F9
  8
SIZE
  6
CONTINUOUS
 62
    30
 10
-14.300000000000001
 20
248.013544
 30
0.0
 40
6.0
  0
LINE
  5
FA
  8
SIZE
  6
CONTINUOUS
 62
    30
 10
-14.300000000000001
 20
248.013544
 30
0.0
 11
-26.300000000000001
 21
248.013544
 31
0.0
  0
TEXT
  5
FB
  8
SIZE
  6
CONTINUOUS
 62
    30
 10
-227.8714282857143
 20
273.01354400000002
 30
0.0
 40
64.0
  1
14.3
 41
0.9
 72
     1
 11
-145.585714
 21
273.01354400000002
 31
0.0
  0
POINT
  5
FC
  8
DEFPOINTS
  6
CONTINUOUS
 62
    30
 10
0.0
 20
60.000098000000001
 30
0.0
  0
POINT
  5
FD
  8
DEFPOINTS
  6
CONTINUOUS
 62
    30
 10
-14.300000000000001
 20
41.549999999999997
 30
0.0
  0
POINT
  5
FE
  8
DEFPOINTS
  6
CONTINUOUS
 62
    30
 10
-14.300000000000001
 20
248.013544
 30
0.0
  0
LINE
  5
FF
  8
DETAIL
  6
CONTINUOUS
 62
     5
 10
8.5
 20
13.15
 30
0.0
 11
23.699999999999999
 21
13.15
 31
0.0
  0
LINE
  5
100
  8
DETAIL
  6
CONTINUOUS
 62
     5
 10
8.5
 20
32.850000000000001
 30
0.0
 11
25.199999999999999
 21
32.850000000000001
 31
0.0
  0
LINE
  5
101
  8
DETAIL
  6
CONTINUOUS
 62
     5
 10
8.5
 20
-32.850000000000001
 30
0.0
 11
20.199999999999999
 21
-32.850000000000001
 31
0.0
  0
LINE
  5
102
  8
DETAIL
  6
CONTINUOUS
 62
     5
 10
8.5
 20
-13.15
 30
0.0
 11
20.199999999999999
 21
-13.15
 31
0.0
  0
LINE
  5
103
  8
DETAIL
  6
CONTINUOUS
 62
     5
 10
3.7999999999999989
 20
-9.1354279999999992
 30
0.0
 11
3.7999999999999989
 21
13.864572000000001
 31
0.0
  0
LINE
  5
104
  8
DETAIL
  6
CONTINUOUS
 62
     5
 10
-10.5
 20
46.754544999999993
 30
0.0
 11
-10.5
 21
0.0
 31
0.0
  0
LINE
  5
105
  8
DETAIL
  6
CONTINUOUS
 62
     5
 10
0.75
 20
4.864571999999999
 30
0.0
 11
0.75
 21
0.0
 31
0.0
  0
LINE
  5
106
  8
DETAIL
  6
CONTINUOUS
 62
     5
 10
0.0
 20
60.000098000000001
 30
0.0
 11
0.0
 21
0.0
 31
0.0
  0
LINE
  5
107
  8
DETAIL
  6
CONTINUOUS
 62
     5
 10
-6.0
 20
0.0
 30
0.0
 11
-6.0
 21
47.050097999999998
 31
0.0
  0
LINE
  5
108
  8
DETAIL
  6
CONTINUOUS
 62
     5
 10
-10.5
 20
57.040874000000002
 30
0.0
 11
-10.5
 21
0.0
 31
0.0
  0
LINE
  5
109
  8
DETAIL
  6
CONTINUOUS
 62
     5
 10
-12.0
 20
41.549999999999997
 30
0.0
 11
-12.0
 21
0.0
 31
0.0
  0
LINE
  5
10A
  8
DETAIL
  6
CONTINUOUS
 62
     5
 10
-14.300000000000001
 20
1.0
 30
0.0
 11
-14.300000000000001
 21
15.59285
 31
0.0
  0
LINE
  5
10B
  8
DETAIL
  6
CONTINUOUS
 62
     5
 10
7.5
 20
34.934407
 30
0.0
 11
7.5
 21
0.0
 31
0.0
  0
LINE
  5
10C
  8
DETAIL
  6
CONTINUOUS
 62
     5
 10
3.7999999999999989
 20
8.8645720000000008
 30
0.0
 11
3.7999999999999989
 21
0.0
 31
0.0
  0
LINE
  5
10D
  8
DETAIL
  6
CONTINUOUS
 62
     5
 10
-6.0
 20
0.0
 30
0.0
 11
-6.0
 21
-47.050099000000003
 31
0.0
  0
LINE
  5
10E
  8
DETAIL
  6
CONTINUOUS
 62
     5
 10
-10.5
 20
-56.366131000000003
 30
0.0
 11
-10.5
 21
0.0
 31
0.0
  0
LINE
  5
10F
  8
DETAIL
  6
CONTINUOUS
 62
     5
 10
0.0
 20
-60.000098999999999
 30
0.0
 11
0.0
 21
0.0
 31
0.0
  0
LINE
  5
110
  8
DETAIL
  6
CONTINUOUS
 62
     5
 10
-10.5
 20
-46.754545999999998
 30
0.0
 11
-10.5
 21
0.0
 31
0.0
  0
LINE
  5
111
  8
DETAIL
  6
CONTINUOUS
 62
     5
 10
-12.800000000000001
 20
-43.04999999999999
 30
0.0
 11
-14.300000000000001
 21
-41.549999999999997
 31
0.0
  0
LINE
  5
112
  8
DETAIL
  6
CONTINUOUS
 62
     5
 10
-12.0
 20
-41.549999999999997
 30
0.0
 11
-10.5
 21
-43.04999999999999
 31
0.0
  0
ARC
  5
113
  8
DETAIL
  6
CONTINUOUS
 62
     5
 10
-7.0
 20
-56.366131000000003
 30
0.0
 40
3.5
 50
180.0
 51
268.90878400000003
  0
LINE
  5
114
  8
DETAIL
  6
CONTINUOUS
 62
     5
 10
-10.5
 20
-48.050099000000003
 30
0.0
 11
-7.0
 21
-48.050099000000003
 31
0.0
  0
LINE
  5
115
  8
DETAIL
  6
CONTINUOUS
 62
     5
 10
-10.5
 20
-43.04999999999999
 30
0.0
 11
-12.800000000000001
 21
-43.04999999999999
 31
0.0
  0
LINE
  5
116
  8
DETAIL
  6
CONTINUOUS
 62
     5
 10
-7.066654999999999
 20
-59.865496
 30
0.0
 11
0.0
 21
-60.000098999999999
 31
0.0
  0
ARC
  5
117
  8
DETAIL
  6
CONTINUOUS
 62
     5
 10
-7.0
 20
-47.050099000000003
 30
0.0
 40
1.0
 50
270.0
 51
0.0
  0
LINE
  5
118
  8
DETAIL
  6
CONTINUOUS
 62
     5
 10
7.5
 20
-34.934407
 30
0.0
 11
7.5
 21
0.0
 31
0.0
  0
LINE
  5
119
  8
DETAIL
  6
CONTINUOUS
 62
     5
 10
3.7999999999999989
 20
-33.154420999999999
 30
0.0
 11
3.7999999999999989
 21
-8.1645719999999962
 31
0.0
  0
LINE
  5
11A
  8
DETAIL
  6
CONTINUOUS
 62
     5
 10
0.75
 20
-18.135428000000001
 30
0.0
 11
0.75
 21
-23.0
 31
0.0
  0
LINE
  5
11B
  8
DETAIL
  6
CONTINUOUS
 62
     5
 10
3.7999999999999989
 20
-14.135427999999999
 30
0.0
 11
3.7999999999999989
 21
-23.0
 31
0.0
  0
LINE
  5
11C
  8
DETAIL
  6
CONTINUOUS
 62
     5
 10
-14.300000000000001
 20
-13.689335
 30
0.0
 11
-14.300000000000001
 21
-41.549999999999997
 31
0.0
  0
LINE
  5
11D
  8
DETAIL
  6
CONTINUOUS
 62
     5
 10
-12.0
 20
-41.549999999999997
 30
0.0
 11
-12.0
 21
0.0
 31
0.0
  0
LINE
  5
11E
  8
DETAIL
  6
CONTINUOUS
 62
     5
 10
-12.0
 20
-41.549999999999997
 30
0.0
 11
-14.300000000000001
 21
-41.549999999999997
 31
0.0
  0
LINE
  5
11F
  8
DETAIL
  6
CONTINUOUS
 62
     5
 10
0.5
 20
-32.61457200000001
 30
0.0
 11
0.5
 21
-28.114571999999999
 31
0.0
  0
LINE
  5
120
  8
DETAIL
  6
CONTINUOUS
 62
     5
 10
7.0350609999999989
 20
-35.43317600000001
 30
0.0
 11
0.0
 21
-35.927717000000001
 31
0.0
  0
LINE
  5
121
  8
DETAIL
  6
CONTINUOUS
 62
     5
 10
3.7999999999999989
 20
-33.154420999999999
 30
0.0
 11
0.0
 21
-33.421546999999997
 31
0.0
  0
LINE
  5
122
  8
DETAIL
  6
CONTINUOUS
 62
     5
 10
0.0
 20
-32.61457200000001
 30
0.0
 11
3.7999999999999989
 21
-32.61457200000001
 31
0.0
  0
LINE
  5
123
  8
DETAIL
  6
CONTINUOUS
 62
     5
 10
7.5
 20
-34.350000000000001
 30
0.0
 11
10.0
 21
-34.350000000000001
 31
0.0
  0
ARC
  5
124
  8
DETAIL
  6
CONTINUOUS
 62
     5
 10
7.0
 20
-34.934407
 30
0.0
 40
0.5
 50
274.02107699999999
 51
0.0
  0
LINE
  5
125
  8
DETAIL
  6
CONTINUOUS
 62
     5
 10
8.5
 20
-34.350000000000001
 30
0.0
 11
8.5
 21
-32.850000000000001
 31
0.0
  0
ARC
  5
126
  8
DETAIL
  6
CONTINUOUS
 62
     5
 10
10.0
 20
-33.850000000000001
 30
0.0
 40
0.5
 50
270.0
 51
0.0
  0
ARC
  5
127
  8
DETAIL
  6
CONTINUOUS
 62
     5
 10
9.0
 20
-33.850000000000001
 30
0.0
 40
0.5
 50
270.0
 51
0.0
  0
LINE
  5
128
  8
DETAIL
  6
CONTINUOUS
 62
     5
 10
10.5
 20
-33.850000000000001
 30
0.0
 11
10.5
 21
-33.350000000000001
 31
0.0
  0
ARC
  5
129
  8
DETAIL
  6
CONTINUOUS
 62
     5
 10
10.0
 20
-33.350000000000001
 30
0.0
 40
0.5
 50
0.0
 51
90.0
  0
LINE
  5
12A
  8
DETAIL
  6
CONTINUOUS
 62
     5
 10
9.5
 20
-33.850000000000001
 30
0.0
 11
9.5
 21
-33.350000000000001
 31
0.0
  0
ARC
  5
12B
  8
DETAIL
  6
CONTINUOUS
 62
     5
 10
9.0
 20
-33.350000000000001
 30
0.0
 40
0.5
 50
0.0
 51
90.0
  0
LINE
  5
12C
  8
DETAIL
  6
CONTINUOUS
 62
     5
 10
0.5
 20
-31.114571999999999
 30
0.0
 11
3.7999999999999989
 21
-31.114571999999999
 31
0.0
  0
LINE
  5
12D
  8
DETAIL
  6
CONTINUOUS
 62
     5
 10
0.75
 20
-27.864571999999999
 30
0.0
 11
0.75
 21
-23.0
 31
0.0
  0
LINE
  5
12E
  8
DETAIL
  6
CONTINUOUS
 62
     5
 10
0.0
 20
-28.114571999999999
 30
0.0
 11
0.5
 21
-28.114571999999999
 31
0.0
  0
ARC
  5
12F
  8
DETAIL
  6
CONTINUOUS
 62
     5
 10
0.5
 20
-27.864571999999999
 30
0.0
 40
0.25
 50
270.0
 51
0.0
  0
LINE
  5
130
  8
DETAIL
  6
CONTINUOUS
 62
     5
 10
-14.300000000000001
 20
-1.0
 30
0.0
 11
-14.300000000000001
 21
-13.85
 31
0.0
  0
ARC
  5
131
  8
DETAIL
  6
CONTINUOUS
 62
     5
 10
-13.300000000000001
 20
-1.0
 30
0.0
 40
1.0
 50
90.0
 51
180.0
  0
ARC
  5
132
  8
DETAIL
  6
CONTINUOUS
 62
     5
 10
-13.300000000000001
 20
1.0
 30
0.0
 40
1.0
 50
180.0
 51
270.0
  0
LINE
  5
133
  8
DETAIL
  6
CONTINUOUS
 62
     5
 10
-13.300000000000001
 20
0.0
 30
0.0
 11
-12.0
 21
0.0
 31
0.0
  0
LINE
  5
134
  8
DETAIL
  6
CONTINUOUS
 62
     5
 10
0.5
 20
-9.6145720000000008
 30
0.0
 11
0.5
 21
-5.114571999999999
 31
0.0
  0
LINE
  5
135
  8
DETAIL
  6
CONTINUOUS
 62
     5
 10
3.7999999999999989
 20
-8.8645720000000008
 30
0.0
 11
3.7999999999999989
 21
0.0
 31
0.0
  0
LINE
  5
136
  8
DETAIL
  6
CONTINUOUS
 62
     5
 10
0.0
 20
-9.6145720000000008
 30
0.0
 11
3.7999999999999989
 21
-9.6145720000000008
 31
0.0
  0
LINE
  5
137
  8
DETAIL
  6
CONTINUOUS
 62
     5
 10
0.5
 20
-14.885427999999999
 30
0.0
 11
3.7999999999999989
 21
-14.885427999999999
 31
0.0
  0
LINE
  5
138
  8
DETAIL
  6
CONTINUOUS
 62
     5
 10
0.0
 20
-13.385427999999999
 30
0.0
 11
3.7999999999999989
 21
-13.385427999999999
 31
0.0
  0
LINE
  5
139
  8
DETAIL
  6
CONTINUOUS
 62
     5
 10
0.5
 20
-13.385427999999999
 30
0.0
 11
0.5
 21
-17.885428000000001
 31
0.0
  0
LINE
  5
13A
  8
DETAIL
  6
CONTINUOUS
 62
     5
 10
0.0
 20
-17.885428000000001
 30
0.0
 11
0.5
 21
-17.885428000000001
 31
0.0
  0
ARC
  5
13B
  8
DETAIL
  6
CONTINUOUS
 62
     5
 10
0.5
 20
-18.135428000000001
 30
0.0
 40
0.25
 50
0.0
 51
90.0
  0
LINE
  5
13C
  8
DETAIL
  6
CONTINUOUS
 62
     5
 10
10.0
 20
-11.65
 30
0.0
 11
7.5
 21
-11.65
 31
0.0
  0
ARC
  5
13D
  8
DETAIL
  6
CONTINUOUS
 62
     5
 10
10.0
 20
-12.15
 30
0.0
 40
0.5
 50
0.0
 51
90.0
  0
ARC
  5
13E
  8
DETAIL
  6
CONTINUOUS
 62
     5
 10
9.0
 20
-12.15
 30
0.0
 40
0.5
 50
0.0
 51
90.0
  0
LINE
  5
13F
  8
DETAIL
  6
CONTINUOUS
 62
     5
 10
10.5
 20
-12.65
 30
0.0
 11
10.5
 21
-12.15
 31
0.0
  0
ARC
  5
140
  8
DETAIL
  6
CONTINUOUS
 62
     5
 10
10.0
 20
-12.65
 30
0.0
 40
0.5
 50
270.0
 51
0.0
  0
LINE
  5
141
  8
DETAIL
  6
CONTINUOUS
 62
     5
 10
8.5
 20
-13.15
 30
0.0
 11
8.5
 21
-11.65
 31
0.0
  0
LINE
  5
142
  8
DETAIL
  6
CONTINUOUS
 62
     5
 10
9.5
 20
-12.65
 30
0.0
 11
9.5
 21
-12.15
 31
0.0
  0
ARC
  5
143
  8
DETAIL
  6
CONTINUOUS
 62
     5
 10
9.0
 20
-12.65
 30
0.0
 40
0.5
 50
270.0
 51
0.0
  0
LINE
  5
144
  8
DETAIL
  6
CONTINUOUS
 62
     5
 10
0.5
 20
-8.1145720000000008
 30
0.0
 11
3.7999999999999989
 21
-8.1145720000000008
 31
0.0
  0
LINE
  5
145
  8
DETAIL
  6
CONTINUOUS
 62
     5
 10
0.75
 20
-4.864571999999999
 30
0.0
 11
0.75
 21
0.0
 31
0.0
  0
LINE
  5
146
  8
DETAIL
  6
CONTINUOUS
 62
     5
 10
0.0
 20
-5.114571999999999
 30
0.0
 11
0.5
 21
-5.114571999999999
 31
0.0
  0
ARC
  5
147
  8
DETAIL
  6
CONTINUOUS
 62
     5
 10
0.5
 20
-4.864571999999999
 30
0.0
 40
0.25
 50
270.0
 51
0.0
  0
ARC
  5
148
  8
DETAIL
  6
CONTINUOUS
 62
     5
 10
-7.0
 20
47.050097999999998
 30
0.0
 40
1.0
 50
0.0
 51
90.0
  0
LINE
  5
149
  8
DETAIL
  6
CONTINUOUS
 62
     5
 10
3.7999999999999989
 20
33.154420000000002
 30
0.0
 11
3.7999999999999989
 21
8.1645719999999962
 31
0.0
  0
LINE
  5
14A
  8
DETAIL
  6
CONTINUOUS
 62
     5
 10
0.75
 20
27.864571999999999
 30
0.0
 11
0.75
 21
23.0
 31
0.0
  0
LINE
  5
14B
  8
DETAIL
  6
CONTINUOUS
 62
     5
 10
3.7999999999999989
 20
31.864571999999999
 30
0.0
 11
3.7999999999999989
 21
23.0
 31
0.0
  0
LINE
  5
14C
  8
DETAIL
  6
CONTINUOUS
 62
     5
 10
-14.300000000000001
 20
14.85
 30
0.0
 11
-14.300000000000001
 21
41.549999999999997
 31
0.0
  0
LINE
  5
14D
  8
DETAIL
  6
CONTINUOUS
 62
     5
 10
0.5
 20
13.385427999999999
 30
0.0
 11
0.5
 21
17.885428000000001
 31
0.0
  0
LINE
  5
14E
  8
DETAIL
  6
CONTINUOUS
 62
     5
 10
0.0
 20
13.385427999999999
 30
0.0
 11
3.7999999999999989
 21
13.385427999999999
 31
0.0
  0
LINE
  5
14F
  8
DETAIL
  6
CONTINUOUS
 62
     5
 10
0.5
 20
8.1145720000000008
 30
0.0
 11
3.7999999999999989
 21
8.1145720000000008
 31
0.0
  0
LINE
  5
150
  8
DETAIL
  6
CONTINUOUS
 62
     5
 10
0.0
 20
9.6145720000000008
 30
0.0
 11
3.7999999999999989
 21
9.6145720000000008
 31
0.0
  0
LINE
  5
151
  8
DETAIL
  6
CONTINUOUS
 62
     5
 10
0.5
 20
9.6145720000000008
 30
0.0
 11
0.5
 21
5.114571999999999
 31
0.0
  0
ARC
  5
152
  8
DETAIL
  6
CONTINUOUS
 62
     5
 10
0.5
 20
4.864571999999999
 30
0.0
 40
0.25
 50
0.0
 51
90.0
  0
LINE
  5
153
  8
DETAIL
  6
CONTINUOUS
 62
     5
 10
0.0
 20
5.114571999999999
 30
0.0
 11
0.5
 21
5.114571999999999
 31
0.0
  0
LINE
  5
154
  8
DETAIL
  6
CONTINUOUS
 62
     5
 10
10.0
 20
11.65
 30
0.0
 11
7.5
 21
11.65
 31
0.0
  0
LINE
  5
155
  8
DETAIL
  6
CONTINUOUS
 62
     5
 10
8.5
 20
13.15
 30
0.0
 11
8.5
 21
11.65
 31
0.0
  0
LINE
  5
156
  8
DETAIL
  6
CONTINUOUS
 62
     5
 10
9.5
 20
12.65
 30
0.0
 11
9.5
 21
12.15
 31
0.0
  0
ARC
  5
157
  8
DETAIL
  6
CONTINUOUS
 62
     5
 10
9.0
 20
12.15
 30
0.0
 40
0.5
 50
270.0
 51
0.0
  0
ARC
  5
158
  8
DETAIL
  6
CONTINUOUS
 62
     5
 10
9.0
 20
12.65
 30
0.0
 40
0.5
 50
0.0
 51
90.0
  0
LINE
  5
159
  8
DETAIL
  6
CONTINUOUS
 62
     5
 10
10.5
 20
12.65
 30
0.0
 11
10.5
 21
12.15
 31
0.0
  0
ARC
  5
15A
  8
DETAIL
  6
CONTINUOUS
 62
     5
 10
10.0
 20
12.15
 30
0.0
 40
0.5
 50
270.0
 51
0.0
  0
ARC
  5
15B
  8
DETAIL
  6
CONTINUOUS
 62
     5
 10
10.0
 20
12.65
 30
0.0
 40
0.5
 50
0.0
 51
90.0
  0
LINE
  5
15C
  8
DETAIL
  6
CONTINUOUS
 62
     5
 10
0.5
 20
14.885427999999999
 30
0.0
 11
3.7999999999999989
 21
14.885427999999999
 31
0.0
  0
LINE
  5
15D
  8
DETAIL
  6
CONTINUOUS
 62
     5
 10
0.75
 20
18.135428000000001
 30
0.0
 11
0.75
 21
23.0
 31
0.0
  0
LINE
  5
15E
  8
DETAIL
  6
CONTINUOUS
 62
     5
 10
0.0
 20
17.885428000000001
 30
0.0
 11
0.5
 21
17.885428000000001
 31
0.0
  0
ARC
  5
15F
  8
DETAIL
  6
CONTINUOUS
 62
     5
 10
0.5
 20
18.135428000000001
 30
0.0
 40
0.25
 50
270.0
 51
0.0
  0
LINE
  5
160
  8
DETAIL
  6
CONTINUOUS
 62
     5
 10
-12.0
 20
41.549999999999997
 30
0.0
 11
-10.5
 21
43.04999999999999
 31
0.0
  0
LINE
  5
161
  8
DETAIL
  6
CONTINUOUS
 62
     5
 10
-12.800000000000001
 20
43.04999999999999
 30
0.0
 11
-14.300000000000001
 21
41.549999999999997
 31
0.0
  0
LINE
  5
162
  8
DETAIL
  6
CONTINUOUS
 62
     5
 10
-12.0
 20
41.549999999999997
 30
0.0
 11
-14.300000000000001
 21
41.549999999999997
 31
0.0
  0
LINE
  5
163
  8
DETAIL
  6
CONTINUOUS
 62
     5
 10
-10.5
 20
43.04999999999999
 30
0.0
 11
-12.800000000000001
 21
43.04999999999999
 31
0.0
  0
LINE
  5
164
  8
DETAIL
  6
CONTINUOUS
 62
     5
 10
7.0350609999999989
 20
35.43317600000001
 30
0.0
 11
0.0
 21
35.927715999999997
 31
0.0
  0
LINE
  5
165
  8
DETAIL
  6
CONTINUOUS
 62
     5
 10
3.7999999999999989
 20
33.154420000000002
 30
0.0
 11
0.0
 21
33.421545999999999
 31
0.0
  0
LINE
  5
166
  8
DETAIL
  6
CONTINUOUS
 62
     5
 10
0.5
 20
31.114571999999999
 30
0.0
 11
3.7999999999999989
 21
31.114571999999999
 31
0.0
  0
LINE
  5
167
  8
DETAIL
  6
CONTINUOUS
 62
     5
 10
0.0
 20
32.61457200000001
 30
0.0
 11
3.7999999999999989
 21
32.61457200000001
 31
0.0
  0
LINE
  5
168
  8
DETAIL
  6
CONTINUOUS
 62
     5
 10
0.5
 20
32.61457200000001
 30
0.0
 11
0.5
 21
28.114571999999999
 31
0.0
  0
ARC
  5
169
  8
DETAIL
  6
CONTINUOUS
 62
     5
 10
0.5
 20
27.864571999999999
 30
0.0
 40
0.25
 50
0.0
 51
90.0
  0
LINE
  5
16A
  8
DETAIL
  6
CONTINUOUS
 62
     5
 10
0.0
 20
28.114571999999999
 30
0.0
 11
0.5
 21
28.114571999999999
 31
0.0
  0
LINE
  5
16B
  8
DETAIL
  6
CONTINUOUS
 62
     5
 10
7.5
 20
34.350000000000001
 30
0.0
 11
10.0
 21
34.350000000000001
 31
0.0
  0
ARC
  5
16C
  8
DETAIL
  6
CONTINUOUS
 62
     5
 10
7.0
 20
34.934407
 30
0.0
 40
0.5
 50
0.0
 51
85.97892299999998
  0
LINE
  5
16D
  8
DETAIL
  6
CONTINUOUS
 62
     5
 10
8.5
 20
34.350000000000001
 30
0.0
 11
8.5
 21
32.850000000000001
 31
0.0
  0
LINE
  5
16E
  8
DETAIL
  6
CONTINUOUS
 62
     5
 10
9.5
 20
33.850000000000001
 30
0.0
 11
9.5
 21
33.350000000000001
 31
0.0
  0
LINE
  5
16F
  8
DETAIL
  6
CONTINUOUS
 62
     5
 10
10.5
 20
33.850000000000001
 30
0.0
 11
10.5
 21
33.350000000000001
 31
0.0
  0
ARC
  5
170
  8
DETAIL
  6
CONTINUOUS
 62
     5
 10
9.0
 20
33.350000000000001
 30
0.0
 40
0.5
 50
270.0
 51
0.0
  0
ARC
  5
171
  8
DETAIL
  6
CONTINUOUS
 62
     5
 10
10.0
 20
33.350000000000001
 30
0.0
 40
0.5
 50
270.0
 51
0.0
  0
ARC
  5
172
  8
DETAIL
  6
CONTINUOUS
 62
     5
 10
9.0
 20
33.850000000000001
 30
0.0
 40
0.5
 50
0.0
 51
90.0
  0
ARC
  5
173
  8
DETAIL
  6
CONTINUOUS
 62
     5
 10
10.0
 20
33.850000000000001
 30
0.0
 40
0.5
 50
0.0
 51
90.0
  0
LINE
  5
174
  8
DETAIL
  6
CONTINUOUS
 62
     5
 10
-10.5
 20
48.050097999999998
 30
0.0
 11
-7.0
 21
48.050097999999998
 31
0.0
  0
ARC
  5
175
  8
DETAIL
  6
CONTINUOUS
 62
     5
 10
-7.0659029999999987
 20
56.364874999999998
 30
0.0
 40
3.5
 50
91.091215999999989
 51
178.922191
  0
LINE
  5
176
  8
DETAIL
  6
CONTINUOUS
 62
     5
 10
-7.1325580000000004
 20
59.864240000000002
 30
0.0
 11
0.0
 21
60.000098000000001
 31
0.0
  0
LINE
  5
177
  8
DETAIL
  6
CONTINUOUS
 62
     5
 10
25.199999999999999
 20
16.149999999999999
 30
0.0
 11
25.199999999999999
 21
-15.5
 31
0.0
  0
LINE
  5
178
  8
DETAIL
  6
CONTINUOUS
 62
     5
 10
23.699999999999999
 20
16.149999999999999
 30
0.0
 11
23.699999999999999
 21
-15.5
 31
0.0
  0
LINE
  5
179
  8
DETAIL
  6
CONTINUOUS
 62
     5
 10
21.199999999999999
 20
-31.850000000000001
 30
0.0
 11
21.199999999999999
 21
-14.15
 31
0.0
  0
ARC
  5
17A
  8
DETAIL
  6
CONTINUOUS
 62
     5
 10
20.199999999999999
 20
-31.850000000000001
 30
0.0
 40
1.0
 50
270.0
 51
0.0
  0
ARC
  5
17B
  8
DETAIL
  6
CONTINUOUS
 62
     5
 10
22.199999999999999
 20
-15.5
 30
0.0
 40
3.0
 50
270.0
 51
0.0
  0
ARC
  5
17C
  8
DETAIL
  6
CONTINUOUS
 62
     5
 10
22.199999999999999
 20
-15.5
 30
0.0
 40
1.5
 50
270.0
 51
0.0
  0
LINE
  5
17D
  8
DETAIL
  6
CONTINUOUS
 62
     5
 10
22.199999999999999
 20
-18.5
 30
0.0
 11
21.199999999999999
 21
-18.5
 31
0.0
  0
LINE
  5
17E
  8
DETAIL
  6
CONTINUOUS
 62
     5
 10
22.199999999999999
 20
-17.0
 30
0.0
 11
21.199999999999999
 21
-17.0
 31
0.0
  0
ARC
  5
17F
  8
DETAIL
  6
CONTINUOUS
 62
     5
 10
20.199999999999999
 20
-14.15
 30
0.0
 40
1.0
 50
0.0
 51
90.0
  0
LINE
  5
180
  8
DETAIL
  6
CONTINUOUS
 62
     5
 10
21.199999999999999
 20
31.850000000000001
 30
0.0
 11
21.199999999999999
 21
14.15
 31
0.0
  0
LINE
  5
181
  8
DETAIL
  6
CONTINUOUS
 62
     5
 10
26.199999999999999
 20
31.850000000000001
 30
0.0
 11
26.199999999999999
 21
14.15
 31
0.0
  0
ARC
  5
182
  8
DETAIL
  6
CONTINUOUS
 62
     5
 10
20.199999999999999
 20
14.15
 30
0.0
 40
1.0
 50
270.0
 51
0.0
  0
ARC
  5
183
  8
DETAIL
  6
CONTINUOUS
 62
     5
 10
25.199999999999999
 20
14.15
 30
0.0
 40
1.0
 50
270.0
 51
0.0
  0
ARC
  5
184
  8
DETAIL
  6
CONTINUOUS
 62
     5
 10
22.199999999999999
 20
16.149999999999999
 30
0.0
 40
3.0
 50
0.0
 51
90.0
  0
ARC
  5
185
  8
DETAIL
  6
CONTINUOUS
 62
     5
 10
22.199999999999999
 20
16.149999999999999
 30
0.0
 40
1.5
 50
0.0
 51
90.0
  0
LINE
  5
186
  8
DETAIL
  6
CONTINUOUS
 62
     5
 10
22.199999999999999
 20
17.649999999999999
 30
0.0
 11
21.199999999999999
 21
17.649999999999999
 31
0.0
  0
LINE
  5
187
  8
DETAIL
  6
CONTINUOUS
 62
     5
 10
22.199999999999999
 20
19.149999999999999
 30
0.0
 11
21.199999999999999
 21
19.149999999999999
 31
0.0
  0
ARC
  5
188
  8
DETAIL
  6
CONTINUOUS
 62
     5
 10
20.199999999999999
 20
31.850000000000001
 30
0.0
 40
1.0
 50
0.0
 51
90.0
  0
ARC
  5
189
  8
DETAIL
  6
CONTINUOUS
 62
     5
 10
25.199999999999999
 20
31.850000000000001
 30
0.0
 40
1.0
 50
0.0
 51
90.0
  0
TEXT
  5
192
  8
ETC
  6
CONTINUOUS
 62
    61
 10
369.88930960234461
 20
58.836807240151778
 30
0.0
 40
40.0
  1
P-04SWR2
 41
0.9
  0
TEXT
  5
198
  8
ETC
  6
CONTINUOUS
 62
    61
 10
369.88930960234461
 20
-4.3347063510993564
 30
0.0
 40
40.0
  1
P-04SW
 41
0.9
  0
ENDSEC
  0
EOF
