  0
SECTION
  2
HEADER
  9
$ACADVER
  1
AC1009
  9
$INSBASE
 10
0.0
 20
0.0
 30
0.0
  9
$EXTMIN
 10
-79.192586000000006
 20
-259.14285699999999
 30
0.0
  9
$EXTMAX
 10
825.33457542857104
 20
467.12441200000012
 30
50.0
  9
$LIMMIN
 10
-2970.0
 20
-2100.0
  9
$LIMMAX
 10
2970.0
 20
2100.0
  9
$ORTHOMODE
 70
     1
  9
$REGENMODE
 70
     1
  9
$FILLMODE
 70
     1
  9
$QTEXTMODE
 70
     0
  9
$MIRRTEXT
 70
     0
  9
$DRAGMODE
 70
     2
  9
$LTSCALE
 40
20.0
  9
$OSMODE
 70
    55
  9
$ATTMODE
 70
     1
  9
$TEXTSIZE
 40
64.0
  9
$TRACEWID
 40
0.05
  9
$TEXTSTYLE
  7
STANDARD
  9
$CLAYER
  8
SIZE
  9
$CELTYPE
  6
CONTINUOUS
  9
$CECOLOR
 62
     7
  9
$DIMSCALE
 40
1.0
  9
$DIMASZ
 40
12.0
  9
$DIMEXO
 40
20.0
  9
$DIMDLI
 40
200.0
  9
$DIMRND
 40
0.0
  9
$DIMDLE
 40
0.0
  9
$DIMEXE
 40
20.0
  9
$DIMTP
 40
0.0
  9
$DIMTM
 40
0.0
  9
$DIMTXT
 40
64.0
  9
$DIMCEN
 40
0.09
  9
$DIMTSZ
 40
0.0
  9
$DIMTOL
 70
     0
  9
$DIMLIM
 70
     0
  9
$DIMTIH
 70
     0
  9
$DIMTOH
 70
     0
  9
$DIMSE1
 70
     0
  9
$DIMSE2
 70
     0
  9
$DIMTAD
 70
     1
  9
$DIMZIN
 70
     8
  9
$DIMBLK
  1
DOT1
  9
$DIMASO
 70
     1
  9
$DIMSHO
 70
     0
  9
$DIMPOST
  1

  9
$DIMAPOST
  1

  9
$DIMALT
 70
     0
  9
$DIMALTD
 70
     2
  9
$DIMALTF
 40
25.399999999999999
  9
$DIMLFAC
 40
1.0
  9
$DIMTOFL
 70
     1
  9
$DIMTVP
 40
0.0
  9
$DIMTIX
 70
     1
  9
$DIMSOXD
 70
     0
  9
$DIMSAH
 70
     1
  9
$DIMBLK1
  1
ORIGIN
  9
$DIMBLK2
  1
ORIGIN
  9
$DIMSTYLE
  2
STANDARD
  9
$DIMCLRD
 70
     7
  9
$DIMCLRE
 70
     7
  9
$DIMCLRT
 70
     7
  9
$DIMTFAC
 40
1.0
  9
$DIMGAP
 40
25.0
  9
$LUNITS
 70
     2
  9
$LUPREC
 70
     4
  9
$SKETCHINC
 40
0.1
  9
$FILLETRAD
 40
3.0
  9
$AUNITS
 70
     1
  9
$AUPREC
 70
     3
  9
$MENU
  1
ACAD
  9
$ELEVATION
 40
0.0
  9
$PELEVATION
 40
0.0
  9
$THICKNESS
 40
50.0
  9
$LIMCHECK
 70
     0
  9
$BLIPMODE
 70
     0
  9
$CHAMFERA
 40
0.0
  9
$CHAMFERB
 40
0.0
  9
$SKPOLY
 70
     0
  9
$TDCREATE
 40
2453019.6230103709
  9
$TDUPDATE
 40
2456387.6956208451
  9
$TDINDWG
 40
1.6322119559999999
  9
$TDUSRTIMER
 40
1.6322117707999999
  9
$USRTIMER
 70
     1
  9
$ANGBASE
 50
0.0
  9
$ANGDIR
 70
     0
  9
$PDMODE
 70
     3
  9
$PDSIZE
 40
-2.0
  9
$PLINEWID
 40
0.0
  9
$COORDS
 70
     1
  9
$SPLFRAME
 70
     0
  9
$SPLINETYPE
 70
     6
  9
$SPLINESEGS
 70
     8
  9
$ATTDIA
 70
     0
  9
$ATTREQ
 70
     1
  9
$HANDLING
 70
     1
  9
$HANDSEED
  5
1C6
  9
$SURFTAB1
 70
     6
  9
$SURFTAB2
 70
     6
  9
$SURFTYPE
 70
     6
  9
$SURFU
 70
     6
  9
$SURFV
 70
     6
  9
$UCSNAME
  2

  9
$UCSORG
 10
0.0
 20
0.0
 30
0.0
  9
$UCSXDIR
 10
1.0
 20
0.0
 30
0.0
  9
$UCSYDIR
 10
0.0
 20
1.0
 30
0.0
  9
$PUCSNAME
  2

  9
$PUCSORG
 10
0.0
 20
0.0
 30
0.0
  9
$PUCSXDIR
 10
1.0
 20
0.0
 30
0.0
  9
$PUCSYDIR
 10
0.0
 20
1.0
 30
0.0
  9
$USERI1
 70
     0
  9
$USERI2
 70
     0
  9
$USERI3
 70
     0
  9
$USERI4
 70
     0
  9
$USERI5
 70
     0
  9
$USERR1
 40
20.0
  9
$USERR2
 40
0.0
  9
$USERR3
 40
0.0
  9
$USERR4
 40
0.0
  9
$USERR5
 40
0.0
  9
$WORLDVIEW
 70
     1
  9
$SHADEDGE
 70
     3
  9
$SHADEDIF
 70
    70
  9
$TILEMODE
 70
     1
  9
$MAXACTVP
 70
    48
  9
$PLIMCHECK
 70
     0
  9
$PEXTMIN
 10
-1.0000000000000000E+020
 20
-1.0000000000000000E+020
 30
-1.0000000000000000E+020
  9
$PEXTMAX
 10
1.0000000000000000E+020
 20
1.0000000000000000E+020
 30
1.0000000000000000E+020
  9
$PLIMMIN
 10
0.0
 20
0.0
  9
$PLIMMAX
 10
12.0
 20
9.0
  9
$UNITMODE
 70
     0
  9
$VISRETAIN
 70
     0
  9
$PLINEGEN
 70
     0
  9
$PSLTSCALE
 70
     0
  0
ENDSEC
  0
SECTION
  2
TABLES
  0
TABLE
  2
VPORT
 70
     1
  0
VPORT
  2
*ACTIVE
 70
     0
 10
0.0
 20
0.0
 11
1.0
 21
1.0
 12
321.88597384101399
 22
-27.50113335067795
 13
0.0
 23
0.0
 14
1.0
 24
1.0
 15
0.0
 25
0.0
 16
0.0
 26
0.0
 36
1.0
 17
0.0
 27
0.0
 37
0.0
 40
1238.492938719894
 41
1.6865079365079361
 42
50.0
 43
0.0
 44
0.0
 50
0.0
 51
0.0
 71
     0
 72
  1000
 73
     1
 74
     0
 75
     0
 76
     0
 77
     0
 78
     0
  0
ENDTAB
  0
TABLE
  2
LTYPE
 70
     3
  0
LTYPE
  2
CONTINUOUS
 70
     0
  3
実線
 72
    65
 73
     0
 40
0.0
  0
LTYPE
  2
DASHDOT
 70
     0
  3
____ _ ____ _ ____ _ ____ _ ____ _ ____ _ ____
 72
    65
 73
     4
 40
5.5
 49
4.0
 49
-0.6
 49
0.3
 49
-0.6
  0
ENDTAB
  0
TABLE
  2
LAYER
 70
    12
  0
LAYER
  2
0
 70
     0
 62
     7
  6
CONTINUOUS
  0
LAYER
  2
SIZE
 70
     0
 62
    30
  6
CONTINUOUS
  0
LAYER
  2
BASIS
 70
     0
 62
     6
  6
DASHDOT
  0
LAYER
  2
OUTLINE
 70
     0
 62
     3
  6
CONTINUOUS
  0
LAYER
  2
DETAIL
 70
     0
 62
     5
  6
CONTINUOUS
  0
LAYER
  2
ARRANGE
 70
     0
 62
     1
  6
CONTINUOUS
  0
LAYER
  2
DEFPOINTS
 70
     0
 62
     7
  6
CONTINUOUS
  0
LAYER
  2
ETC
 70
     0
 62
    61
  6
CONTINUOUS
  0
LAYER
  2
FIX
 70
     0
 62
    11
  6
CONTINUOUS
  0
LAYER
  2
NOTE
 70
     0
 62
     4
  6
CONTINUOUS
  0
LAYER
  2
SERVICESPACE
 70
     0
 62
     2
  6
DASHDOT
  0
LAYER
  2
SYMBOLLINE
 70
     0
 62
    15
  6
CONTINUOUS
  0
ENDTAB
  0
TABLE
  2
STYLE
 70
     3
  0
STYLE
  2
STANDARD
 70
     0
 40
64.0
 41
0.9
 50
0.0
 71
     0
 42
64.0
  3
SIMPLEX.shx
  4
BIGFONT.shx
  0
STYLE
  2
ANNOTATIVE
 70
     0
 40
0.0
 41
1.0
 50
0.0
 71
     0
 42
0.2
  3
txt
  4

  0
STYLE
  2
ZU_SHPTB00001
 70
     0
 40
0.0
 41
0.8
 50
0.0
 71
     0
 42
0.0
  3
monotxt
  4
bigfont
  0
ENDTAB
  0
TABLE
  2
VIEW
 70
     1
  0
VIEW
  2
ALL
 70
     0
 40
4282.6198079999986
 10
0.0
 20
41.309903999999989
 41
5940.0
 11
0.0
 21
0.0
 31
1.0
 12
0.0
 22
0.0
 32
0.0
 42
50.0
 43
0.0
 44
0.0
 50
0.0
 71
     0
  0
ENDTAB
  0
TABLE
  2
UCS
 70
     0
  0
ENDTAB
  0
TABLE
  2
APPID
 70
    18
  0
APPID
  2
ACAD
 70
     0
  0
APPID
  2
ACADANNOTATIVE
 70
     0
  0
APPID
  2
AUTOCAD_POSTSCRIPT_FIGURE
 70
     0
  0
APPID
  2
ACAD_EXEMPT_FROM_CAD_STANDARDS
 70
     0
  0
APPID
  2
ACAD_PSEXT
 70
     0
  0
APPID
  2
ACAUTHENVIRON
 70
     0
  0
APPID
  2
GENIUS_GENOENT_13
 70
     0
  0
APPID
  2
GENIUS_GENCFG_13
 70
     0
  0
APPID
  2
GENIUS_GENCFG0_13
 70
     0
  0
APPID
  2
GENIUS_GENCFG1_13
 70
     0
  0
APPID
  2
GENIUS_GENCFG2_13
 70
     0
  0
APPID
  2
GENIUS_GENCFG3_13
 70
     0
  0
APPID
  2
GENIUS_GENCFG4_13
 70
     0
  0
APPID
  2
GENIUS_GEVCFG0_13
 70
     0
  0
APPID
  2
CONTENTBLOCKICON
 70
     0
  0
APPID
  2
CONTENTBLOCKDESCRIPTION
 70
     0
  0
APPID
  2
ACAD_NAV_VCDISPLAY
 70
     0
  0
APPID
  2
ACAD_MLEADERVER
 70
     0
  0
ENDTAB
  0
TABLE
  2
DIMSTYLE
 70
     2
  0
DIMSTYLE
  2
STANDARD
 70
     0
  3

  4

  5

  6

  7

 40
1.0
 41
0.18
 42
0.0625
 43
0.38
 44
0.18
 45
0.0
 46
0.0
 47
0.0
 48
0.0
140
0.18
141
0.09
142
0.0
143
25.399999999999999
144
1.0
145
0.0
146
1.0
147
0.09
 71
     0
 72
     0
 73
     1
 74
     1
 75
     0
 76
     0
 77
     0
 78
     0
170
     0
171
     2
172
     0
173
     0
174
     0
175
     0
176
     7
177
     7
178
     7
  0
DIMSTYLE
  2
ANNOTATIVE
 70
     0
  3

  4

  5

  6

  7

 40
1.0
 41
0.18
 42
0.0625
 43
0.38
 44
0.18
 45
0.0
 46
0.0
 47
0.0
 48
0.0
140
0.18
141
0.09
142
0.0
143
25.399999999999999
144
1.0
145
0.0
146
1.0
147
0.09
 71
     0
 72
     0
 73
     1
 74
     1
 75
     0
 76
     0
 77
     0
 78
     0
170
     0
171
     2
172
     0
173
     0
174
     0
175
     0
176
     0
177
     0
178
     0
  0
ENDTAB
  0
ENDSEC
  0
SECTION
  2
BLOCKS
  0
BLOCK
  8
0
  2
$MODEL_SPACE
 70
     0
 10
0.0
 20
0.0
 30
0.0
  3
$MODEL_SPACE
  1

  0
ENDBLK
  5
6D
  8
0
  0
BLOCK
 67
     1
  8
0
  2
$PAPER_SPACE
 70
     0
 10
0.0
 20
0.0
 30
0.0
  3
$PAPER_SPACE
  1

  0
ENDBLK
  5
69
 67
     1
  8
0
  0
BLOCK
  8
0
  2
DOT1
 70
     0
 10
0.0
 20
0.0
 30
0.0
  3
DOT1
  1

  0
CIRCLE
  5
92
  8
SIZE
  6
CONTINUOUS
 62
     7
 10
0.0
 20
0.0
 30
0.0
 40
3.0
  0
ENDBLK
  5
93
  8
0
  0
BLOCK
  8
0
  2
_ORIGIN
 70
     0
 10
0.0
 20
0.0
 30
0.0
  3
_ORIGIN
  1

  0
CIRCLE
  5
96
  8
0
  6
CONTINUOUS
 62
     7
 10
0.0
 20
0.0
 30
0.0
 40
0.5
  0
LINE
  5
97
  8
0
  6
CONTINUOUS
 62
     7
 10
0.0
 20
0.0
 30
0.0
 11
-1.0
 21
0.0
 31
0.0
  0
ENDBLK
  5
98
  8
0
  0
ENDSEC
  0
SECTION
  2
ENTITIES
  0
TEXT
  5
99
  8
ETC
  6
CONTINUOUS
 62
    61
 10
260.30600399999997
 20
403.12441200000001
 30
0.0
 40
64.0
  1
P-04SWL2_2
 41
0.9
  0
TEXT
  5
9A
  8
ETC
  6
CONTINUOUS
 62
    61
 10
256.12000999999998
 20
285.16910200000001
 30
0.0
 40
64.0
  1
システム部材
 41
0.9
  0
TEXT
  5
9B
  8
ETC
  6
CONTINUOUS
 62
    61
 10
306.72751199999999
 20
178.248167
 30
0.0
 40
40.0
  1
P-04SWL2
 41
0.9
  0
CIRCLE
  5
9C
  8
ARRANGE
  6
CONTINUOUS
 62
     1
 10
0.0
 20
0.0
 30
0.0
 40
40.0
  0
POINT
  5
9D
  8
ARRANGE
  6
CONTINUOUS
 62
     1
 10
0.0
 20
0.0
 30
0.0
 39
50.0
  0
LINE
  5
9E
  8
BASIS
  6
DASHDOT
 62
     6
 39
50.0
 10
0.0
 20
-80.067871999999994
 30
0.0
 11
0.0
 21
79.300705000000008
 31
0.0
  0
LINE
  5
9F
  8
BASIS
  6
DASHDOT
 62
     6
 39
50.0
 10
77.052052000000003
 20
0.0
 30
0.0
 11
-79.192586000000006
 21
0.0
 31
0.0
  0
LINE
  5
A0
  8
DETAIL
  6
CONTINUOUS
 62
     5
 10
1.6552619999999989
 20
14.700372
 30
0.0
 11
-1.555264
 21
9.7003719999999998
 31
0.0
  0
TEXT
  5
A1
  8
DETAIL
  6
CONTINUOUS
 62
     5
 10
-5.1224189999999989
 20
11.109557000000001
 30
0.0
 40
3.887999999999999
  1
入
 41
1.04
  7
ZU_SHPTB00001
  0
TEXT
  5
A2
  8
DETAIL
  6
CONTINUOUS
 62
     5
 10
0.206209
 20
9.3574130000000011
 30
0.0
 40
3.887999999999999
  1
切
 41
1.04
  7
ZU_SHPTB00001
  0
LINE
  5
A3
  8
DETAIL
  6
CONTINUOUS
 62
     5
 10
15.0
 20
2.9500000000000002
 30
0.0
 11
15.0
 21
3.4500000000000002
 31
0.0
  0
LINE
  5
A4
  8
DETAIL
  6
CONTINUOUS
 62
     5
 10
-15.0
 20
2.9500000000000002
 30
0.0
 11
-15.0
 21
3.4500000000000002
 31
0.0
  0
LINE
  5
A5
  8
DETAIL
  6
CONTINUOUS
 62
     5
 10
-15.0
 20
3.4500000000000002
 30
0.0
 11
15.0
 21
3.4500000000000002
 31
0.0
  0
ARC
  5
A6
  8
DETAIL
  6
CONTINUOUS
 62
     5
 10
0.0
 20
-70.799999999999997
 30
0.0
 40
75.75
 50
78.578814000000008
 51
101.42118600000001
  0
ARC
  5
A7
  8
DETAIL
  6
CONTINUOUS
 62
     5
 10
-24.100000000000001
 20
-41.79999999999999
 30
0.0
 40
1.5
 50
180.0
 51
270.0
  0
ARC
  5
A8
  8
DETAIL
  6
CONTINUOUS
 62
     5
 10
24.100000000000001
 20
-41.79999999999999
 30
0.0
 40
1.5
 50
270.0
 51
0.0
  0
ARC
  5
A9
  8
DETAIL
  6
CONTINUOUS
 62
     5
 10
24.100000000000001
 20
43.0
 30
0.0
 40
1.5
 50
0.0
 51
90.0
  0
ARC
  5
AA
  8
DETAIL
  6
CONTINUOUS
 62
     5
 10
-24.100000000000001
 20
43.0
 30
0.0
 40
1.5
 50
90.0
 51
180.0
  0
LINE
  5
AB
  8
DETAIL
  6
CONTINUOUS
 62
     5
 10
24.100000000000001
 20
-43.299999999999997
 30
0.0
 11
-24.100000000000001
 21
-43.299999999999997
 31
0.0
  0
LINE
  5
AC
  8
DETAIL
  6
CONTINUOUS
 62
     5
 10
-24.100000000000001
 20
44.5
 30
0.0
 11
24.100000000000001
 21
44.5
 31
0.0
  0
LINE
  5
AD
  8
DETAIL
  6
CONTINUOUS
 62
     5
 10
25.600000000000001
 20
-41.79999999999999
 30
0.0
 11
25.600000000000001
 21
43.0
 31
0.0
  0
LINE
  5
AE
  8
DETAIL
  6
CONTINUOUS
 62
     5
 10
-25.600000000000001
 20
-41.79999999999999
 30
0.0
 11
-25.600000000000001
 21
43.0
 31
0.0
  0
LINE
  5
AF
  8
DETAIL
  6
CONTINUOUS
 62
     5
 10
0.0
 20
21.449999999999999
 30
0.0
 11
-3.5
 21
21.449999999999999
 31
0.0
  0
LINE
  5
B0
  8
DETAIL
  6
CONTINUOUS
 62
     5
 10
-3.5
 20
21.449999999999999
 30
0.0
 11
3.5
 21
21.449999999999999
 31
0.0
  0
LINE
  5
B1
  8
DETAIL
  6
CONTINUOUS
 62
     5
 10
3.5
 20
21.449999999999999
 30
0.0
 11
0.0
 21
21.449999999999999
 31
0.0
  0
LINE
  5
B2
  8
DETAIL
  6
CONTINUOUS
 62
     5
 10
-3.8826839999999989
 20
21.37388
 30
0.0
 11
3.5
 21
21.449999999999999
 31
0.0
  0
LINE
  5
B3
  8
DETAIL
  6
CONTINUOUS
 62
     5
 10
3.5
 20
21.449999999999999
 30
0.0
 11
-3.5
 21
21.449999999999999
 31
0.0
  0
LINE
  5
B4
  8
DETAIL
  6
CONTINUOUS
 62
     5
 10
-3.5
 20
21.449999999999999
 30
0.0
 11
-3.8826839999999989
 21
21.37388
 31
0.0
  0
LINE
  5
B5
  8
DETAIL
  6
CONTINUOUS
 62
     5
 10
3.5
 20
21.449999999999999
 30
0.0
 11
-3.8826839999999989
 21
21.37388
 31
0.0
  0
LINE
  5
B6
  8
DETAIL
  6
CONTINUOUS
 62
     5
 10
-3.8826839999999989
 20
21.37388
 30
0.0
 11
3.8826830000000001
 21
21.37388
 31
0.0
  0
LINE
  5
B7
  8
DETAIL
  6
CONTINUOUS
 62
     5
 10
3.8826830000000001
 20
21.37388
 30
0.0
 11
3.5
 21
21.449999999999999
 31
0.0
  0
LINE
  5
B8
  8
DETAIL
  6
CONTINUOUS
 62
     5
 10
-4.2071069999999988
 20
21.157107
 30
0.0
 11
3.8826830000000001
 21
21.37388
 31
0.0
  0
LINE
  5
B9
  8
DETAIL
  6
CONTINUOUS
 62
     5
 10
3.8826830000000001
 20
21.37388
 30
0.0
 11
-3.8826839999999989
 21
21.37388
 31
0.0
  0
LINE
  5
BA
  8
DETAIL
  6
CONTINUOUS
 62
     5
 10
-3.8826839999999989
 20
21.37388
 30
0.0
 11
-4.2071069999999988
 21
21.157107
 31
0.0
  0
LINE
  5
BB
  8
DETAIL
  6
CONTINUOUS
 62
     5
 10
3.8826830000000001
 20
21.37388
 30
0.0
 11
-4.2071069999999988
 21
21.157107
 31
0.0
  0
LINE
  5
BC
  8
DETAIL
  6
CONTINUOUS
 62
     5
 10
-4.2071069999999988
 20
21.157107
 30
0.0
 11
4.2071059999999987
 21
21.157107
 31
0.0
  0
LINE
  5
BD
  8
DETAIL
  6
CONTINUOUS
 62
     5
 10
4.2071059999999987
 20
21.157107
 30
0.0
 11
3.8826830000000001
 21
21.37388
 31
0.0
  0
LINE
  5
BE
  8
DETAIL
  6
CONTINUOUS
 62
     5
 10
-4.4238799999999996
 20
20.832684
 30
0.0
 11
4.2071059999999987
 21
21.157107
 31
0.0
  0
LINE
  5
BF
  8
DETAIL
  6
CONTINUOUS
 62
     5
 10
4.2071059999999987
 20
21.157107
 30
0.0
 11
-4.2071069999999988
 21
21.157107
 31
0.0
  0
LINE
  5
C0
  8
DETAIL
  6
CONTINUOUS
 62
     5
 10
-4.2071069999999988
 20
21.157107
 30
0.0
 11
-4.4238799999999996
 21
20.832684
 31
0.0
  0
LINE
  5
C1
  8
DETAIL
  6
CONTINUOUS
 62
     5
 10
4.2071059999999987
 20
21.157107
 30
0.0
 11
-4.4238799999999996
 21
20.832684
 31
0.0
  0
LINE
  5
C2
  8
DETAIL
  6
CONTINUOUS
 62
     5
 10
-4.4238799999999996
 20
20.832684
 30
0.0
 11
4.4238790000000003
 21
20.832684
 31
0.0
  0
LINE
  5
C3
  8
DETAIL
  6
CONTINUOUS
 62
     5
 10
4.4238790000000003
 20
20.832684
 30
0.0
 11
4.2071059999999987
 21
21.157107
 31
0.0
  0
LINE
  5
C4
  8
DETAIL
  6
CONTINUOUS
 62
     5
 10
-4.5
 20
20.449999999999999
 30
0.0
 11
4.4238790000000003
 21
20.832684
 31
0.0
  0
LINE
  5
C5
  8
DETAIL
  6
CONTINUOUS
 62
     5
 10
4.4238790000000003
 20
20.832684
 30
0.0
 11
-4.4238799999999996
 21
20.832684
 31
0.0
  0
LINE
  5
C6
  8
DETAIL
  6
CONTINUOUS
 62
     5
 10
-4.4238799999999996
 20
20.832684
 30
0.0
 11
-4.5
 21
20.449999999999999
 31
0.0
  0
LINE
  5
C7
  8
DETAIL
  6
CONTINUOUS
 62
     5
 10
4.4238790000000003
 20
20.832684
 30
0.0
 11
-4.5
 21
20.449999999999999
 31
0.0
  0
LINE
  5
C8
  8
DETAIL
  6
CONTINUOUS
 62
     5
 10
-4.5
 20
20.449999999999999
 30
0.0
 11
4.5
 21
20.449999999999999
 31
0.0
  0
LINE
  5
C9
  8
DETAIL
  6
CONTINUOUS
 62
     5
 10
4.5
 20
20.449999999999999
 30
0.0
 11
4.4238790000000003
 21
20.832684
 31
0.0
  0
LINE
  5
CA
  8
DETAIL
  6
CONTINUOUS
 62
     5
 10
-4.4238799999999996
 20
20.067316999999999
 30
0.0
 11
4.5
 21
20.449999999999999
 31
0.0
  0
LINE
  5
CB
  8
DETAIL
  6
CONTINUOUS
 62
     5
 10
4.5
 20
20.449999999999999
 30
0.0
 11
-4.5
 21
20.449999999999999
 31
0.0
  0
LINE
  5
CC
  8
DETAIL
  6
CONTINUOUS
 62
     5
 10
-4.5
 20
20.449999999999999
 30
0.0
 11
-4.4238799999999996
 21
20.067316999999999
 31
0.0
  0
LINE
  5
CD
  8
DETAIL
  6
CONTINUOUS
 62
     5
 10
4.5
 20
20.449999999999999
 30
0.0
 11
-4.4238799999999996
 21
20.067316999999999
 31
0.0
  0
LINE
  5
CE
  8
DETAIL
  6
CONTINUOUS
 62
     5
 10
-4.4238799999999996
 20
20.067316999999999
 30
0.0
 11
4.4238790000000003
 21
20.067316999999999
 31
0.0
  0
LINE
  5
CF
  8
DETAIL
  6
CONTINUOUS
 62
     5
 10
4.4238790000000003
 20
20.067316999999999
 30
0.0
 11
4.5
 21
20.449999999999999
 31
0.0
  0
LINE
  5
D0
  8
DETAIL
  6
CONTINUOUS
 62
     5
 10
-4.2071069999999988
 20
19.742894
 30
0.0
 11
4.4238790000000003
 21
20.067316999999999
 31
0.0
  0
LINE
  5
D1
  8
DETAIL
  6
CONTINUOUS
 62
     5
 10
4.4238790000000003
 20
20.067316999999999
 30
0.0
 11
-4.4238799999999996
 21
20.067316999999999
 31
0.0
  0
LINE
  5
D2
  8
DETAIL
  6
CONTINUOUS
 62
     5
 10
-4.4238799999999996
 20
20.067316999999999
 30
0.0
 11
-4.2071069999999988
 21
19.742894
 31
0.0
  0
LINE
  5
D3
  8
DETAIL
  6
CONTINUOUS
 62
     5
 10
4.4238790000000003
 20
20.067316999999999
 30
0.0
 11
-4.2071069999999988
 21
19.742894
 31
0.0
  0
LINE
  5
D4
  8
DETAIL
  6
CONTINUOUS
 62
     5
 10
-4.2071069999999988
 20
19.742894
 30
0.0
 11
4.2071059999999987
 21
19.742894
 31
0.0
  0
LINE
  5
D5
  8
DETAIL
  6
CONTINUOUS
 62
     5
 10
4.2071059999999987
 20
19.742894
 30
0.0
 11
4.4238790000000003
 21
20.067316999999999
 31
0.0
  0
LINE
  5
D6
  8
DETAIL
  6
CONTINUOUS
 62
     5
 10
-3.8826839999999989
 20
19.526121
 30
0.0
 11
4.2071059999999987
 21
19.742894
 31
0.0
  0
LINE
  5
D7
  8
DETAIL
  6
CONTINUOUS
 62
     5
 10
4.2071059999999987
 20
19.742894
 30
0.0
 11
-4.2071069999999988
 21
19.742894
 31
0.0
  0
LINE
  5
D8
  8
DETAIL
  6
CONTINUOUS
 62
     5
 10
-4.2071069999999988
 20
19.742894
 30
0.0
 11
-3.8826839999999989
 21
19.526121
 31
0.0
  0
LINE
  5
D9
  8
DETAIL
  6
CONTINUOUS
 62
     5
 10
4.2071059999999987
 20
19.742894
 30
0.0
 11
-3.8826839999999989
 21
19.526121
 31
0.0
  0
LINE
  5
DA
  8
DETAIL
  6
CONTINUOUS
 62
     5
 10
-3.8826839999999989
 20
19.526121
 30
0.0
 11
3.8826830000000001
 21
19.526121
 31
0.0
  0
LINE
  5
DB
  8
DETAIL
  6
CONTINUOUS
 62
     5
 10
3.8826830000000001
 20
19.526121
 30
0.0
 11
4.2071059999999987
 21
19.742894
 31
0.0
  0
LINE
  5
DC
  8
DETAIL
  6
CONTINUOUS
 62
     5
 10
-3.5
 20
19.449999999999999
 30
0.0
 11
3.8826830000000001
 21
19.526121
 31
0.0
  0
LINE
  5
DD
  8
DETAIL
  6
CONTINUOUS
 62
     5
 10
3.8826830000000001
 20
19.526121
 30
0.0
 11
-3.8826839999999989
 21
19.526121
 31
0.0
  0
LINE
  5
DE
  8
DETAIL
  6
CONTINUOUS
 62
     5
 10
-3.8826839999999989
 20
19.526121
 30
0.0
 11
-3.5
 21
19.449999999999999
 31
0.0
  0
LINE
  5
DF
  8
DETAIL
  6
CONTINUOUS
 62
     5
 10
3.8826830000000001
 20
19.526121
 30
0.0
 11
-3.5
 21
19.449999999999999
 31
0.0
  0
LINE
  5
E0
  8
DETAIL
  6
CONTINUOUS
 62
     5
 10
-3.5
 20
19.449999999999999
 30
0.0
 11
3.5
 21
19.449999999999999
 31
0.0
  0
LINE
  5
E1
  8
DETAIL
  6
CONTINUOUS
 62
     5
 10
3.5
 20
19.449999999999999
 30
0.0
 11
3.8826830000000001
 21
19.526121
 31
0.0
  0
LINE
  5
E2
  8
DETAIL
  6
CONTINUOUS
 62
     5
 10
0.0
 20
19.449999999999999
 30
0.0
 11
3.5
 21
19.449999999999999
 31
0.0
  0
LINE
  5
E3
  8
DETAIL
  6
CONTINUOUS
 62
     5
 10
3.5
 20
19.449999999999999
 30
0.0
 11
-3.5
 21
19.449999999999999
 31
0.0
  0
LINE
  5
E4
  8
DETAIL
  6
CONTINUOUS
 62
     5
 10
-3.5
 20
19.449999999999999
 30
0.0
 11
0.0
 21
19.449999999999999
 31
0.0
  0
TEXT
  5
E5
  8
DETAIL
  6
CONTINUOUS
 62
     5
 10
14.581499000000001
 20
-27.175227
 30
0.0
 40
4.3200000000000003
  1
強
 41
1.04
  7
ZU_SHPTB00001
  0
TEXT
  5
E6
  8
DETAIL
  6
CONTINUOUS
 62
     5
 10
-19.110865
 20
25.697821999999999
 30
0.0
 40
4.7999999999999989
  1
２４時間換気
 41
1.04
  7
ZU_SHPTB00001
  0
TEXT
  5
E7
  8
DETAIL
  6
CONTINUOUS
 62
     5
 10
-20.139081999999998
 20
-27.075019000000001
 30
0.0
 40
4.3200000000000003
  1
弱
 41
1.04
  7
ZU_SHPTB00001
  0
ARC
  5
E8
  8
DETAIL
  6
CONTINUOUS
 62
     5
 10
-21.300000000000001
 20
39.049999999999997
 30
0.0
 40
0.6
 50
90.0
 51
180.0
  0
LINE
  5
E9
  8
DETAIL
  6
CONTINUOUS
 62
     5
 10
-11.5
 20
39.649999999999999
 30
0.0
 11
-21.300000000000001
 21
39.649999999999999
 31
0.0
  0
LINE
  5
EA
  8
DETAIL
  6
CONTINUOUS
 62
     5
 10
10.699999999999999
 20
38.202852999999998
 30
0.0
 11
10.699999999999999
 21
39.682349000000002
 31
0.0
  0
LINE
  5
EB
  8
DETAIL
  6
CONTINUOUS
 62
     5
 10
-10.699999999999999
 20
38.202852999999998
 30
0.0
 11
-10.699999999999999
 21
39.682349000000002
 31
0.0
  0
LINE
  5
EC
  8
DETAIL
  6
CONTINUOUS
 62
     5
 10
-10.9
 20
35.850000000000001
 30
0.0
 11
-10.9
 21
39.049999999999997
 31
0.0
  0
LINE
  5
ED
  8
DETAIL
  6
CONTINUOUS
 62
     5
 10
10.9
 20
35.850000000000001
 30
0.0
 11
10.9
 21
39.049999999999997
 31
0.0
  0
ARC
  5
EE
  8
DETAIL
  6
CONTINUOUS
 62
     5
 10
11.5
 20
39.049999999999997
 30
0.0
 40
0.6
 50
90.0
 51
180.0
  0
ARC
  5
EF
  8
DETAIL
  6
CONTINUOUS
 62
     5
 10
21.300000000000001
 20
39.049999999999997
 30
0.0
 40
0.6
 50
0.0
 51
90.0
  0
ARC
  5
F0
  8
DETAIL
  6
CONTINUOUS
 62
     5
 10
-11.5
 20
39.049999999999997
 30
0.0
 40
0.6
 50
0.0
 51
90.0
  0
LINE
  5
F1
  8
DETAIL
  6
CONTINUOUS
 62
     5
 10
21.300000000000001
 20
39.649999999999999
 30
0.0
 11
11.5
 21
39.649999999999999
 31
0.0
  0
LINE
  5
F2
  8
DETAIL
  6
CONTINUOUS
 62
     5
 10
21.899999999999999
 20
3.5499999999999989
 30
0.0
 11
21.899999999999999
 21
39.049999999999997
 31
0.0
  0
LINE
  5
F3
  8
DETAIL
  6
CONTINUOUS
 62
     5
 10
-21.899999999999999
 20
3.5499999999999989
 30
0.0
 11
-21.899999999999999
 21
39.049999999999997
 31
0.0
  0
ARC
  5
F4
  8
DETAIL
  6
CONTINUOUS
 62
     5
 10
21.300000000000001
 20
3.5499999999999989
 30
0.0
 40
0.6
 50
270.0
 51
0.0
  0
ARC
  5
F5
  8
DETAIL
  6
CONTINUOUS
 62
     5
 10
-21.300000000000001
 20
3.5499999999999989
 30
0.0
 40
0.6
 50
180.0
 51
270.0
  0
LINE
  5
F6
  8
DETAIL
  6
CONTINUOUS
 62
     5
 10
-10.9
 20
35.850000000000001
 30
0.0
 11
10.9
 21
35.850000000000001
 31
0.0
  0
LINE
  5
F7
  8
DETAIL
  6
CONTINUOUS
 62
     5
 10
0.0
 20
2.9500000000000002
 30
0.0
 11
21.300000000000001
 21
2.9500000000000002
 31
0.0
  0
LINE
  5
F8
  8
DETAIL
  6
CONTINUOUS
 62
     5
 10
-21.300000000000001
 20
2.9500000000000002
 30
0.0
 11
0.0
 21
2.9500000000000002
 31
0.0
  0
ARC
  5
F9
  8
DETAIL
  6
CONTINUOUS
 62
     5
 10
21.300000000000001
 20
39.0
 30
0.0
 40
0.8
 50
0.0
 51
90.0
  0
ARC
  5
FA
  8
DETAIL
  6
CONTINUOUS
 62
     5
 10
-21.300000000000001
 20
39.0
 30
0.0
 40
0.8
 50
90.0
 51
180.0
  0
ARC
  5
FB
  8
DETAIL
  6
CONTINUOUS
 62
     5
 10
11.5
 20
39.0
 30
0.0
 40
0.8
 50
90.0
 51
180.0
  0
ARC
  5
FC
  8
DETAIL
  6
CONTINUOUS
 62
     5
 10
-11.5
 20
39.0
 30
0.0
 40
0.8
 50
0.0
 51
90.0
  0
LINE
  5
FD
  8
DETAIL
  6
CONTINUOUS
 62
     5
 10
-35.0
 20
-48.0
 30
0.0
 11
-35.0
 21
48.0
 31
0.0
  0
LINE
  5
FE
  8
DETAIL
  6
CONTINUOUS
 62
     5
 10
35.0
 20
-48.0
 30
0.0
 11
35.0
 21
48.0
 31
0.0
  0
LINE
  5
FF
  8
DETAIL
  6
CONTINUOUS
 62
     5
 10
-21.300000000000001
 20
2.7000000000000002
 30
0.0
 11
21.300000000000001
 21
2.7000000000000002
 31
0.0
  0
LINE
  5
100
  8
DETAIL
  6
CONTINUOUS
 62
     5
 10
-35.0
 20
48.0
 30
0.0
 11
35.0
 21
48.0
 31
0.0
  0
LINE
  5
101
  8
DETAIL
  6
CONTINUOUS
 62
     5
 10
-35.0
 20
-48.0
 30
0.0
 11
35.0
 21
-48.0
 31
0.0
  0
LINE
  5
102
  8
DETAIL
  6
CONTINUOUS
 62
     5
 10
21.300000000000001
 20
39.799999999999997
 30
0.0
 11
11.5
 21
39.799999999999997
 31
0.0
  0
LINE
  5
103
  8
DETAIL
  6
CONTINUOUS
 62
     5
 10
22.100000000000001
 20
-38.299999999999997
 30
0.0
 11
22.100000000000001
 21
-10.800000000000001
 31
0.0
  0
LINE
  5
104
  8
DETAIL
  6
CONTINUOUS
 62
     5
 10
-22.100000000000001
 20
-38.299999999999997
 30
0.0
 11
-22.100000000000001
 21
-10.800000000000001
 31
0.0
  0
LINE
  5
105
  8
DETAIL
  6
CONTINUOUS
 62
     5
 10
10.699999999999999
 20
36.0
 30
0.0
 11
-10.699999999999999
 21
36.0
 31
0.0
  0
LINE
  5
106
  8
DETAIL
  6
CONTINUOUS
 62
     5
 10
-11.5
 20
39.799999999999997
 30
0.0
 11
-21.300000000000001
 21
39.799999999999997
 31
0.0
  0
LINE
  5
107
  8
DETAIL
  6
CONTINUOUS
 62
     5
 10
22.100000000000001
 20
3.5
 30
0.0
 11
22.100000000000001
 21
41.100000000000001
 31
0.0
  0
LINE
  5
108
  8
DETAIL
  6
CONTINUOUS
 62
     5
 10
-22.100000000000001
 20
3.5
 30
0.0
 11
-22.100000000000001
 21
41.100000000000001
 31
0.0
  0
LINE
  5
109
  8
DETAIL
  6
CONTINUOUS
 62
     5
 10
10.699999999999999
 20
36.0
 30
0.0
 11
10.699999999999999
 21
41.100000000000001
 31
0.0
  0
LINE
  5
10A
  8
DETAIL
  6
CONTINUOUS
 62
     5
 10
-10.699999999999999
 20
36.0
 30
0.0
 11
-10.699999999999999
 21
41.100000000000001
 31
0.0
  0
ARC
  5
10B
  8
DETAIL
  6
CONTINUOUS
 62
     5
 10
-21.300000000000001
 20
3.5
 30
0.0
 40
0.8
 50
180.0
 51
270.0
  0
ARC
  5
10C
  8
DETAIL
  6
CONTINUOUS
 62
     5
 10
21.300000000000001
 20
3.5
 30
0.0
 40
0.8
 50
270.0
 51
0.0
  0
LINE
  5
10D
  8
DETAIL
  6
CONTINUOUS
 62
     5
 10
-22.0
 20
-10.699999999999999
 30
0.0
 11
22.0
 21
-10.699999999999999
 31
0.0
  0
LINE
  5
10E
  8
DETAIL
  6
CONTINUOUS
 62
     5
 10
20.600000000000001
 20
-39.799999999999997
 30
0.0
 11
-20.600000000000001
 21
-39.799999999999997
 31
0.0
  0
ARC
  5
10F
  8
DETAIL
  6
CONTINUOUS
 62
     5
 10
-20.600000000000001
 20
-38.299999999999997
 30
0.0
 40
1.5
 50
180.0
 51
270.0
  0
ARC
  5
110
  8
DETAIL
  6
CONTINUOUS
 62
     5
 10
20.600000000000001
 20
-38.299999999999997
 30
0.0
 40
1.5
 50
270.0
 51
0.0
  0
ARC
  5
111
  8
DETAIL
  6
CONTINUOUS
 62
     5
 10
22.0
 20
-10.800000000000001
 30
0.0
 40
0.1
 50
0.0
 51
90.0
  0
ARC
  5
112
  8
DETAIL
  6
CONTINUOUS
 62
     5
 10
-22.0
 20
-10.800000000000001
 30
0.0
 40
0.1
 50
90.0
 51
180.0
  0
LINE
  5
113
  8
DETAIL
  6
CONTINUOUS
 62
     5
 10
11.608669000000001
 20
41.100000000000001
 30
0.0
 11
21.307960999999999
 21
41.100000000000001
 31
0.0
  0
LINE
  5
114
  8
DETAIL
  6
CONTINUOUS
 62
     5
 10
-21.257722000000001
 20
41.100000000000001
 30
0.0
 11
-11.496651
 21
41.100000000000001
 31
0.0
  0
LINE
  5
115
  8
DETAIL
  6
CONTINUOUS
 62
     5
 10
-30.0
 20
-60.0
 30
0.0
 11
30.0
 21
-60.0
 31
0.0
  0
LINE
  5
116
  8
DETAIL
  6
CONTINUOUS
 62
     5
 10
-35.0
 20
-55.0
 30
0.0
 11
-35.0
 21
-48.0
 31
0.0
  0
ARC
  5
117
  8
DETAIL
  6
CONTINUOUS
 62
     5
 10
-30.0
 20
-55.0
 30
0.0
 40
5.0
 50
180.0
 51
270.0
  0
LINE
  5
118
  8
DETAIL
  6
CONTINUOUS
 62
     5
 10
35.0
 20
-55.0
 30
0.0
 11
35.0
 21
-48.0
 31
0.0
  0
ARC
  5
119
  8
DETAIL
  6
CONTINUOUS
 62
     5
 10
30.0
 20
-55.0
 30
0.0
 40
5.0
 50
270.0
 51
0.0
  0
LINE
  5
11A
  8
DETAIL
  6
CONTINUOUS
 62
     5
 10
35.0
 20
48.0
 30
0.0
 11
35.0
 21
55.0
 31
0.0
  0
ARC
  5
11B
  8
DETAIL
  6
CONTINUOUS
 62
     5
 10
30.0
 20
55.0
 30
0.0
 40
5.0
 50
0.0
 51
90.0
  0
LINE
  5
11C
  8
DETAIL
  6
CONTINUOUS
 62
     5
 10
-35.0
 20
48.0
 30
0.0
 11
-35.0
 21
55.0
 31
0.0
  0
ARC
  5
11D
  8
DETAIL
  6
CONTINUOUS
 62
     5
 10
-30.0
 20
55.0
 30
0.0
 40
5.0
 50
90.0
 51
180.0
  0
LINE
  5
11E
  8
DETAIL
  6
CONTINUOUS
 62
     5
 10
-30.0
 20
60.0
 30
0.0
 11
30.0
 21
60.0
 31
0.0
  0
LINE
  5
11F
  8
DETAIL
  6
CONTINUOUS
 62
     5
 10
-35.0
 20
48.0
 30
0.0
 11
35.0
 21
48.0
 31
0.0
  0
LINE
  5
120
  8
DETAIL
  6
CONTINUOUS
 62
     5
 10
-35.0
 20
-48.0
 30
0.0
 11
35.0
 21
-48.0
 31
0.0
  0
ARC
  5
121
  8
DETAIL
  6
CONTINUOUS
 62
     5
 10
20.0
 20
-38.100000000000001
 30
0.0
 40
1.5
 50
270.0
 51
0.000001
  0
LINE
  5
122
  8
DETAIL
  6
CONTINUOUS
 62
     5
 10
20.0
 20
-39.600000000000001
 30
0.0
 11
-20.100000000000001
 21
-39.600000000000001
 31
0.0
  0
ARC
  5
123
  8
DETAIL
  6
CONTINUOUS
 62
     5
 10
-20.0
 20
-38.100000000000001
 30
0.0
 40
1.5033299999999989
 50
179.999999
 51
266.185924
  0
LINE
  5
124
  8
DETAIL
  6
CONTINUOUS
 62
     5
 10
-21.5
 20
-38.100000000000001
 30
0.0
 11
-21.5
 21
-11.1
 31
0.0
  0
ARC
  5
125
  8
DETAIL
  6
CONTINUOUS
 62
     5
 10
-21.300000000000001
 20
-11.1
 30
0.0
 40
0.2
 50
90.0
 51
179.999999
  0
LINE
  5
126
  8
DETAIL
  6
CONTINUOUS
 62
     5
 10
-21.300000000000001
 20
-10.9
 30
0.0
 11
21.300000000000001
 21
-10.9
 31
0.0
  0
ARC
  5
127
  8
DETAIL
  6
CONTINUOUS
 62
     5
 10
21.300000000000001
 20
-11.1
 30
0.0
 40
0.2
 50
0.000001
 51
90.0
  0
LINE
  5
128
  8
DETAIL
  6
CONTINUOUS
 62
     5
 10
21.5
 20
-11.1
 30
0.0
 11
21.5
 21
-38.100000000000001
 31
0.0
  0
ARC
  5
129
  8
DETAIL
  6
CONTINUOUS
 62
     5
 10
20.100000000000001
 20
-38.100000000000001
 30
0.0
 40
1.5
 50
270.0
 51
0.000001
  0
LINE
  5
12A
  8
DETAIL
  6
CONTINUOUS
 62
     5
 10
20.100000000000001
 20
-39.600000000000001
 30
0.0
 11
-20.100000000000001
 21
-39.600000000000001
 31
0.0
  0
ARC
  5
12B
  8
DETAIL
  6
CONTINUOUS
 62
     5
 10
-20.100000000000001
 20
-38.100000000000001
 30
0.0
 40
1.5
 50
179.999999
 51
270.0
  0
LINE
  5
12C
  8
DETAIL
  6
CONTINUOUS
 62
     5
 10
-21.600000000000001
 20
-38.100000000000001
 30
0.0
 11
-21.600000000000001
 21
-11.1
 31
0.0
  0
ARC
  5
12D
  8
DETAIL
  6
CONTINUOUS
 62
     5
 10
-21.399999999999999
 20
-11.1
 30
0.0
 40
0.2
 50
90.0
 51
179.999999
  0
LINE
  5
12E
  8
DETAIL
  6
CONTINUOUS
 62
     5
 10
-21.399999999999999
 20
-10.9
 30
0.0
 11
21.399999999999999
 21
-10.9
 31
0.0
  0
ARC
  5
12F
  8
DETAIL
  6
CONTINUOUS
 62
     5
 10
21.399999999999999
 20
-11.1
 30
0.0
 40
0.2
 50
0.000001
 51
90.0
  0
LINE
  5
130
  8
DETAIL
  6
CONTINUOUS
 62
     5
 10
21.600000000000001
 20
-11.1
 30
0.0
 11
21.600000000000001
 21
-38.100000000000001
 31
0.0
  0
ARC
  5
131
  8
DETAIL
  6
CONTINUOUS
 62
     5
 10
-3.5
 20
20.449999999999999
 30
0.0
 40
1.0
 50
180.0
 51
270.0
  0
ARC
  5
132
  8
DETAIL
  6
CONTINUOUS
 62
     5
 10
-3.5
 20
20.449999999999999
 30
0.0
 40
1.0
 50
90.0
 51
180.0
  0
LINE
  5
133
  8
DETAIL
  6
CONTINUOUS
 62
     5
 10
0.0
 20
19.449999999999999
 30
0.0
 11
-3.5
 21
19.449999999999999
 31
0.0
  0
LINE
  5
134
  8
DETAIL
  6
CONTINUOUS
 62
     5
 10
0.0
 20
21.449999999999999
 30
0.0
 11
-3.5
 21
21.449999999999999
 31
0.0
  0
LINE
  5
135
  8
DETAIL
  6
CONTINUOUS
 62
     5
 10
0.0
 20
21.449999999999999
 30
0.0
 11
3.5
 21
21.449999999999999
 31
0.0
  0
LINE
  5
136
  8
DETAIL
  6
CONTINUOUS
 62
     5
 10
0.0
 20
19.449999999999999
 30
0.0
 11
3.5
 21
19.449999999999999
 31
0.0
  0
ARC
  5
137
  8
DETAIL
  6
CONTINUOUS
 62
     5
 10
3.5
 20
20.449999999999999
 30
0.0
 40
1.0
 50
270.0
 51
0.0
  0
ARC
  5
138
  8
DETAIL
  6
CONTINUOUS
 62
     5
 10
3.5
 20
20.449999999999999
 30
0.0
 40
1.0
 50
0.0
 51
90.0
  0
LINE
  5
139
  8
SIZE
  6
CONTINUOUS
 62
    30
 10
-35.0
 20
75.0
 30
0.0
 11
-35.0
 21
115.081228
 31
0.0
  0
LINE
  5
13A
  8
SIZE
  6
CONTINUOUS
 62
    30
 10
35.0
 20
75.0
 30
0.0
 11
35.0
 21
115.081228
 31
0.0
  0
LINE
  5
13B
  8
SIZE
  6
CONTINUOUS
 62
    30
 10
-47.0
 20
95.081227999999996
 30
0.0
 11
-59.0
 21
95.081227999999996
 31
0.0
  0
LINE
  5
13C
  8
SIZE
  6
CONTINUOUS
 62
    30
 10
47.0
 20
95.081227999999996
 30
0.0
 11
59.0
 21
95.081227999999996
 31
0.0
  0
LINE
  5
13D
  8
SIZE
  6
CONTINUOUS
 62
    30
 10
-35.0
 20
95.081227999999996
 30
0.0
 11
35.0
 21
95.081227999999996
 31
0.0
  0
CIRCLE
  5
13E
  8
SIZE
  6
CONTINUOUS
 62
    30
 10
-35.0
 20
95.081227999999996
 30
0.0
 40
6.0
  0
LINE
  5
13F
  8
SIZE
  6
CONTINUOUS
 62
    30
 10
-35.0
 20
95.081227999999996
 30
0.0
 11
-47.0
 21
95.081227999999996
 31
0.0
  0
CIRCLE
  5
140
  8
SIZE
  6
CONTINUOUS
 62
    30
 10
35.0
 20
95.081227999999996
 30
0.0
 40
6.0
  0
LINE
  5
141
  8
SIZE
  6
CONTINUOUS
 62
    30
 10
35.0
 20
95.081227999999996
 30
0.0
 11
47.0
 21
95.081227999999996
 31
0.0
  0
TEXT
  5
142
  8
SIZE
  6
CONTINUOUS
 62
    30
 10
-46.628571428571419
 20
120.081228
 30
0.0
 40
64.0
  1
70
 41
0.9
 72
     1
 11
0.0
 21
120.081228
 31
0.0
  0
POINT
  5
143
  8
DEFPOINTS
  6
CONTINUOUS
 62
    30
 10
-35.0
 20
55.0
 30
0.0
  0
POINT
  5
144
  8
DEFPOINTS
  6
CONTINUOUS
 62
    30
 10
35.0
 20
55.0
 30
0.0
  0
POINT
  5
145
  8
DEFPOINTS
  6
CONTINUOUS
 62
    30
 10
35.0
 20
95.081227999999996
 30
0.0
  0
LINE
  5
146
  8
SIZE
  6
CONTINUOUS
 62
    30
 10
50.0
 20
60.0
 30
0.0
 11
197.170614
 21
60.0
 31
0.0
  0
LINE
  5
147
  8
SIZE
  6
CONTINUOUS
 62
    30
 10
50.0
 20
-60.0
 30
0.0
 11
197.170614
 21
-60.0
 31
0.0
  0
LINE
  5
148
  8
SIZE
  6
CONTINUOUS
 62
    30
 10
177.170614
 20
48.0
 30
0.0
 11
177.170614
 21
-48.0
 31
0.0
  0
LINE
  5
149
  8
SIZE
  6
CONTINUOUS
 62
    30
 10
177.170614
 20
-60.0
 30
0.0
 11
177.170614
 21
-259.14285699999999
 31
0.0
  0
CIRCLE
  5
14A
  8
SIZE
  6
CONTINUOUS
 62
    30
 10
177.170614
 20
60.0
 30
0.0
 40
6.0
  0
LINE
  5
14B
  8
SIZE
  6
CONTINUOUS
 62
    30
 10
177.170614
 20
60.0
 30
0.0
 11
177.170614
 21
48.0
 31
0.0
  0
CIRCLE
  5
14C
  8
SIZE
  6
CONTINUOUS
 62
    30
 10
177.170614
 20
-60.0
 30
0.0
 40
6.0
  0
LINE
  5
14D
  8
SIZE
  6
CONTINUOUS
 62
    30
 10
177.170614
 20
-60.0
 30
0.0
 11
177.170614
 21
-48.0
 31
0.0
  0
TEXT
  5
14E
  8
SIZE
  6
CONTINUOUS
 62
    30
 10
152.170614
 20
-234.14285757142861
 30
0.0
 40
64.0
  1
120
 50
90.0
 41
0.9
 72
     1
 11
152.170614
 21
-165.57142899999999
 31
0.0
  0
POINT
  5
14F
  8
DEFPOINTS
  6
CONTINUOUS
 62
    30
 10
30.0
 20
60.0
 30
0.0
  0
POINT
  5
150
  8
DEFPOINTS
  6
CONTINUOUS
 62
    30
 10
30.0
 20
-60.0
 30
0.0
  0
POINT
  5
151
  8
DEFPOINTS
  6
CONTINUOUS
 62
    30
 10
177.170614
 20
-60.0
 30
0.0
  0
LINE
  5
152
  8
OUTLINE
  6
CONTINUOUS
 62
     3
 10
-35.0
 20
-48.0
 30
0.0
 11
-35.0
 21
48.0
 31
0.0
  0
LINE
  5
153
  8
OUTLINE
  6
CONTINUOUS
 62
     3
 10
35.0
 20
-48.0
 30
0.0
 11
35.0
 21
48.0
 31
0.0
  0
LINE
  5
154
  8
OUTLINE
  6
CONTINUOUS
 62
     3
 10
-30.0
 20
-60.0
 30
0.0
 11
30.0
 21
-60.0
 31
0.0
  0
LINE
  5
155
  8
OUTLINE
  6
CONTINUOUS
 62
     3
 10
-35.0
 20
-55.0
 30
0.0
 11
-35.0
 21
-48.0
 31
0.0
  0
ARC
  5
156
  8
OUTLINE
  6
CONTINUOUS
 62
     3
 10
-30.0
 20
-55.0
 30
0.0
 40
5.0
 50
180.0
 51
270.0
  0
LINE
  5
157
  8
OUTLINE
  6
CONTINUOUS
 62
     3
 10
35.0
 20
-55.0
 30
0.0
 11
35.0
 21
-48.0
 31
0.0
  0
ARC
  5
158
  8
OUTLINE
  6
CONTINUOUS
 62
     3
 10
30.0
 20
-55.0
 30
0.0
 40
5.0
 50
270.0
 51
0.0
  0
LINE
  5
159
  8
OUTLINE
  6
CONTINUOUS
 62
     3
 10
35.0
 20
48.0
 30
0.0
 11
35.0
 21
55.0
 31
0.0
  0
ARC
  5
15A
  8
OUTLINE
  6
CONTINUOUS
 62
     3
 10
30.0
 20
55.0
 30
0.0
 40
5.0
 50
0.0
 51
90.0
  0
LINE
  5
15B
  8
OUTLINE
  6
CONTINUOUS
 62
     3
 10
-35.0
 20
48.0
 30
0.0
 11
-35.0
 21
55.0
 31
0.0
  0
ARC
  5
15C
  8
OUTLINE
  6
CONTINUOUS
 62
     3
 10
-30.0
 20
55.0
 30
0.0
 40
5.0
 50
90.0
 51
180.0
  0
LINE
  5
15D
  8
OUTLINE
  6
CONTINUOUS
 62
     3
 10
-30.0
 20
60.0
 30
0.0
 11
30.0
 21
60.0
 31
0.0
  0
TEXT
  5
166
  8
ETC
  6
CONTINUOUS
 62
    61
 10
306.3350959984237
 20
100.1110857298911
 30
0.0
 40
40.0
  1
P-04SWL
 41
0.9
  0
ENDSEC
  0
EOF
