  0
SECTION
  2
HEADER
  9
$ACADVER
  1
AC1009
  9
$INSBASE
 10
0.0
 20
0.0
 30
0.0
  9
$EXTMIN
 10
-60.560581000000013
 20
-279.29285700000003
 30
0.0
  9
$EXTMAX
 10
887.84991128571403
 20
461.0430740000001
 30
50.0
  9
$LIMMIN
 10
-2970.0
 20
-2100.0
  9
$LIMMAX
 10
2970.0
 20
2100.0
  9
$ORTHOMODE
 70
     1
  9
$REGENMODE
 70
     1
  9
$FILLMODE
 70
     1
  9
$QTEXTMODE
 70
     0
  9
$MIRRTEXT
 70
     0
  9
$DRAGMODE
 70
     2
  9
$LTSCALE
 40
20.0
  9
$OSMODE
 70
    55
  9
$ATTMODE
 70
     1
  9
$TEXTSIZE
 40
64.0
  9
$TRACEWID
 40
0.05
  9
$TEXTSTYLE
  7
STANDARD
  9
$CLAYER
  8
SIZE
  9
$CELTYPE
  6
CONTINUOUS
  9
$CECOLOR
 62
     7
  9
$DIMSCALE
 40
1.0
  9
$DIMASZ
 40
12.0
  9
$DIMEXO
 40
20.0
  9
$DIMDLI
 40
200.0
  9
$DIMRND
 40
0.0
  9
$DIMDLE
 40
0.0
  9
$DIMEXE
 40
20.0
  9
$DIMTP
 40
0.0
  9
$DIMTM
 40
0.0
  9
$DIMTXT
 40
64.0
  9
$DIMCEN
 40
0.09
  9
$DIMTSZ
 40
0.0
  9
$DIMTOL
 70
     0
  9
$DIMLIM
 70
     0
  9
$DIMTIH
 70
     0
  9
$DIMTOH
 70
     0
  9
$DIMSE1
 70
     0
  9
$DIMSE2
 70
     0
  9
$DIMTAD
 70
     1
  9
$DIMZIN
 70
     8
  9
$DIMBLK
  1
DOT1
  9
$DIMASO
 70
     1
  9
$DIMSHO
 70
     0
  9
$DIMPOST
  1

  9
$DIMAPOST
  1

  9
$DIMALT
 70
     0
  9
$DIMALTD
 70
     2
  9
$DIMALTF
 40
25.399999999999999
  9
$DIMLFAC
 40
1.0
  9
$DIMTOFL
 70
     1
  9
$DIMTVP
 40
0.0
  9
$DIMTIX
 70
     1
  9
$DIMSOXD
 70
     0
  9
$DIMSAH
 70
     1
  9
$DIMBLK1
  1
ORIGIN
  9
$DIMBLK2
  1
ORIGIN
  9
$DIMSTYLE
  2
STANDARD
  9
$DIMCLRD
 70
     7
  9
$DIMCLRE
 70
     7
  9
$DIMCLRT
 70
     7
  9
$DIMTFAC
 40
1.0
  9
$DIMGAP
 40
25.0
  9
$LUNITS
 70
     2
  9
$LUPREC
 70
     4
  9
$SKETCHINC
 40
0.1
  9
$FILLETRAD
 40
3.0
  9
$AUNITS
 70
     1
  9
$AUPREC
 70
     3
  9
$MENU
  1
ACAD
  9
$ELEVATION
 40
0.0
  9
$PELEVATION
 40
0.0
  9
$THICKNESS
 40
50.0
  9
$LIMCHECK
 70
     0
  9
$BLIPMODE
 70
     0
  9
$CHAMFERA
 40
0.0
  9
$CHAMFERB
 40
0.0
  9
$SKPOLY
 70
     0
  9
$TDCREATE
 40
2453019.6230103709
  9
$TDUPDATE
 40
2456388.639216146
  9
$TDINDWG
 40
1.6310562037
  9
$TDUSRTIMER
 40
1.6310562037
  9
$USRTIMER
 70
     1
  9
$ANGBASE
 50
0.0
  9
$ANGDIR
 70
     0
  9
$PDMODE
 70
     3
  9
$PDSIZE
 40
-2.0
  9
$PLINEWID
 40
0.0
  9
$COORDS
 70
     1
  9
$SPLFRAME
 70
     0
  9
$SPLINETYPE
 70
     6
  9
$SPLINESEGS
 70
     8
  9
$ATTDIA
 70
     0
  9
$ATTREQ
 70
     1
  9
$HANDLING
 70
     1
  9
$HANDSEED
  5
471
  9
$SURFTAB1
 70
     6
  9
$SURFTAB2
 70
     6
  9
$SURFTYPE
 70
     6
  9
$SURFU
 70
     6
  9
$SURFV
 70
     6
  9
$UCSNAME
  2

  9
$UCSORG
 10
0.0
 20
0.0
 30
0.0
  9
$UCSXDIR
 10
1.0
 20
0.0
 30
0.0
  9
$UCSYDIR
 10
0.0
 20
1.0
 30
0.0
  9
$PUCSNAME
  2

  9
$PUCSORG
 10
0.0
 20
0.0
 30
0.0
  9
$PUCSXDIR
 10
1.0
 20
0.0
 30
0.0
  9
$PUCSYDIR
 10
0.0
 20
1.0
 30
0.0
  9
$USERI1
 70
     0
  9
$USERI2
 70
     0
  9
$USERI3
 70
     0
  9
$USERI4
 70
     0
  9
$USERI5
 70
     0
  9
$USERR1
 40
20.0
  9
$USERR2
 40
0.0
  9
$USERR3
 40
0.0
  9
$USERR4
 40
0.0
  9
$USERR5
 40
0.0
  9
$WORLDVIEW
 70
     1
  9
$SHADEDGE
 70
     3
  9
$SHADEDIF
 70
    70
  9
$TILEMODE
 70
     1
  9
$MAXACTVP
 70
    48
  9
$PLIMCHECK
 70
     0
  9
$PEXTMIN
 10
-1.0000000000000000E+020
 20
-1.0000000000000000E+020
 30
-1.0000000000000000E+020
  9
$PEXTMAX
 10
1.0000000000000000E+020
 20
1.0000000000000000E+020
 30
1.0000000000000000E+020
  9
$PLIMMIN
 10
0.0
 20
0.0
  9
$PLIMMAX
 10
12.0
 20
9.0
  9
$UNITMODE
 70
     0
  9
$VISRETAIN
 70
     0
  9
$PLINEGEN
 70
     0
  9
$PSLTSCALE
 70
     0
  0
ENDSEC
  0
SECTION
  2
TABLES
  0
TABLE
  2
VPORT
 70
     1
  0
VPORT
  2
*ACTIVE
 70
     0
 10
0.0
 20
0.0
 11
1.0
 21
1.0
 12
694.10871275330351
 22
-48.553487688219768
 13
0.0
 23
0.0
 14
1.0
 24
1.0
 15
0.0
 25
0.0
 16
0.0
 26
0.0
 36
1.0
 17
0.0
 27
0.0
 37
0.0
 40
1606.300408953844
 41
1.6865079365079361
 42
50.0
 43
0.0
 44
0.0
 50
0.0
 51
0.0
 71
     0
 72
  1000
 73
     1
 74
     0
 75
     0
 76
     0
 77
     0
 78
     0
  0
ENDTAB
  0
TABLE
  2
LTYPE
 70
     3
  0
LTYPE
  2
CONTINUOUS
 70
     0
  3
実線
 72
    65
 73
     0
 40
0.0
  0
LTYPE
  2
DASHDOT
 70
     0
  3
____ _ ____ _ ____ _ ____ _ ____ _ ____ _ ____
 72
    65
 73
     4
 40
5.5
 49
4.0
 49
-0.6
 49
0.3
 49
-0.6
  0
ENDTAB
  0
TABLE
  2
LAYER
 70
    12
  0
LAYER
  2
0
 70
     0
 62
     7
  6
CONTINUOUS
  0
LAYER
  2
SIZE
 70
     0
 62
    30
  6
CONTINUOUS
  0
LAYER
  2
BASIS
 70
     0
 62
     6
  6
DASHDOT
  0
LAYER
  2
OUTLINE
 70
     0
 62
     3
  6
CONTINUOUS
  0
LAYER
  2
DETAIL
 70
     0
 62
     5
  6
CONTINUOUS
  0
LAYER
  2
ARRANGE
 70
     0
 62
     1
  6
CONTINUOUS
  0
LAYER
  2
DEFPOINTS
 70
     0
 62
     7
  6
CONTINUOUS
  0
LAYER
  2
ETC
 70
     0
 62
    61
  6
CONTINUOUS
  0
LAYER
  2
NOTE
 70
     0
 62
     4
  6
CONTINUOUS
  0
LAYER
  2
FIX
 70
     0
 62
    11
  6
CONTINUOUS
  0
LAYER
  2
SERVICESPACE
 70
     0
 62
     2
  6
DASHDOT
  0
LAYER
  2
SYMBOLLINE
 70
     0
 62
    15
  6
CONTINUOUS
  0
ENDTAB
  0
TABLE
  2
STYLE
 70
     2
  0
STYLE
  2
STANDARD
 70
     0
 40
64.0
 41
0.9
 50
0.0
 71
     0
 42
64.0
  3
SIMPLEX.shx
  4
BIGFONT.shx
  0
STYLE
  2
ANNOTATIVE
 70
     0
 40
0.0
 41
1.0
 50
0.0
 71
     0
 42
0.2
  3
txt
  4

  0
ENDTAB
  0
TABLE
  2
VIEW
 70
     1
  0
VIEW
  2
ALL
 70
     0
 40
4282.6198079999986
 10
0.0
 20
41.309903999999989
 41
5940.0
 11
0.0
 21
0.0
 31
1.0
 12
0.0
 22
0.0
 32
0.0
 42
50.0
 43
0.0
 44
0.0
 50
0.0
 71
     0
  0
ENDTAB
  0
TABLE
  2
UCS
 70
     0
  0
ENDTAB
  0
TABLE
  2
APPID
 70
    18
  0
APPID
  2
ACAD
 70
     0
  0
APPID
  2
ACADANNOTATIVE
 70
     0
  0
APPID
  2
AUTOCAD_POSTSCRIPT_FIGURE
 70
     0
  0
APPID
  2
ACAD_EXEMPT_FROM_CAD_STANDARDS
 70
     0
  0
APPID
  2
ACAD_PSEXT
 70
     0
  0
APPID
  2
ACAUTHENVIRON
 70
     0
  0
APPID
  2
GENIUS_GENOENT_13
 70
     0
  0
APPID
  2
GENIUS_GENCFG_13
 70
     0
  0
APPID
  2
GENIUS_GENCFG0_13
 70
     0
  0
APPID
  2
GENIUS_GENCFG1_13
 70
     0
  0
APPID
  2
GENIUS_GENCFG2_13
 70
     0
  0
APPID
  2
GENIUS_GENCFG3_13
 70
     0
  0
APPID
  2
GENIUS_GENCFG4_13
 70
     0
  0
APPID
  2
GENIUS_GEVCFG0_13
 70
     0
  0
APPID
  2
CONTENTBLOCKICON
 70
     0
  0
APPID
  2
CONTENTBLOCKDESCRIPTION
 70
     0
  0
APPID
  2
ACAD_NAV_VCDISPLAY
 70
     0
  0
APPID
  2
ACAD_MLEADERVER
 70
     0
  0
ENDTAB
  0
TABLE
  2
DIMSTYLE
 70
     2
  0
DIMSTYLE
  2
STANDARD
 70
     0
  3

  4

  5

  6

  7

 40
1.0
 41
0.18
 42
0.0625
 43
0.38
 44
0.18
 45
0.0
 46
0.0
 47
0.0
 48
0.0
140
0.18
141
0.09
142
0.0
143
25.399999999999999
144
1.0
145
0.0
146
1.0
147
0.09
 71
     0
 72
     0
 73
     1
 74
     1
 75
     0
 76
     0
 77
     0
 78
     0
170
     0
171
     2
172
     0
173
     0
174
     0
175
     0
176
     7
177
     7
178
     7
  0
DIMSTYLE
  2
ANNOTATIVE
 70
     0
  3

  4

  5

  6

  7

 40
1.0
 41
0.18
 42
0.0625
 43
0.38
 44
0.18
 45
0.0
 46
0.0
 47
0.0
 48
0.0
140
0.18
141
0.09
142
0.0
143
25.399999999999999
144
1.0
145
0.0
146
1.0
147
0.09
 71
     0
 72
     0
 73
     1
 74
     1
 75
     0
 76
     0
 77
     0
 78
     0
170
     0
171
     2
172
     0
173
     0
174
     0
175
     0
176
     0
177
     0
178
     0
  0
ENDTAB
  0
ENDSEC
  0
SECTION
  2
BLOCKS
  0
BLOCK
  8
0
  2
$MODEL_SPACE
 70
     0
 10
0.0
 20
0.0
 30
0.0
  3
$MODEL_SPACE
  1

  0
ENDBLK
  5
6D
  8
0
  0
BLOCK
 67
     1
  8
0
  2
$PAPER_SPACE
 70
     0
 10
0.0
 20
0.0
 30
0.0
  3
$PAPER_SPACE
  1

  0
ENDBLK
  5
69
 67
     1
  8
0
  0
BLOCK
  8
0
  2
DOT1
 70
     0
 10
0.0
 20
0.0
 30
0.0
  3
DOT1
  1

  0
CIRCLE
  5
90
  8
SIZE
  6
CONTINUOUS
 62
     7
 10
0.0
 20
0.0
 30
0.0
 40
3.0
  0
ENDBLK
  5
91
  8
0
  0
BLOCK
  8
0
  2
_ORIGIN
 70
     0
 10
0.0
 20
0.0
 30
0.0
  3
_ORIGIN
  1

  0
CIRCLE
  5
94
  8
0
  6
CONTINUOUS
 62
     7
 10
0.0
 20
0.0
 30
0.0
 40
0.5
  0
LINE
  5
95
  8
0
  6
CONTINUOUS
 62
     7
 10
0.0
 20
0.0
 30
0.0
 11
-1.0
 21
0.0
 31
0.0
  0
ENDBLK
  5
96
  8
0
  0
ENDSEC
  0
SECTION
  2
ENTITIES
  0
CIRCLE
  5
97
  8
ARRANGE
  6
CONTINUOUS
 62
     1
 10
0.0
 20
0.0
 30
0.0
 40
40.0
  0
POINT
  5
98
  8
ARRANGE
  6
CONTINUOUS
 62
     1
 10
0.0
 20
0.0
 30
0.0
 39
50.0
  0
LINE
  5
99
  8
BASIS
  6
DASHDOT
 62
     6
 39
50.0
 10
0.0
 20
-86.299732000000006
 30
0.0
 11
0.0
 21
86.299732000000006
 31
0.0
  0
LINE
  5
9A
  8
BASIS
  6
DASHDOT
 62
     6
 39
50.0
 10
60.560581000000013
 20
0.0
 30
0.0
 11
-60.560581000000013
 21
0.0
 31
0.0
  0
TEXT
  5
9B
  8
ETC
  6
CONTINUOUS
 62
    61
 10
267.96419700000001
 20
397.0430740000001
 30
0.0
 40
64.0
  1
P-04SWLV2_3
 41
0.9
  0
TEXT
  5
9C
  8
ETC
  6
CONTINUOUS
 62
    61
 10
263.77820300000002
 20
279.08776399999999
 30
0.0
 40
64.0
  1
システム部材
 41
0.9
  0
TEXT
  5
9D
  8
ETC
  6
CONTINUOUS
 62
    61
 10
314.38570499999997
 20
172.16682800000001
 30
0.0
 40
40.0
  1
P-04SWLV2
 41
0.9
  0
ARC
  5
9E
  8
DETAIL
  6
CONTINUOUS
 62
     5
 10
13.0
 20
15.699999999999999
 30
0.0
 40
1.1999999999999991
 50
326.84476699999999
 51
146.84476699999999
  0
LINE
  5
9F
  8
DETAIL
  6
CONTINUOUS
 62
     5
 10
14.004630000000001
 20
15.043709
 30
0.0
 11
-11.995369999999999
 21
-24.756291000000001
 31
0.0
  0
LINE
  5
A0
  8
DETAIL
  6
CONTINUOUS
 62
     5
 10
11.995369999999999
 20
16.356290999999999
 30
0.0
 11
-14.004630000000001
 21
-23.443708999999998
 31
0.0
  0
ARC
  5
A1
  8
DETAIL
  6
CONTINUOUS
 62
     5
 10
-13.0
 20
-24.100000000000001
 30
0.0
 40
1.1999999999999991
 50
146.84476699999999
 51
326.84476699999999
  0
ARC
  5
A2
  8
DETAIL
  6
CONTINUOUS
 62
     5
 10
22.449999999999999
 20
-1.8
 30
0.0
 40
0.2
 50
270.0
 51
0.0
  0
LINE
  5
A3
  8
DETAIL
  6
CONTINUOUS
 62
     5
 10
21.75
 20
-2.0
 30
0.0
 11
22.449999999999999
 21
-2.0
 31
0.0
  0
ARC
  5
A4
  8
DETAIL
  6
CONTINUOUS
 62
     5
 10
21.75
 20
-1.8
 30
0.0
 40
0.2
 50
179.99999800000001
 51
270.0
  0
ARC
  5
A5
  8
DETAIL
  6
CONTINUOUS
 62
     5
 10
21.75
 20
0.2
 30
0.0
 40
0.2
 50
179.99999800000001
 51
270.0
  0
ARC
  5
A6
  8
DETAIL
  6
CONTINUOUS
 62
     5
 10
22.449999999999999
 20
0.2
 30
0.0
 40
0.2
 50
270.0
 51
0.0
  0
LINE
  5
A7
  8
DETAIL
  6
CONTINUOUS
 62
     5
 10
21.75
 20
0.0
 30
0.0
 11
22.449999999999999
 21
0.0
 31
0.0
  0
ARC
  5
A8
  8
DETAIL
  6
CONTINUOUS
 62
     5
 10
20.649999999999999
 20
30.949999999999999
 30
0.0
 40
0.5
 50
0.0
 51
90.0
  0
LINE
  5
A9
  8
DETAIL
  6
CONTINUOUS
 62
     5
 10
21.149999999999999
 20
7.9500000000000002
 30
0.0
 11
21.149999999999999
 21
-6.8499999999999988
 31
0.0
  0
ARC
  5
AA
  8
DETAIL
  6
CONTINUOUS
 62
     5
 10
20.649999999999999
 20
-29.850000000000001
 30
0.0
 40
0.5
 50
270.0
 51
0.0
  0
LINE
  5
AB
  8
DETAIL
  6
CONTINUOUS
 62
     5
 10
16.449999999999999
 20
8.25
 30
0.0
 11
16.449999999999999
 21
-7.2000000000000002
 31
0.0
  0
CIRCLE
  5
AC
  8
DETAIL
  6
CONTINUOUS
 62
     5
 10
11.0
 20
-50.5
 30
0.0
 40
2.75
  0
CIRCLE
  5
AD
  8
DETAIL
  6
CONTINUOUS
 62
     5
 10
11.0
 20
-50.5
 30
0.0
 40
1.75
  0
ARC
  5
AE
  8
DETAIL
  6
CONTINUOUS
 62
     5
 10
20.649999999999999
 20
-43.0
 30
0.0
 40
2.0
 50
270.0
 51
0.0
  0
ARC
  5
AF
  8
DETAIL
  6
CONTINUOUS
 62
     5
 10
20.649999999999999
 20
-48.5
 30
0.0
 40
2.0
 50
0.0
 51
90.0
  0
LINE
  5
B0
  8
DETAIL
  6
CONTINUOUS
 62
     5
 10
20.649999999999999
 20
-46.5
 30
0.0
 11
17.649999999999999
 21
-46.5
 31
0.0
  0
LINE
  5
B1
  8
DETAIL
  6
CONTINUOUS
 62
     5
 10
17.649999999999999
 20
-46.5
 30
0.0
 11
17.649999999999999
 21
-45.0
 31
0.0
  0
LINE
  5
B2
  8
DETAIL
  6
CONTINUOUS
 62
     5
 10
17.649999999999999
 20
-45.0
 30
0.0
 11
20.649999999999999
 21
-45.0
 31
0.0
  0
ARC
  5
B3
  8
DETAIL
  6
CONTINUOUS
 62
     5
 10
19.399999999999999
 20
-7.5999999999999988
 30
0.0
 40
0.75
 50
90.0
 51
179.99999800000001
  0
ARC
  5
B4
  8
DETAIL
  6
CONTINUOUS
 62
     5
 10
19.399999999999999
 20
-7.5999999999999988
 30
0.0
 40
0.75
 50
179.99999800000001
 51
270.0
  0
LINE
  5
B5
  8
DETAIL
  6
CONTINUOUS
 62
     5
 10
19.399999999999999
 20
-8.3499999999999996
 30
0.0
 11
21.383330000000001
 21
-8.3499999999999996
 31
0.0
  0
LINE
  5
B6
  8
DETAIL
  6
CONTINUOUS
 62
     5
 10
21.383330000000001
 20
-8.3499999999999996
 30
0.0
 11
21.383330000000001
 21
-6.8499999999999988
 31
0.0
  0
LINE
  5
B7
  8
DETAIL
  6
CONTINUOUS
 62
     5
 10
21.383330000000001
 20
-6.8499999999999988
 30
0.0
 11
19.399999999999999
 21
-6.8499999999999988
 31
0.0
  0
ARC
  5
B8
  8
DETAIL
  6
CONTINUOUS
 62
     5
 10
19.399999999999999
 20
8.6999999999999993
 30
0.0
 40
0.75
 50
179.99999800000001
 51
270.0
  0
ARC
  5
B9
  8
DETAIL
  6
CONTINUOUS
 62
     5
 10
19.399999999999999
 20
8.6999999999999993
 30
0.0
 40
0.75
 50
90.0
 51
179.99999800000001
  0
LINE
  5
BA
  8
DETAIL
  6
CONTINUOUS
 62
     5
 10
19.399999999999999
 20
9.4499999999999993
 30
0.0
 11
21.383330000000001
 21
9.4499999999999993
 31
0.0
  0
LINE
  5
BB
  8
DETAIL
  6
CONTINUOUS
 62
     5
 10
21.383330000000001
 20
9.4499999999999993
 30
0.0
 11
21.383330000000001
 21
7.9500000000000002
 31
0.0
  0
LINE
  5
BC
  8
DETAIL
  6
CONTINUOUS
 62
     5
 10
21.383330000000001
 20
7.9500000000000002
 30
0.0
 11
19.399999999999999
 21
7.9500000000000002
 31
0.0
  0
ARC
  5
BD
  8
DETAIL
  6
CONTINUOUS
 62
     5
 10
22.449999999999999
 20
4.2999999999999989
 30
0.0
 40
0.2
 50
270.0
 51
0.0
  0
LINE
  5
BE
  8
DETAIL
  6
CONTINUOUS
 62
     5
 10
22.649999999999999
 20
4.2999999999999989
 30
0.0
 11
22.649999999999999
 21
4.5999999999999988
 31
0.0
  0
LINE
  5
BF
  8
DETAIL
  6
CONTINUOUS
 62
     5
 10
21.550000000000001
 20
4.5999999999999988
 30
0.0
 11
21.550000000000001
 21
4.2999999999999989
 31
0.0
  0
ARC
  5
C0
  8
DETAIL
  6
CONTINUOUS
 62
     5
 10
21.75
 20
4.2999999999999989
 30
0.0
 40
0.2
 50
179.99999800000001
 51
270.0
  0
LINE
  5
C1
  8
DETAIL
  6
CONTINUOUS
 62
     5
 10
21.75
 20
4.0999999999999988
 30
0.0
 11
22.449999999999999
 21
4.0999999999999988
 31
0.0
  0
ARC
  5
C2
  8
DETAIL
  6
CONTINUOUS
 62
     5
 10
22.449999999999999
 20
4.2000000000000002
 30
0.0
 40
0.2
 50
270.0
 51
0.0
  0
LINE
  5
C3
  8
DETAIL
  6
CONTINUOUS
 62
     5
 10
22.649999999999999
 20
4.2000000000000002
 30
0.0
 11
22.649999999999999
 21
4.5
 31
0.0
  0
LINE
  5
C4
  8
DETAIL
  6
CONTINUOUS
 62
     5
 10
21.550000000000001
 20
4.5
 30
0.0
 11
21.550000000000001
 21
4.2000000000000002
 31
0.0
  0
ARC
  5
C5
  8
DETAIL
  6
CONTINUOUS
 62
     5
 10
21.75
 20
4.2000000000000002
 30
0.0
 40
0.2
 50
179.99999800000001
 51
270.0
  0
LINE
  5
C6
  8
DETAIL
  6
CONTINUOUS
 62
     5
 10
21.75
 20
4.0
 30
0.0
 11
22.449999999999999
 21
4.0
 31
0.0
  0
ARC
  5
C7
  8
DETAIL
  6
CONTINUOUS
 62
     5
 10
20.649999999999999
 20
43.0
 30
0.0
 40
2.0
 50
0.0
 51
90.0
  0
ARC
  5
C8
  8
DETAIL
  6
CONTINUOUS
 62
     5
 10
20.649999999999999
 20
48.5
 30
0.0
 40
2.0
 50
270.0
 51
0.0
  0
LINE
  5
C9
  8
DETAIL
  6
CONTINUOUS
 62
     5
 10
20.649999999999999
 20
46.5
 30
0.0
 11
17.649999999999999
 21
46.5
 31
0.0
  0
LINE
  5
CA
  8
DETAIL
  6
CONTINUOUS
 62
     5
 10
17.649999999999999
 20
46.5
 30
0.0
 11
17.649999999999999
 21
45.0
 31
0.0
  0
LINE
  5
CB
  8
DETAIL
  6
CONTINUOUS
 62
     5
 10
17.649999999999999
 20
45.0
 30
0.0
 11
20.649999999999999
 21
45.0
 31
0.0
  0
ARC
  5
CC
  8
DETAIL
  6
CONTINUOUS
 62
     5
 10
18.850000000000001
 20
31.649999999999999
 30
0.0
 40
0.2
 50
179.99999800000001
 51
270.0
  0
LINE
  5
CD
  8
DETAIL
  6
CONTINUOUS
 62
     5
 10
18.850000000000001
 20
31.449999999999999
 30
0.0
 11
21.050000000000001
 21
31.449999999999999
 31
0.0
  0
ARC
  5
CE
  8
DETAIL
  6
CONTINUOUS
 62
     5
 10
21.050000000000001
 20
30.949999999999999
 30
0.0
 40
0.5
 50
0.0
 51
90.0
  0
LINE
  5
CF
  8
DETAIL
  6
CONTINUOUS
 62
     5
 10
21.550000000000001
 20
30.949999999999999
 30
0.0
 11
21.550000000000001
 21
-29.850000000000001
 31
0.0
  0
ARC
  5
D0
  8
DETAIL
  6
CONTINUOUS
 62
     5
 10
21.050000000000001
 20
-29.850000000000001
 30
0.0
 40
0.5
 50
270.0
 51
0.0
  0
LINE
  5
D1
  8
DETAIL
  6
CONTINUOUS
 62
     5
 10
21.050000000000001
 20
-30.350000000000001
 30
0.0
 11
18.850000000000001
 21
-30.350000000000001
 31
0.0
  0
ARC
  5
D2
  8
DETAIL
  6
CONTINUOUS
 62
     5
 10
18.850000000000001
 20
-30.550000000000001
 30
0.0
 40
0.2
 50
90.0
 51
179.99999800000001
  0
LINE
  5
D3
  8
DETAIL
  6
CONTINUOUS
 62
     5
 10
18.649999999999999
 20
-30.550000000000001
 30
0.0
 11
18.649999999999999
 21
-31.100000000000001
 31
0.0
  0
LINE
  5
D4
  8
DETAIL
  6
CONTINUOUS
 62
     5
 10
18.649999999999999
 20
32.20000000000001
 30
0.0
 11
18.649999999999999
 21
31.649999999999999
 31
0.0
  0
ARC
  5
D5
  8
DETAIL
  6
CONTINUOUS
 62
     5
 10
20.649999999999999
 20
-29.800000000000001
 30
0.0
 40
2.0
 50
270.0
 51
0.0
  0
ARC
  5
D6
  8
DETAIL
  6
CONTINUOUS
 62
     5
 10
20.649999999999999
 20
-30.100000000000001
 30
0.0
 40
2.0
 50
270.0
 51
0.0
  0
LINE
  5
D7
  8
DETAIL
  6
CONTINUOUS
 62
     5
 10
22.649999999999999
 20
-33.5
 30
0.0
 11
22.649999999999999
 21
-27.199999999999999
 31
0.0
  0
LINE
  5
D8
  8
DETAIL
  6
CONTINUOUS
 62
     5
 10
20.649999999999999
 20
34.200000000000003
 30
0.0
 11
20.649999999999999
 21
33.200000000000003
 31
0.0
  0
ARC
  5
D9
  8
DETAIL
  6
CONTINUOUS
 62
     5
 10
20.649999999999999
 20
31.199999999999999
 30
0.0
 40
2.0
 50
0.0
 51
90.0
  0
ARC
  5
DA
  8
DETAIL
  6
CONTINUOUS
 62
     5
 10
20.649999999999999
 20
30.899999999999999
 30
0.0
 40
2.0
 50
0.0
 51
90.0
  0
ARC
  5
DB
  8
DETAIL
  6
CONTINUOUS
 62
     5
 10
20.649999999999999
 20
33.5
 30
0.0
 40
2.0
 50
0.0
 51
90.0
  0
LINE
  5
DC
  8
DETAIL
  6
CONTINUOUS
 62
     5
 10
22.649999999999999
 20
33.5
 30
0.0
 11
22.649999999999999
 21
27.199999999999999
 31
0.0
  0
ARC
  5
DD
  8
DETAIL
  6
CONTINUOUS
 62
     5
 10
20.649999999999999
 20
53.0
 30
0.0
 40
2.0
 50
0.0
 51
90.0
  0
LINE
  5
DE
  8
DETAIL
  6
CONTINUOUS
 62
     5
 10
22.649999999999999
 20
53.0
 30
0.0
 11
22.649999999999999
 21
-53.0
 31
0.0
  0
ARC
  5
DF
  8
DETAIL
  6
CONTINUOUS
 62
     5
 10
20.649999999999999
 20
-53.0
 30
0.0
 40
2.0
 50
270.0
 51
0.0
  0
ARC
  5
E0
  8
DETAIL
  6
CONTINUOUS
 62
     5
 10
14.65
 20
8.75
 30
0.0
 40
0.5
 50
180.0
 51
270.0
  0
LINE
  5
E1
  8
DETAIL
  6
CONTINUOUS
 62
     5
 10
14.65
 20
8.25
 30
0.0
 11
16.449967000000001
 21
8.25
 31
0.0
  0
LINE
  5
E2
  8
DETAIL
  6
CONTINUOUS
 62
     5
 10
16.449967000000001
 20
-7.2000000000000002
 30
0.0
 11
14.65
 21
-7.2000000000000002
 31
0.0
  0
ARC
  5
E3
  8
DETAIL
  6
CONTINUOUS
 62
     5
 10
14.65
 20
-7.7000000000000002
 30
0.0
 40
0.5
 50
90.0
 51
180.0
  0
ARC
  5
E4
  8
DETAIL
  6
CONTINUOUS
 62
     5
 10
20.649999999999999
 20
-33.5
 30
0.0
 40
2.0
 50
270.0
 51
0.0
  0
LINE
  5
E5
  8
DETAIL
  6
CONTINUOUS
 62
     5
 10
14.15
 20
32.20000000000001
 30
0.0
 11
14.15
 21
31.500115999999998
 31
0.0
  0
LINE
  5
E6
  8
DETAIL
  6
CONTINUOUS
 62
     5
 10
21.149999999999999
 20
30.949999999999999
 30
0.0
 11
21.149999999999999
 21
30.913067999999999
 31
0.0
  0
LINE
  5
E7
  8
DETAIL
  6
CONTINUOUS
 62
     5
 10
14.15
 20
9.3998840000000001
 30
0.0
 11
14.15
 21
8.75
 31
0.0
  0
LINE
  5
E8
  8
DETAIL
  6
CONTINUOUS
 62
     5
 10
14.15
 20
-7.7000000000000002
 30
0.0
 11
14.15
 21
-8.2998840000000005
 31
0.0
  0
LINE
  5
E9
  8
DETAIL
  6
CONTINUOUS
 62
     5
 10
14.15
 20
-31.100000000000001
 30
0.0
 11
14.15
 21
-30.400116000000001
 31
0.0
  0
LINE
  5
EA
  8
DETAIL
  6
CONTINUOUS
 62
     5
 10
21.149999999999999
 20
-8.3499999999999996
 30
0.0
 11
21.149999999999999
 21
-8.8869319999999998
 31
0.0
  0
LINE
  5
EB
  8
DETAIL
  6
CONTINUOUS
 62
     5
 10
21.149999999999999
 20
-29.813068000000001
 30
0.0
 11
21.149999999999999
 21
-29.850000000000001
 31
0.0
  0
LINE
  5
EC
  8
NOTE
  6
CONTINUOUS
 62
     4
 10
8.9529189999999996
 20
41.749999999999993
 30
0.0
 11
-8.4182600000000001
 21
41.749999999999993
 31
0.0
  0
LINE
  5
ED
  8
NOTE
  6
CONTINUOUS
 62
     4
 10
8.9529189999999996
 20
-41.749999999999993
 30
0.0
 11
-8.4182600000000001
 21
-41.749999999999993
 31
0.0
  0
ARC
  5
EE
  8
DETAIL
  6
CONTINUOUS
 62
     5
 10
-18.850000000000001
 20
-31.100000000000001
 30
0.0
 40
0.5
 50
0.0
 51
90.0
  0
LINE
  5
EF
  8
DETAIL
  6
CONTINUOUS
 62
     5
 10
-18.850000000000001
 20
-30.600000000000001
 30
0.0
 11
-21.199999999999999
 21
-30.600000000000001
 31
0.0
  0
ARC
  5
F0
  8
DETAIL
  6
CONTINUOUS
 62
     5
 10
-21.199999999999999
 20
-29.850000000000001
 30
0.0
 40
0.75
 50
179.99999800000001
 51
270.0
  0
LINE
  5
F1
  8
DETAIL
  6
CONTINUOUS
 62
     5
 10
-21.949999999999999
 20
-29.850000000000001
 30
0.0
 11
-21.949999999999999
 21
30.949999999999999
 31
0.0
  0
ARC
  5
F2
  8
DETAIL
  6
CONTINUOUS
 62
     5
 10
-21.199999999999999
 20
30.949999999999999
 30
0.0
 40
0.75
 50
90.0
 51
179.99999800000001
  0
LINE
  5
F3
  8
DETAIL
  6
CONTINUOUS
 62
     5
 10
-21.199999999999999
 20
31.699999999999999
 30
0.0
 11
-18.850000000000001
 21
31.699999999999999
 31
0.0
  0
ARC
  5
F4
  8
DETAIL
  6
CONTINUOUS
 62
     5
 10
-18.850000000000001
 20
32.20000000000001
 30
0.0
 40
0.5
 50
270.0
 51
0.0
  0
LINE
  5
F5
  8
DETAIL
  6
CONTINUOUS
 62
     5
 10
-18.350000000000001
 20
32.20000000000001
 30
0.0
 11
-18.350000000000001
 21
32.399999999999999
 31
0.0
  0
ARC
  5
F6
  8
DETAIL
  6
CONTINUOUS
 62
     5
 10
-18.850000000000001
 20
32.399999999999999
 30
0.0
 40
0.5
 50
0.0
 51
90.0
  0
ARC
  5
F7
  8
DETAIL
  6
CONTINUOUS
 62
     5
 10
-18.850000000000001
 20
-31.300000000000001
 30
0.0
 40
0.5
 50
270.0
 51
0.0
  0
LINE
  5
F8
  8
DETAIL
  6
CONTINUOUS
 62
     5
 10
-18.350000000000001
 20
-31.300000000000001
 30
0.0
 11
-18.350000000000001
 21
-31.100000000000001
 31
0.0
  0
LINE
  5
F9
  8
DETAIL
  6
CONTINUOUS
 62
     5
 10
-21.649999999999999
 20
8.4944290000000002
 30
0.0
 11
-21.649999999999999
 21
7.5
 31
0.0
  0
LINE
  5
FA
  8
DETAIL
  6
CONTINUOUS
 62
     5
 10
-21.649999999999999
 20
-6.4944300000000004
 30
0.0
 11
-21.649999999999999
 21
-5.5
 31
0.0
  0
LINE
  5
FB
  8
DETAIL
  6
CONTINUOUS
 62
     5
 10
-21.649999999999999
 20
-24.5
 30
0.0
 11
-21.649705999999998
 21
-22.799872000000001
 31
0.0
  0
ARC
  5
FC
  8
DETAIL
  6
CONTINUOUS
 62
     5
 10
-18.550000000000001
 20
-30.550000000000001
 30
0.0
 40
0.2
 50
0.0
 51
90.0
  0
LINE
  5
FD
  8
DETAIL
  6
CONTINUOUS
 62
     5
 10
-18.550000000000001
 20
-30.350000000000001
 30
0.0
 11
-21.449999999999999
 21
-30.350000000000001
 31
0.0
  0
ARC
  5
FE
  8
DETAIL
  6
CONTINUOUS
 62
     5
 10
-21.449999999999999
 20
-29.850000000000001
 30
0.0
 40
0.5
 50
179.99999800000001
 51
270.0
  0
LINE
  5
FF
  8
DETAIL
  6
CONTINUOUS
 62
     5
 10
-18.350000000000001
 20
-31.100000000000001
 30
0.0
 11
-18.350000000000001
 21
-30.550000000000001
 31
0.0
  0
ARC
  5
100
  8
DETAIL
  6
CONTINUOUS
 62
     5
 10
-20.350000000000001
 20
-31.100000000000001
 30
0.0
 40
0.5
 50
0.0
 51
90.0
  0
ARC
  5
101
  8
DETAIL
  6
CONTINUOUS
 62
     5
 10
-20.350000000000001
 20
-31.300000000000001
 30
0.0
 40
0.5
 50
270.0
 51
0.0
  0
LINE
  5
102
  8
DETAIL
  6
CONTINUOUS
 62
     5
 10
-19.850000000000001
 20
-31.300000000000001
 30
0.0
 11
-19.850000000000001
 21
-31.100000000000001
 31
0.0
  0
ARC
  5
103
  8
DETAIL
  6
CONTINUOUS
 62
     5
 10
-21.050000000000001
 20
-43.0
 30
0.0
 40
2.0
 50
179.99999800000001
 51
270.0
  0
ARC
  5
104
  8
DETAIL
  6
CONTINUOUS
 62
     5
 10
-21.050000000000001
 20
-48.5
 30
0.0
 40
2.0
 50
90.0
 51
179.99999800000001
  0
LINE
  5
105
  8
DETAIL
  6
CONTINUOUS
 62
     5
 10
-21.050000000000001
 20
-46.5
 30
0.0
 11
-17.350000000000001
 21
-46.5
 31
0.0
  0
LINE
  5
106
  8
DETAIL
  6
CONTINUOUS
 62
     5
 10
-17.350000000000001
 20
-46.5
 30
0.0
 11
-17.350000000000001
 21
-45.0
 31
0.0
  0
LINE
  5
107
  8
DETAIL
  6
CONTINUOUS
 62
     5
 10
-17.350000000000001
 20
-45.0
 30
0.0
 11
-21.050000000000001
 21
-45.0
 31
0.0
  0
ARC
  5
108
  8
DETAIL
  6
CONTINUOUS
 62
     5
 10
-19.100000000000001
 20
-7.5999999999999988
 30
0.0
 40
0.75
 50
0.0
 51
90.0
  0
ARC
  5
109
  8
DETAIL
  6
CONTINUOUS
 62
     5
 10
-19.100000000000001
 20
-7.5999999999999988
 30
0.0
 40
0.75
 50
270.0
 51
0.0
  0
LINE
  5
10A
  8
DETAIL
  6
CONTINUOUS
 62
     5
 10
-19.100000000000001
 20
-8.3499999999999996
 30
0.0
 11
-21.649999999999999
 21
-8.3499999999999996
 31
0.0
  0
LINE
  5
10B
  8
DETAIL
  6
CONTINUOUS
 62
     5
 10
-21.649999999999999
 20
-4.25
 30
0.0
 11
-21.649999999999999
 21
-2.75
 31
0.0
  0
LINE
  5
10C
  8
DETAIL
  6
CONTINUOUS
 62
     5
 10
-21.649999999999999
 20
-6.8499999999999988
 30
0.0
 11
-19.100000000000001
 21
-6.8499999999999988
 31
0.0
  0
ARC
  5
10D
  8
DETAIL
  6
CONTINUOUS
 62
     5
 10
-19.100000000000001
 20
8.6999999999999993
 30
0.0
 40
0.75
 50
270.0
 51
0.0
  0
ARC
  5
10E
  8
DETAIL
  6
CONTINUOUS
 62
     5
 10
-19.100000000000001
 20
8.6999999999999993
 30
0.0
 40
0.75
 50
0.0
 51
90.0
  0
LINE
  5
10F
  8
DETAIL
  6
CONTINUOUS
 62
     5
 10
-19.100000000000001
 20
9.4499999999999993
 30
0.0
 11
-21.649999999999999
 21
9.4499999999999993
 31
0.0
  0
LINE
  5
110
  8
DETAIL
  6
CONTINUOUS
 62
     5
 10
-21.649999999999999
 20
6.25
 30
0.0
 11
-21.649999999999999
 21
4.75
 31
0.0
  0
LINE
  5
111
  8
DETAIL
  6
CONTINUOUS
 62
     5
 10
-21.649999999999999
 20
7.9500000000000002
 30
0.0
 11
-19.100000000000001
 21
7.9500000000000002
 31
0.0
  0
LINE
  5
112
  8
DETAIL
  6
CONTINUOUS
 62
     5
 10
-21.949999999999999
 20
4.2000000000000002
 30
0.0
 11
-21.949999999999999
 21
4.5
 31
0.0
  0
LINE
  5
113
  8
DETAIL
  6
CONTINUOUS
 62
     5
 10
-23.050000000000001
 20
4.5
 30
0.0
 11
-23.050000000000001
 21
4.2000000000000002
 31
0.0
  0
LINE
  5
114
  8
DETAIL
  6
CONTINUOUS
 62
     5
 10
-21.949999999999999
 20
4.7000000000000002
 30
0.0
 11
-21.949999999999999
 21
5.0
 31
0.0
  0
LINE
  5
115
  8
DETAIL
  6
CONTINUOUS
 62
     5
 10
-23.050000000000001
 20
5.0
 30
0.0
 11
-23.050000000000001
 21
4.7000000000000002
 31
0.0
  0
ARC
  5
116
  8
DETAIL
  6
CONTINUOUS
 62
     5
 10
-20.350000000000001
 20
32.399999999999999
 30
0.0
 40
0.5
 50
0.0
 51
90.0
  0
LINE
  5
117
  8
DETAIL
  6
CONTINUOUS
 62
     5
 10
-19.850000000000001
 20
32.399999999999999
 30
0.0
 11
-19.850000000000001
 21
32.20000000000001
 31
0.0
  0
ARC
  5
118
  8
DETAIL
  6
CONTINUOUS
 62
     5
 10
-20.350000000000001
 20
32.20000000000001
 30
0.0
 40
0.5
 50
270.0
 51
0.0
  0
ARC
  5
119
  8
DETAIL
  6
CONTINUOUS
 62
     5
 10
-18.550000000000001
 20
31.649999999999999
 30
0.0
 40
0.2
 50
270.0
 51
0.0
  0
LINE
  5
11A
  8
DETAIL
  6
CONTINUOUS
 62
     5
 10
-18.550000000000001
 20
31.449999999999999
 30
0.0
 11
-21.449999999999999
 21
31.449999999999999
 31
0.0
  0
ARC
  5
11B
  8
DETAIL
  6
CONTINUOUS
 62
     5
 10
-21.449999999999999
 20
30.949999999999999
 30
0.0
 40
0.5
 50
90.0
 51
179.99999800000001
  0
LINE
  5
11C
  8
DETAIL
  6
CONTINUOUS
 62
     5
 10
-18.350000000000001
 20
32.20000000000001
 30
0.0
 11
-18.350000000000001
 21
31.649999999999999
 31
0.0
  0
ARC
  5
11D
  8
DETAIL
  6
CONTINUOUS
 62
     5
 10
-21.050000000000001
 20
43.0
 30
0.0
 40
2.0
 50
90.0
 51
179.99999800000001
  0
ARC
  5
11E
  8
DETAIL
  6
CONTINUOUS
 62
     5
 10
-21.050000000000001
 20
48.5
 30
0.0
 40
2.0
 50
179.99999800000001
 51
270.0
  0
LINE
  5
11F
  8
DETAIL
  6
CONTINUOUS
 62
     5
 10
-21.050000000000001
 20
46.5
 30
0.0
 11
-17.350000000000001
 21
46.5
 31
0.0
  0
LINE
  5
120
  8
DETAIL
  6
CONTINUOUS
 62
     5
 10
-17.350000000000001
 20
46.5
 30
0.0
 11
-17.350000000000001
 21
45.0
 31
0.0
  0
LINE
  5
121
  8
DETAIL
  6
CONTINUOUS
 62
     5
 10
-17.350000000000001
 20
45.0
 30
0.0
 11
-21.050000000000001
 21
45.0
 31
0.0
  0
LINE
  5
122
  8
DETAIL
  6
CONTINUOUS
 62
     5
 10
18.649999999999999
 20
-31.100000000000001
 30
0.0
 11
-18.350000000000001
 21
-31.100000000000001
 31
0.0
  0
LINE
  5
123
  8
DETAIL
  6
CONTINUOUS
 62
     5
 10
-18.350000000000001
 20
32.20000000000001
 30
0.0
 11
18.649999999999999
 21
32.20000000000001
 31
0.0
  0
LINE
  5
124
  8
DETAIL
  6
CONTINUOUS
 62
     5
 10
20.649999999999999
 20
-31.800000000000001
 30
0.0
 11
-21.050000000000001
 21
-31.800000000000001
 31
0.0
  0
ARC
  5
125
  8
DETAIL
  6
CONTINUOUS
 62
     5
 10
-21.050000000000001
 20
-29.800000000000001
 30
0.0
 40
2.0
 50
179.99999800000001
 51
270.0
  0
LINE
  5
126
  8
DETAIL
  6
CONTINUOUS
 62
     5
 10
20.649999999999999
 20
-32.100000000000001
 30
0.0
 11
-21.050000000000001
 21
-32.100000000000001
 31
0.0
  0
ARC
  5
127
  8
DETAIL
  6
CONTINUOUS
 62
     5
 10
-21.050000000000001
 20
-30.100000000000001
 30
0.0
 40
2.0
 50
179.99999800000001
 51
270.0
  0
LINE
  5
128
  8
DETAIL
  6
CONTINUOUS
 62
     5
 10
-23.050000000000001
 20
-27.5
 30
0.0
 11
-23.050000000000001
 21
-33.5
 31
0.0
  0
LINE
  5
129
  8
DETAIL
  6
CONTINUOUS
 62
     5
 10
-21.050000000000001
 20
34.200000000000003
 30
0.0
 11
-21.050000000000001
 21
33.200000000000003
 31
0.0
  0
LINE
  5
12A
  8
DETAIL
  6
CONTINUOUS
 62
     5
 10
20.649999999999999
 20
33.200000000000003
 30
0.0
 11
-21.050000000000001
 21
33.200000000000003
 31
0.0
  0
ARC
  5
12B
  8
DETAIL
  6
CONTINUOUS
 62
     5
 10
-21.050000000000001
 20
31.199999999999999
 30
0.0
 40
2.0
 50
90.0
 51
179.99999800000001
  0
LINE
  5
12C
  8
DETAIL
  6
CONTINUOUS
 62
     5
 10
20.649999999999999
 20
32.899999999999999
 30
0.0
 11
-21.050000000000001
 21
32.899999999999999
 31
0.0
  0
ARC
  5
12D
  8
DETAIL
  6
CONTINUOUS
 62
     5
 10
-21.050000000000001
 20
30.899999999999999
 30
0.0
 40
2.0
 50
90.0
 51
179.99999800000001
  0
ARC
  5
12E
  8
DETAIL
  6
CONTINUOUS
 62
     5
 10
-21.050000000000001
 20
33.5
 30
0.0
 40
2.0
 50
90.0
 51
179.99999800000001
  0
LINE
  5
12F
  8
DETAIL
  6
CONTINUOUS
 62
     5
 10
-21.050000000000001
 20
35.5
 30
0.0
 11
20.649999999999999
 21
35.5
 31
0.0
  0
LINE
  5
130
  8
DETAIL
  6
CONTINUOUS
 62
     5
 10
-23.050000000000001
 20
27.5
 30
0.0
 11
-23.050000000000001
 21
33.5
 31
0.0
  0
ARC
  5
131
  8
DETAIL
  6
CONTINUOUS
 62
     5
 10
-21.050000000000001
 20
53.0
 30
0.0
 40
2.0
 50
90.0
 51
179.99999800000001
  0
LINE
  5
132
  8
DETAIL
  6
CONTINUOUS
 62
     5
 10
-21.050000000000001
 20
55.0
 30
0.0
 11
20.649999999999999
 21
55.0
 31
0.0
  0
LINE
  5
133
  8
DETAIL
  6
CONTINUOUS
 62
     5
 10
20.649999999999999
 20
-55.0
 30
0.0
 11
-21.050000000000001
 21
-55.0
 31
0.0
  0
ARC
  5
134
  8
DETAIL
  6
CONTINUOUS
 62
     5
 10
-21.050000000000001
 20
-53.0
 30
0.0
 40
2.0
 50
179.99999800000001
 51
270.0
  0
LINE
  5
135
  8
DETAIL
  6
CONTINUOUS
 62
     5
 10
-23.050000000000001
 20
-53.0
 30
0.0
 11
-23.050000000000001
 21
53.0
 31
0.0
  0
CIRCLE
  5
136
  8
DETAIL
  6
CONTINUOUS
 62
     5
 10
-11.0
 20
50.5
 30
0.0
 40
1.75
  0
CIRCLE
  5
137
  8
DETAIL
  6
CONTINUOUS
 62
     5
 10
-11.0
 20
50.5
 30
0.0
 40
2.75
  0
LINE
  5
138
  8
DETAIL
  6
CONTINUOUS
 62
     5
 10
-21.050000000000001
 20
-35.5
 30
0.0
 11
20.649999999999999
 21
-35.5
 31
0.0
  0
ARC
  5
139
  8
DETAIL
  6
CONTINUOUS
 62
     5
 10
-21.050000000000001
 20
-33.5
 30
0.0
 40
2.0
 50
180.0
 51
270.0
  0
ARC
  5
13A
  8
DETAIL
  6
CONTINUOUS
 62
     5
 10
-15.050000000000001
 20
30.699999999999999
 30
0.0
 40
1.5
 50
90.0
 51
147.76380900000001
  0
LINE
  5
13B
  8
DETAIL
  6
CONTINUOUS
 62
     5
 10
-21.649999999999999
 20
10.154999999999999
 30
0.0
 11
-21.271996000000001
 21
10.154999999999999
 31
0.0
  0
LINE
  5
13C
  8
DETAIL
  6
CONTINUOUS
 62
     5
 10
-20.850000000000001
 20
9.4499999999999993
 30
0.0
 11
-20.850000000000001
 21
9.7140789999999981
 31
0.0
  0
ARC
  5
13D
  8
DETAIL
  6
CONTINUOUS
 62
     5
 10
-21.150030999999998
 20
11.154999999999999
 30
0.0
 40
0.5
 50
134.42203000000001
 51
180.63830799999991
  0
LINE
  5
13E
  8
DETAIL
  6
CONTINUOUS
 62
     5
 10
-20.850000000000001
 20
31.185921
 30
0.0
 11
-20.850000000000001
 21
31.449999999999999
 31
0.0
  0
LINE
  5
13F
  8
DETAIL
  6
CONTINUOUS
 62
     5
 10
-21.271996000000001
 20
30.745000000000001
 30
0.0
 11
-21.649999999999999
 21
30.745000000000001
 31
0.0
  0
ARC
  5
140
  8
DETAIL
  6
CONTINUOUS
 62
     5
 10
-21.349703999999999
 20
29.045000999999999
 30
0.0
 40
0.300002
 50
180.02472900000001
 51
239.934922
  0
LINE
  5
141
  8
DETAIL
  6
CONTINUOUS
 62
     5
 10
-21.650473000000002
 20
30.745000000000001
 30
0.0
 11
-21.650473000000002
 21
28.647445999999999
 31
0.0
  0
LINE
  5
142
  8
DETAIL
  6
CONTINUOUS
 62
     5
 10
-21.650473000000002
 20
25.752554
 30
0.0
 11
-21.650473000000002
 21
15.147446
 31
0.0
  0
LINE
  5
143
  8
DETAIL
  6
CONTINUOUS
 62
     5
 10
-16.550000000000001
 20
-8.2998840000000005
 30
0.0
 11
-16.550000000000001
 21
9.3998840000000001
 31
0.0
  0
ARC
  5
144
  8
DETAIL
  6
CONTINUOUS
 62
     5
 10
-15.050000000000001
 20
-29.600000000000001
 30
0.0
 40
1.5
 50
212.23619099999999
 51
270.0
  0
LINE
  5
145
  8
DETAIL
  6
CONTINUOUS
 62
     5
 10
-21.5
 20
-28.850000000000001
 30
0.0
 11
-21.649999999999999
 21
-28.850000000000001
 31
0.0
  0
LINE
  5
146
  8
DETAIL
  6
CONTINUOUS
 62
     5
 10
-20.850000000000001
 20
-30.350000000000001
 30
0.0
 11
-20.850000000000001
 21
-30.085920999999999
 31
0.0
  0
LINE
  5
147
  8
DETAIL
  6
CONTINUOUS
 62
     5
 10
-20.850000000000001
 20
-8.6140789999999985
 30
0.0
 11
-20.850000000000001
 21
-8.3499999999999996
 31
0.0
  0
LINE
  5
148
  8
DETAIL
  6
CONTINUOUS
 62
     5
 10
-21.649999999999999
 20
-9.8499999999999996
 30
0.0
 11
-21.5
 21
-9.8499999999999996
 31
0.0
  0
ARC
  5
149
  8
DETAIL
  6
CONTINUOUS
 62
     5
 10
-21.150030999999998
 20
-10.85
 30
0.0
 40
0.5
 50
179.36169200000001
 51
216.86989800000001
  0
LINE
  5
14A
  8
DETAIL
  6
CONTINUOUS
 62
     5
 10
-21.650473000000002
 20
-27.547446000000001
 30
0.0
 11
-21.650473000000002
 21
-28.850000000000001
 31
0.0
  0
LINE
  5
14B
  8
DETAIL
  6
CONTINUOUS
 62
     5
 10
-21.5
 20
-24.550000000000001
 30
0.0
 11
-21.649999999999999
 21
-24.550000000000001
 31
0.0
  0
LINE
  5
14C
  8
DETAIL
  6
CONTINUOUS
 62
     5
 10
-21.650473000000002
 20
12.25
 30
0.0
 11
-21.650473000000002
 21
-11.152554
 31
0.0
  0
LINE
  5
14D
  8
DETAIL
  6
CONTINUOUS
 62
     5
 10
-21.650473000000002
 20
-14.047446000000001
 30
0.0
 11
-21.650473000000002
 21
-24.652553999999999
 31
0.0
  0
CIRCLE
  5
14E
  8
DETAIL
  6
CONTINUOUS
 62
     5
 10
13.0
 20
25.199999999999999
 30
0.0
 40
1.1999999999999991
  0
CIRCLE
  5
14F
  8
DETAIL
  6
CONTINUOUS
 62
     5
 10
13.0
 20
25.199999999999999
 30
0.0
 40
1.8999999999999999
  0
CIRCLE
  5
150
  8
DETAIL
  6
CONTINUOUS
 62
     5
 10
13.0
 20
25.199999999999999
 30
0.0
 40
1.1999999999999991
  0
CIRCLE
  5
151
  8
DETAIL
  6
CONTINUOUS
 62
     5
 10
13.0
 20
25.199999999999999
 30
0.0
 40
1.8999999999999999
  0
CIRCLE
  5
152
  8
DETAIL
  6
CONTINUOUS
 62
     5
 10
13.0
 20
25.199999999999999
 30
0.0
 40
1.8
  0
LINE
  5
153
  8
DETAIL
  6
CONTINUOUS
 62
     5
 10
15.699999999999999
 20
24.5
 30
0.0
 11
15.449999999999999
 21
25.0
 31
0.0
  0
ARC
  5
154
  8
DETAIL
  6
CONTINUOUS
 62
     5
 10
13.0
 20
15.699999999999999
 30
0.0
 40
1.8999999999999999
 50
276.01147700000001
 51
197.678056
  0
ARC
  5
155
  8
DETAIL
  6
CONTINUOUS
 62
     5
 10
13.0
 20
15.699999999999999
 30
0.0
 40
1.8
 50
278.65508199999999
 51
195.03445199999999
  0
LINE
  5
156
  8
DETAIL
  6
CONTINUOUS
 62
     5
 10
15.449999999999999
 20
15.9
 30
0.0
 11
15.699999999999999
 21
16.399999999999999
 31
0.0
  0
LINE
  5
157
  8
DETAIL
  6
CONTINUOUS
 62
     5
 10
16.902954999999999
 20
10.699999999999999
 30
0.0
 11
14.689295
 21
10.699999999999999
 31
0.0
  0
LINE
  5
158
  8
DETAIL
  6
CONTINUOUS
 62
     5
 10
12.474728000000001
 20
10.746422000000001
 30
0.0
 11
11.75
 21
10.746422000000001
 31
0.0
  0
ARC
  5
159
  8
DETAIL
  6
CONTINUOUS
 62
     5
 10
13.176565
 20
6.9434490000000002
 30
0.0
 40
3.0
 50
68.007923000000005
 51
90.0
  0
LINE
  5
15A
  8
DETAIL
  6
CONTINUOUS
 62
     5
 10
14.0
 20
9.5290149999999993
 30
0.0
 11
14.0
 21
9.7251560000000001
 31
0.0
  0
LINE
  5
15B
  8
DETAIL
  6
CONTINUOUS
 62
     5
 10
14.0
 20
9.7251560000000001
 30
0.0
 11
14.0
 21
9.8282289999999985
 31
0.0
  0
ARC
  5
15C
  8
DETAIL
  6
CONTINUOUS
 62
     5
 10
13.287356000000001
 20
9.7736470000000004
 30
0.0
 40
0.7237580000000001
 50
271.00097199999999
 51
349.94589100000002
  0
LINE
  5
15D
  8
DETAIL
  6
CONTINUOUS
 62
     5
 10
16.902954999999999
 20
30.199999999999999
 30
0.0
 11
14.689295
 21
30.199999999999999
 31
0.0
  0
LINE
  5
15E
  8
DETAIL
  6
CONTINUOUS
 62
     5
 10
12.474728000000001
 20
30.153576999999999
 30
0.0
 11
11.75
 21
30.153576999999999
 31
0.0
  0
LINE
  5
15F
  8
DETAIL
  6
CONTINUOUS
 62
     5
 10
14.0
 20
31.370984000000011
 30
0.0
 11
14.0
 21
31.174844
 31
0.0
  0
LINE
  5
160
  8
DETAIL
  6
CONTINUOUS
 62
     5
 10
14.0
 20
31.174844
 30
0.0
 11
14.0
 21
31.071770999999998
 31
0.0
  0
ARC
  5
161
  8
DETAIL
  6
CONTINUOUS
 62
     5
 10
13.176565
 20
33.95655
 30
0.0
 40
3.0
 50
270.0
 51
291.99207699999999
  0
ARC
  5
162
  8
DETAIL
  6
CONTINUOUS
 62
     5
 10
13.287356000000001
 20
31.126352000000001
 30
0.0
 40
0.7237580000000001
 50
10.054109
 51
88.99902800000001
  0
LINE
  5
163
  8
DETAIL
  6
CONTINUOUS
 62
     5
 10
18.199999999999999
 20
24.5
 30
0.0
 11
18.449999999999999
 21
25.0
 31
0.0
  0
LINE
  5
164
  8
DETAIL
  6
CONTINUOUS
 62
     5
 10
18.449999999999999
 20
15.9
 30
0.0
 11
18.199999999999999
 21
16.399999999999999
 31
0.0
  0
ARC
  5
165
  8
DETAIL
  6
CONTINUOUS
 62
     5
 10
20.199999999999999
 20
12.023381000000001
 30
0.0
 40
1.3
 50
270.0
 51
359.99999800000001
  0
LINE
  5
166
  8
DETAIL
  6
CONTINUOUS
 62
     5
 10
21.5
 20
12.023381000000001
 30
0.0
 11
21.5
 21
12.486915
 31
0.0
  0
LINE
  5
167
  8
DETAIL
  6
CONTINUOUS
 62
     5
 10
21.5
 20
12.486915
 30
0.0
 11
21.5
 21
28.876618000000001
 31
0.0
  0
ARC
  5
168
  8
DETAIL
  6
CONTINUOUS
 62
     5
 10
20.199999999999999
 20
28.876618000000001
 30
0.0
 40
1.3
 50
359.99999800000001
 51
90.0
  0
LINE
  5
169
  8
DETAIL
  6
CONTINUOUS
 62
     5
 10
20.199999999999999
 20
30.176618000000001
 30
0.0
 11
19.088369
 21
30.176618000000001
 31
0.0
  0
LINE
  5
16A
  8
DETAIL
  6
CONTINUOUS
 62
     5
 10
19.088369
 20
10.723381
 30
0.0
 11
20.199999999999999
 21
10.723381
 31
0.0
  0
LINE
  5
16B
  8
DETAIL
  6
CONTINUOUS
 62
     5
 10
18.449999999999999
 20
15.9
 30
0.0
 11
15.449999999999999
 21
15.9
 31
0.0
  0
LINE
  5
16C
  8
DETAIL
  6
CONTINUOUS
 62
     5
 10
15.449999999999999
 20
15.9
 30
0.0
 11
15.449999999999999
 21
25.0
 31
0.0
  0
LINE
  5
16D
  8
DETAIL
  6
CONTINUOUS
 62
     5
 10
15.449999999999999
 20
25.0
 30
0.0
 11
18.449999999999999
 21
25.0
 31
0.0
  0
LINE
  5
16E
  8
DETAIL
  6
CONTINUOUS
 62
     5
 10
18.449999999999999
 20
25.0
 30
0.0
 11
18.449999999999999
 21
15.9
 31
0.0
  0
LINE
  5
16F
  8
DETAIL
  6
CONTINUOUS
 62
     5
 10
18.199999999999999
 20
16.399999999999999
 30
0.0
 11
15.699999999999999
 21
16.399999999999999
 31
0.0
  0
LINE
  5
170
  8
DETAIL
  6
CONTINUOUS
 62
     5
 10
15.699999999999999
 20
16.399999999999999
 30
0.0
 11
15.699999999999999
 21
24.5
 31
0.0
  0
LINE
  5
171
  8
DETAIL
  6
CONTINUOUS
 62
     5
 10
15.699999999999999
 20
24.5
 30
0.0
 11
18.199999999999999
 21
24.5
 31
0.0
  0
LINE
  5
172
  8
DETAIL
  6
CONTINUOUS
 62
     5
 10
18.199999999999999
 20
24.5
 30
0.0
 11
18.199999999999999
 21
16.399999999999999
 31
0.0
  0
ARC
  5
173
  8
DETAIL
  6
CONTINUOUS
 62
     5
 10
17.699999999999999
 20
21.850000000000001
 30
0.0
 40
0.5
 50
359.99999800000001
 51
90.0
  0
LINE
  5
174
  8
DETAIL
  6
CONTINUOUS
 62
     5
 10
17.699999999999999
 20
22.350000000000001
 30
0.0
 11
15.699999999999999
 21
22.350000000000001
 31
0.0
  0
LINE
  5
175
  8
DETAIL
  6
CONTINUOUS
 62
     5
 10
15.699999999999999
 20
18.550000000000001
 30
0.0
 11
17.699999999999999
 21
18.550000000000001
 31
0.0
  0
ARC
  5
176
  8
DETAIL
  6
CONTINUOUS
 62
     5
 10
17.699999999999999
 20
19.050000000000001
 30
0.0
 40
0.5
 50
270.0
 51
359.99999800000001
  0
LINE
  5
177
  8
DETAIL
  6
CONTINUOUS
 62
     5
 10
18.199999999999999
 20
19.050000000000001
 30
0.0
 11
18.199999999999999
 21
21.850000000000001
 31
0.0
  0
ARC
  5
178
  8
DETAIL
  6
CONTINUOUS
 62
     5
 10
17.699999999999999
 20
23.449999999999999
 30
0.0
 40
0.5
 50
359.99999800000001
 51
90.0
  0
LINE
  5
179
  8
DETAIL
  6
CONTINUOUS
 62
     5
 10
17.699999999999999
 20
23.949999999999999
 30
0.0
 11
15.699999999999999
 21
23.949999999999999
 31
0.0
  0
LINE
  5
17A
  8
DETAIL
  6
CONTINUOUS
 62
     5
 10
15.699999999999999
 20
16.949999999999999
 30
0.0
 11
17.699999999999999
 21
16.949999999999999
 31
0.0
  0
ARC
  5
17B
  8
DETAIL
  6
CONTINUOUS
 62
     5
 10
17.699999999999999
 20
17.449999999999999
 30
0.0
 40
0.5
 50
270.0
 51
359.99999800000001
  0
LINE
  5
17C
  8
DETAIL
  6
CONTINUOUS
 62
     5
 10
18.199999999999999
 20
17.449999999999999
 30
0.0
 11
18.199999999999999
 21
23.449999999999999
 31
0.0
  0
ARC
  5
17D
  8
DETAIL
  6
CONTINUOUS
 62
     5
 10
14.388147
 20
9.7464220000000008
 30
0.0
 40
1.0
 50
70.056725999999998
 51
90.0
  0
LINE
  5
17E
  8
DETAIL
  6
CONTINUOUS
 62
     5
 10
14.729236999999999
 20
10.686453
 30
0.0
 11
15.008493
 21
10.585125
 31
0.0
  0
ARC
  5
17F
  8
DETAIL
  6
CONTINUOUS
 62
     5
 10
15.349582
 20
11.525156000000001
 30
0.0
 40
1.0
 50
250.056725
 51
270.0
  0
LINE
  5
180
  8
DETAIL
  6
CONTINUOUS
 62
     5
 10
15.349582
 20
10.525156000000001
 30
0.0
 11
16.273389999999999
 21
10.525156000000001
 31
0.0
  0
ARC
  5
181
  8
DETAIL
  6
CONTINUOUS
 62
     5
 10
16.273389999999999
 20
11.525156000000001
 30
0.0
 40
1.0
 50
270.0
 51
292.66122799999999
  0
LINE
  5
182
  8
DETAIL
  6
CONTINUOUS
 62
     5
 10
16.658671999999999
 20
10.602357
 30
0.0
 11
16.818819999999999
 21
10.669221
 31
0.0
  0
ARC
  5
183
  8
DETAIL
  6
CONTINUOUS
 62
     5
 10
17.204101999999999
 20
9.7464220000000008
 30
0.0
 40
1.0
 50
90.0
 51
112.66122900000001
  0
LINE
  5
184
  8
DETAIL
  6
CONTINUOUS
 62
     5
 10
17.204101999999999
 20
10.746422000000001
 30
0.0
 11
19.088369
 21
10.746422000000001
 31
0.0
  0
LINE
  5
185
  8
DETAIL
  6
CONTINUOUS
 62
     5
 10
19.088369
 20
10.746422000000001
 30
0.0
 11
19.088369
 21
9.9434490000000011
 31
0.0
  0
LINE
  5
186
  8
DETAIL
  6
CONTINUOUS
 62
     5
 10
19.088369
 20
9.9434490000000011
 30
0.0
 11
17.201613999999999
 21
9.9434490000000011
 31
0.0
  0
ARC
  5
187
  8
DETAIL
  6
CONTINUOUS
 62
     5
 10
17.201613999999999
 20
8.9434490000000011
 30
0.0
 40
1.0
 50
90.0
 51
112.386968
  0
LINE
  5
188
  8
DETAIL
  6
CONTINUOUS
 62
     5
 10
16.820753
 20
9.8680820000000011
 30
0.0
 11
16.656739000000002
 21
9.8005230000000001
 31
0.0
  0
ARC
  5
189
  8
DETAIL
  6
CONTINUOUS
 62
     5
 10
16.275877999999999
 20
10.725156
 30
0.0
 40
1.0
 50
270.0
 51
292.38696599999997
  0
LINE
  5
18A
  8
DETAIL
  6
CONTINUOUS
 62
     5
 10
16.275877999999999
 20
9.7251560000000001
 30
0.0
 11
15.823766000000001
 21
9.7251560000000001
 31
0.0
  0
LINE
  5
18B
  8
DETAIL
  6
CONTINUOUS
 62
     5
 10
15.823766000000001
 20
9.7251560000000001
 30
0.0
 11
15.347359000000001
 21
9.7251560000000001
 31
0.0
  0
ARC
  5
18C
  8
DETAIL
  6
CONTINUOUS
 62
     5
 10
15.347359000000001
 20
10.725156
 30
0.0
 40
1.0
 50
250.303955
 51
270.0
  0
LINE
  5
18D
  8
DETAIL
  6
CONTINUOUS
 62
     5
 10
15.010329
 20
9.7836619999999996
 30
0.0
 11
14.727401
 21
9.8849429999999998
 31
0.0
  0
ARC
  5
18E
  8
DETAIL
  6
CONTINUOUS
 62
     5
 10
14.390371
 20
8.9434490000000011
 30
0.0
 40
1.0
 50
70.303956999999997
 51
90.0
  0
LINE
  5
18F
  8
DETAIL
  6
CONTINUOUS
 62
     5
 10
14.390371
 20
9.9434490000000011
 30
0.0
 11
12.474728000000001
 21
9.9434490000000011
 31
0.0
  0
LINE
  5
190
  8
DETAIL
  6
CONTINUOUS
 62
     5
 10
12.474728000000001
 20
9.9434490000000011
 30
0.0
 11
12.474728000000001
 21
10.746422000000001
 31
0.0
  0
LINE
  5
191
  8
DETAIL
  6
CONTINUOUS
 62
     5
 10
12.474728000000001
 20
10.746422000000001
 30
0.0
 11
14.388147
 21
10.746422000000001
 31
0.0
  0
LINE
  5
192
  8
DETAIL
  6
CONTINUOUS
 62
     5
 10
17.199999999999999
 20
9.7251560000000001
 30
0.0
 11
17.5
 21
9.5290149999999993
 31
0.0
  0
LINE
  5
193
  8
DETAIL
  6
CONTINUOUS
 62
     5
 10
17.5
 20
9.5290149999999993
 30
0.0
 11
17.5
 21
9.3998840000000001
 31
0.0
  0
LINE
  5
194
  8
DETAIL
  6
CONTINUOUS
 62
     5
 10
17.5
 20
9.3998840000000001
 30
0.0
 11
14.0
 21
9.3998840000000001
 31
0.0
  0
LINE
  5
195
  8
DETAIL
  6
CONTINUOUS
 62
     5
 10
14.0
 20
9.3998840000000001
 30
0.0
 11
14.0
 21
9.5290149999999993
 31
0.0
  0
LINE
  5
196
  8
DETAIL
  6
CONTINUOUS
 62
     5
 10
14.0
 20
9.5290149999999993
 30
0.0
 11
14.300000000000001
 21
9.7251560000000001
 31
0.0
  0
ARC
  5
197
  8
DETAIL
  6
CONTINUOUS
 62
     5
 10
18.199999999999999
 20
9.9499999999999993
 30
0.0
 40
0.5
 50
188.16048699999999
 51
270.0
  0
LINE
  5
198
  8
DETAIL
  6
CONTINUOUS
 62
     5
 10
21.5
 20
12.829670999999999
 30
0.0
 11
21.5
 21
10.949999999999999
 31
0.0
  0
ARC
  5
199
  8
DETAIL
  6
CONTINUOUS
 62
     5
 10
20.0
 20
10.949999999999999
 30
0.0
 40
1.5
 50
270.0
 51
359.99999800000001
  0
LINE
  5
19A
  8
DETAIL
  6
CONTINUOUS
 62
     5
 10
20.0
 20
9.4499999999999993
 30
0.0
 11
18.199999999999999
 21
9.4499999999999993
 31
0.0
  0
ARC
  5
19B
  8
DETAIL
  6
CONTINUOUS
 62
     5
 10
18.323435
 20
6.9434490000000002
 30
0.0
 40
3.0
 50
90.0
 51
111.992079
  0
LINE
  5
19C
  8
DETAIL
  6
CONTINUOUS
 62
     5
 10
17.5
 20
9.5290149999999993
 30
0.0
 11
17.5
 21
9.8282289999999985
 31
0.0
  0
ARC
  5
19D
  8
DETAIL
  6
CONTINUOUS
 62
     5
 10
14.388147
 20
31.153577000000009
 30
0.0
 40
1.0
 50
270.0
 51
289.94327399999997
  0
LINE
  5
19E
  8
DETAIL
  6
CONTINUOUS
 62
     5
 10
14.729236999999999
 20
30.213546999999998
 30
0.0
 11
15.008493
 21
30.314874
 31
0.0
  0
ARC
  5
19F
  8
DETAIL
  6
CONTINUOUS
 62
     5
 10
15.349582
 20
29.374844
 30
0.0
 40
1.0
 50
90.0
 51
109.943275
  0
LINE
  5
1A0
  8
DETAIL
  6
CONTINUOUS
 62
     5
 10
15.349582
 20
30.374844
 30
0.0
 11
16.273389999999999
 21
30.374844
 31
0.0
  0
ARC
  5
1A1
  8
DETAIL
  6
CONTINUOUS
 62
     5
 10
16.273389999999999
 20
29.374844
 30
0.0
 40
1.0
 50
67.338771999999992
 51
90.0
  0
LINE
  5
1A2
  8
DETAIL
  6
CONTINUOUS
 62
     5
 10
16.658671999999999
 20
30.297643000000001
 30
0.0
 11
16.818819999999999
 21
30.230778000000011
 31
0.0
  0
ARC
  5
1A3
  8
DETAIL
  6
CONTINUOUS
 62
     5
 10
17.204101999999999
 20
31.153577000000009
 30
0.0
 40
1.0
 50
247.33877100000001
 51
270.0
  0
LINE
  5
1A4
  8
DETAIL
  6
CONTINUOUS
 62
     5
 10
17.204101999999999
 20
30.153576999999999
 30
0.0
 11
19.088369
 21
30.153576999999999
 31
0.0
  0
LINE
  5
1A5
  8
DETAIL
  6
CONTINUOUS
 62
     5
 10
19.088369
 20
30.153576999999999
 30
0.0
 11
19.088369
 21
30.95655
 31
0.0
  0
LINE
  5
1A6
  8
DETAIL
  6
CONTINUOUS
 62
     5
 10
19.088369
 20
30.95655
 30
0.0
 11
17.201613999999999
 21
30.95655
 31
0.0
  0
ARC
  5
1A7
  8
DETAIL
  6
CONTINUOUS
 62
     5
 10
17.201613999999999
 20
31.95655
 30
0.0
 40
1.0
 50
247.613032
 51
270.0
  0
LINE
  5
1A8
  8
DETAIL
  6
CONTINUOUS
 62
     5
 10
16.820753
 20
31.031918000000001
 30
0.0
 11
16.656739000000002
 21
31.099475999999999
 31
0.0
  0
ARC
  5
1A9
  8
DETAIL
  6
CONTINUOUS
 62
     5
 10
16.275877999999999
 20
30.174844
 30
0.0
 40
1.0
 50
67.613033999999999
 51
90.0
  0
LINE
  5
1AA
  8
DETAIL
  6
CONTINUOUS
 62
     5
 10
16.275877999999999
 20
31.174844
 30
0.0
 11
15.823766000000001
 21
31.174844
 31
0.0
  0
LINE
  5
1AB
  8
DETAIL
  6
CONTINUOUS
 62
     5
 10
15.823766000000001
 20
31.174844
 30
0.0
 11
15.347359000000001
 21
31.174844
 31
0.0
  0
ARC
  5
1AC
  8
DETAIL
  6
CONTINUOUS
 62
     5
 10
15.347359000000001
 20
30.174844
 30
0.0
 40
1.0
 50
90.0
 51
109.696045
  0
LINE
  5
1AD
  8
DETAIL
  6
CONTINUOUS
 62
     5
 10
15.010329
 20
31.116337000000001
 30
0.0
 11
14.727401
 21
31.015057000000009
 31
0.0
  0
ARC
  5
1AE
  8
DETAIL
  6
CONTINUOUS
 62
     5
 10
14.390371
 20
31.95655
 30
0.0
 40
1.0
 50
270.0
 51
289.69604299999997
  0
LINE
  5
1AF
  8
DETAIL
  6
CONTINUOUS
 62
     5
 10
14.390371
 20
30.95655
 30
0.0
 11
12.474728000000001
 21
30.95655
 31
0.0
  0
LINE
  5
1B0
  8
DETAIL
  6
CONTINUOUS
 62
     5
 10
12.474728000000001
 20
30.95655
 30
0.0
 11
12.474728000000001
 21
30.153576999999999
 31
0.0
  0
LINE
  5
1B1
  8
DETAIL
  6
CONTINUOUS
 62
     5
 10
12.474728000000001
 20
30.153576999999999
 30
0.0
 11
14.388147
 21
30.153576999999999
 31
0.0
  0
LINE
  5
1B2
  8
DETAIL
  6
CONTINUOUS
 62
     5
 10
17.199999999999999
 20
31.174844
 30
0.0
 11
17.5
 21
31.370984000000011
 31
0.0
  0
LINE
  5
1B3
  8
DETAIL
  6
CONTINUOUS
 62
     5
 10
17.5
 20
31.370984000000011
 30
0.0
 11
17.5
 21
31.500115999999998
 31
0.0
  0
LINE
  5
1B4
  8
DETAIL
  6
CONTINUOUS
 62
     5
 10
17.5
 20
31.500115999999998
 30
0.0
 11
14.0
 21
31.500115999999998
 31
0.0
  0
LINE
  5
1B5
  8
DETAIL
  6
CONTINUOUS
 62
     5
 10
14.0
 20
31.500115999999998
 30
0.0
 11
14.0
 21
31.370984000000011
 31
0.0
  0
LINE
  5
1B6
  8
DETAIL
  6
CONTINUOUS
 62
     5
 10
14.0
 20
31.370984000000011
 30
0.0
 11
14.300000000000001
 21
31.174844
 31
0.0
  0
ARC
  5
1B7
  8
DETAIL
  6
CONTINUOUS
 62
     5
 10
18.323435
 20
33.95655
 30
0.0
 40
3.0
 50
248.00792100000001
 51
270.0
  0
LINE
  5
1B8
  8
DETAIL
  6
CONTINUOUS
 62
     5
 10
17.5
 20
31.370984000000011
 30
0.0
 11
17.5
 21
31.071770999999998
 31
0.0
  0
ARC
  5
1B9
  8
DETAIL
  6
CONTINUOUS
 62
     5
 10
20.199999999999999
 20
28.949999999999999
 30
0.0
 40
1.0
 50
359.99999800000001
 51
90.0
  0
LINE
  5
1BA
  8
DETAIL
  6
CONTINUOUS
 62
     5
 10
21.199999999999999
 20
28.949999999999999
 30
0.0
 11
21.199999999999999
 21
20.449999999999999
 31
0.0
  0
LINE
  5
1BB
  8
DETAIL
  6
CONTINUOUS
 62
     5
 10
21.199999999999999
 20
20.449999999999999
 30
0.0
 11
21.199999999999999
 21
11.949999999999999
 31
0.0
  0
ARC
  5
1BC
  8
DETAIL
  6
CONTINUOUS
 62
     5
 10
20.199999999999999
 20
11.949999999999999
 30
0.0
 40
1.0
 50
270.0
 51
359.99999800000001
  0
LINE
  5
1BD
  8
DETAIL
  6
CONTINUOUS
 62
     5
 10
20.199999999999999
 20
10.949999999999999
 30
0.0
 11
11.75
 21
10.949999999999999
 31
0.0
  0
LINE
  5
1BE
  8
DETAIL
  6
CONTINUOUS
 62
     5
 10
11.75
 20
29.949999999999999
 30
0.0
 11
20.199999999999999
 21
29.949999999999999
 31
0.0
  0
ARC
  5
1BF
  8
DETAIL
  6
CONTINUOUS
 62
     5
 10
20.0
 20
29.949999999999999
 30
0.0
 40
1.5
 50
359.99999800000001
 51
90.0
  0
LINE
  5
1C0
  8
DETAIL
  6
CONTINUOUS
 62
     5
 10
20.0
 20
31.449999999999999
 30
0.0
 11
18.199999999999999
 21
31.449999999999999
 31
0.0
  0
ARC
  5
1C1
  8
DETAIL
  6
CONTINUOUS
 62
     5
 10
18.199999999999999
 20
30.949999999999999
 30
0.0
 40
0.5
 50
90.0
 51
171.83951300000001
  0
LINE
  5
1C2
  8
DETAIL
  6
CONTINUOUS
 62
     5
 10
21.5
 20
28.070328
 30
0.0
 11
21.5
 21
29.949999999999999
 31
0.0
  0
LINE
  5
1C3
  8
DETAIL
  6
CONTINUOUS
 62
     5
 10
21.550000000000001
 20
28.649999999999999
 30
0.0
 11
21.5
 21
28.649999999999999
 31
0.0
  0
LINE
  5
1C4
  8
DETAIL
  6
CONTINUOUS
 62
     5
 10
21.5
 20
25.75
 30
0.0
 11
21.550000000000001
 21
25.75
 31
0.0
  0
LINE
  5
1C5
  8
DETAIL
  6
CONTINUOUS
 62
     5
 10
21.550000000000001
 20
15.15
 30
0.0
 11
21.5
 21
15.15
 31
0.0
  0
LINE
  5
1C6
  8
DETAIL
  6
CONTINUOUS
 62
     5
 10
21.5
 20
12.25
 30
0.0
 11
21.550000000000001
 21
12.25
 31
0.0
  0
CIRCLE
  5
1C7
  8
DETAIL
  6
CONTINUOUS
 62
     5
 10
13.0
 20
-14.6
 30
0.0
 40
1.1999999999999991
  0
CIRCLE
  5
1C8
  8
DETAIL
  6
CONTINUOUS
 62
     5
 10
13.0
 20
-14.6
 30
0.0
 40
1.8999999999999999
  0
CIRCLE
  5
1C9
  8
DETAIL
  6
CONTINUOUS
 62
     5
 10
13.0
 20
-14.6
 30
0.0
 40
1.1999999999999991
  0
CIRCLE
  5
1CA
  8
DETAIL
  6
CONTINUOUS
 62
     5
 10
13.0
 20
-14.6
 30
0.0
 40
1.8999999999999999
  0
CIRCLE
  5
1CB
  8
DETAIL
  6
CONTINUOUS
 62
     5
 10
13.0
 20
-14.6
 30
0.0
 40
1.8
  0
LINE
  5
1CC
  8
DETAIL
  6
CONTINUOUS
 62
     5
 10
15.699999999999999
 20
-15.300000000000001
 30
0.0
 11
15.449999999999999
 21
-14.800000000000001
 31
0.0
  0
CIRCLE
  5
1CD
  8
DETAIL
  6
CONTINUOUS
 62
     5
 10
13.0
 20
-24.100000000000001
 30
0.0
 40
1.1999999999999991
  0
CIRCLE
  5
1CE
  8
DETAIL
  6
CONTINUOUS
 62
     5
 10
13.0
 20
-24.100000000000001
 30
0.0
 40
1.8999999999999999
  0
CIRCLE
  5
1CF
  8
DETAIL
  6
CONTINUOUS
 62
     5
 10
13.0
 20
-24.100000000000001
 30
0.0
 40
1.1999999999999991
  0
CIRCLE
  5
1D0
  8
DETAIL
  6
CONTINUOUS
 62
     5
 10
13.0
 20
-24.100000000000001
 30
0.0
 40
1.8999999999999999
  0
CIRCLE
  5
1D1
  8
DETAIL
  6
CONTINUOUS
 62
     5
 10
13.0
 20
-24.100000000000001
 30
0.0
 40
1.8
  0
LINE
  5
1D2
  8
DETAIL
  6
CONTINUOUS
 62
     5
 10
15.449999999999999
 20
-23.899999999999999
 30
0.0
 11
15.699999999999999
 21
-23.399999999999999
 31
0.0
  0
LINE
  5
1D3
  8
DETAIL
  6
CONTINUOUS
 62
     5
 10
16.902954999999999
 20
-29.100000000000001
 30
0.0
 11
14.689295
 21
-29.100000000000001
 31
0.0
  0
ARC
  5
1D4
  8
DETAIL
  6
CONTINUOUS
 62
     5
 10
13.176565
 20
-32.856551000000003
 30
0.0
 40
3.0
 50
68.007923000000005
 51
90.0
  0
LINE
  5
1D5
  8
DETAIL
  6
CONTINUOUS
 62
     5
 10
14.0
 20
-30.270985
 30
0.0
 11
14.0
 21
-30.074843999999999
 31
0.0
  0
LINE
  5
1D6
  8
DETAIL
  6
CONTINUOUS
 62
     5
 10
14.0
 20
-30.074843999999999
 30
0.0
 11
14.0
 21
-29.971771
 31
0.0
  0
ARC
  5
1D7
  8
DETAIL
  6
CONTINUOUS
 62
     5
 10
13.287356000000001
 20
-30.026353000000011
 30
0.0
 40
0.7237580000000001
 50
271.00097199999999
 51
349.94589100000002
  0
LINE
  5
1D8
  8
DETAIL
  6
CONTINUOUS
 62
     5
 10
16.902954999999999
 20
-9.5999999999999996
 30
0.0
 11
14.689295
 21
-9.5999999999999996
 31
0.0
  0
LINE
  5
1D9
  8
DETAIL
  6
CONTINUOUS
 62
     5
 10
14.0
 20
-8.4290160000000007
 30
0.0
 11
14.0
 21
-8.6251560000000005
 31
0.0
  0
LINE
  5
1DA
  8
DETAIL
  6
CONTINUOUS
 62
     5
 10
14.0
 20
-8.6251560000000005
 30
0.0
 11
14.0
 21
-8.7282289999999971
 31
0.0
  0
ARC
  5
1DB
  8
DETAIL
  6
CONTINUOUS
 62
     5
 10
13.176565
 20
-5.8434499999999989
 30
0.0
 40
3.0
 50
270.0
 51
291.99207699999999
  0
ARC
  5
1DC
  8
DETAIL
  6
CONTINUOUS
 62
     5
 10
13.287356000000001
 20
-8.673648
 30
0.0
 40
0.7237580000000001
 50
10.054109
 51
88.99902800000001
  0
LINE
  5
1DD
  8
DETAIL
  6
CONTINUOUS
 62
     5
 10
18.199999999999999
 20
-15.300000000000001
 30
0.0
 11
18.449999999999999
 21
-14.800000000000001
 31
0.0
  0
LINE
  5
1DE
  8
DETAIL
  6
CONTINUOUS
 62
     5
 10
18.449999999999999
 20
-23.899999999999999
 30
0.0
 11
18.199999999999999
 21
-23.399999999999999
 31
0.0
  0
ARC
  5
1DF
  8
DETAIL
  6
CONTINUOUS
 62
     5
 10
20.199999999999999
 20
-27.776619
 30
0.0
 40
1.3
 50
270.0
 51
359.99999800000001
  0
LINE
  5
1E0
  8
DETAIL
  6
CONTINUOUS
 62
     5
 10
21.5
 20
-27.776619
 30
0.0
 11
21.5
 21
-27.313085000000001
 31
0.0
  0
LINE
  5
1E1
  8
DETAIL
  6
CONTINUOUS
 62
     5
 10
21.5
 20
-27.313085000000001
 30
0.0
 11
21.5
 21
-10.923382
 31
0.0
  0
ARC
  5
1E2
  8
DETAIL
  6
CONTINUOUS
 62
     5
 10
20.199999999999999
 20
-10.923382
 30
0.0
 40
1.3
 50
359.99999800000001
 51
90.0
  0
LINE
  5
1E3
  8
DETAIL
  6
CONTINUOUS
 62
     5
 10
20.199999999999999
 20
-9.6233820000000012
 30
0.0
 11
19.088369
 21
-9.6233820000000012
 31
0.0
  0
LINE
  5
1E4
  8
DETAIL
  6
CONTINUOUS
 62
     5
 10
19.088369
 20
-29.076619000000001
 30
0.0
 11
20.199999999999999
 21
-29.076619000000001
 31
0.0
  0
LINE
  5
1E5
  8
DETAIL
  6
CONTINUOUS
 62
     5
 10
18.449999999999999
 20
-23.899999999999999
 30
0.0
 11
15.449999999999999
 21
-23.899999999999999
 31
0.0
  0
LINE
  5
1E6
  8
DETAIL
  6
CONTINUOUS
 62
     5
 10
15.449999999999999
 20
-23.899999999999999
 30
0.0
 11
15.449999999999999
 21
-14.800000000000001
 31
0.0
  0
LINE
  5
1E7
  8
DETAIL
  6
CONTINUOUS
 62
     5
 10
15.449999999999999
 20
-14.800000000000001
 30
0.0
 11
18.449999999999999
 21
-14.800000000000001
 31
0.0
  0
LINE
  5
1E8
  8
DETAIL
  6
CONTINUOUS
 62
     5
 10
18.449999999999999
 20
-14.800000000000001
 30
0.0
 11
18.449999999999999
 21
-23.899999999999999
 31
0.0
  0
LINE
  5
1E9
  8
DETAIL
  6
CONTINUOUS
 62
     5
 10
18.199999999999999
 20
-23.399999999999999
 30
0.0
 11
15.699999999999999
 21
-23.399999999999999
 31
0.0
  0
LINE
  5
1EA
  8
DETAIL
  6
CONTINUOUS
 62
     5
 10
15.699999999999999
 20
-23.399999999999999
 30
0.0
 11
15.699999999999999
 21
-15.300000000000001
 31
0.0
  0
LINE
  5
1EB
  8
DETAIL
  6
CONTINUOUS
 62
     5
 10
15.699999999999999
 20
-15.300000000000001
 30
0.0
 11
18.199999999999999
 21
-15.300000000000001
 31
0.0
  0
LINE
  5
1EC
  8
DETAIL
  6
CONTINUOUS
 62
     5
 10
18.199999999999999
 20
-15.300000000000001
 30
0.0
 11
18.199999999999999
 21
-23.399999999999999
 31
0.0
  0
ARC
  5
1ED
  8
DETAIL
  6
CONTINUOUS
 62
     5
 10
17.699999999999999
 20
-17.949999999999999
 30
0.0
 40
0.5
 50
359.99999800000001
 51
90.0
  0
LINE
  5
1EE
  8
DETAIL
  6
CONTINUOUS
 62
     5
 10
17.699999999999999
 20
-17.449999999999999
 30
0.0
 11
15.699999999999999
 21
-17.449999999999999
 31
0.0
  0
LINE
  5
1EF
  8
DETAIL
  6
CONTINUOUS
 62
     5
 10
15.699999999999999
 20
-21.25
 30
0.0
 11
17.699999999999999
 21
-21.25
 31
0.0
  0
ARC
  5
1F0
  8
DETAIL
  6
CONTINUOUS
 62
     5
 10
17.699999999999999
 20
-20.75
 30
0.0
 40
0.5
 50
270.0
 51
359.99999800000001
  0
LINE
  5
1F1
  8
DETAIL
  6
CONTINUOUS
 62
     5
 10
18.199999999999999
 20
-20.75
 30
0.0
 11
18.199999999999999
 21
-17.949999999999999
 31
0.0
  0
ARC
  5
1F2
  8
DETAIL
  6
CONTINUOUS
 62
     5
 10
17.699999999999999
 20
-16.350000000000001
 30
0.0
 40
0.5
 50
359.99999800000001
 51
90.0
  0
LINE
  5
1F3
  8
DETAIL
  6
CONTINUOUS
 62
     5
 10
17.699999999999999
 20
-15.85
 30
0.0
 11
15.699999999999999
 21
-15.85
 31
0.0
  0
LINE
  5
1F4
  8
DETAIL
  6
CONTINUOUS
 62
     5
 10
15.699999999999999
 20
-22.850000000000001
 30
0.0
 11
17.699999999999999
 21
-22.850000000000001
 31
0.0
  0
ARC
  5
1F5
  8
DETAIL
  6
CONTINUOUS
 62
     5
 10
17.699999999999999
 20
-22.350000000000001
 30
0.0
 40
0.5
 50
270.0
 51
359.99999800000001
  0
LINE
  5
1F6
  8
DETAIL
  6
CONTINUOUS
 62
     5
 10
18.199999999999999
 20
-22.350000000000001
 30
0.0
 11
18.199999999999999
 21
-16.350000000000001
 31
0.0
  0
ARC
  5
1F7
  8
DETAIL
  6
CONTINUOUS
 62
     5
 10
14.388147
 20
-30.053578000000002
 30
0.0
 40
1.0
 50
70.056725999999998
 51
90.0
  0
LINE
  5
1F8
  8
DETAIL
  6
CONTINUOUS
 62
     5
 10
14.729236999999999
 20
-29.113547000000001
 30
0.0
 11
15.008493
 21
-29.214874999999999
 31
0.0
  0
ARC
  5
1F9
  8
DETAIL
  6
CONTINUOUS
 62
     5
 10
15.349582
 20
-28.274844000000002
 30
0.0
 40
1.0
 50
250.056725
 51
270.0
  0
LINE
  5
1FA
  8
DETAIL
  6
CONTINUOUS
 62
     5
 10
15.349582
 20
-29.274844000000002
 30
0.0
 11
16.273389999999999
 21
-29.274844000000002
 31
0.0
  0
ARC
  5
1FB
  8
DETAIL
  6
CONTINUOUS
 62
     5
 10
16.273389999999999
 20
-28.274844000000002
 30
0.0
 40
1.0
 50
270.0
 51
292.66122799999999
  0
LINE
  5
1FC
  8
DETAIL
  6
CONTINUOUS
 62
     5
 10
16.658671999999999
 20
-29.197642999999999
 30
0.0
 11
16.818819999999999
 21
-29.130779
 31
0.0
  0
ARC
  5
1FD
  8
DETAIL
  6
CONTINUOUS
 62
     5
 10
17.204101999999999
 20
-30.053578000000002
 30
0.0
 40
1.0
 50
90.0
 51
112.66122900000001
  0
LINE
  5
1FE
  8
DETAIL
  6
CONTINUOUS
 62
     5
 10
17.204101999999999
 20
-29.053578000000002
 30
0.0
 11
19.088369
 21
-29.053578000000002
 31
0.0
  0
LINE
  5
1FF
  8
DETAIL
  6
CONTINUOUS
 62
     5
 10
19.088369
 20
-29.053578000000002
 30
0.0
 11
19.088369
 21
-29.856551
 31
0.0
  0
LINE
  5
200
  8
DETAIL
  6
CONTINUOUS
 62
     5
 10
19.088369
 20
-29.856551
 30
0.0
 11
17.201613999999999
 21
-29.856551
 31
0.0
  0
ARC
  5
201
  8
DETAIL
  6
CONTINUOUS
 62
     5
 10
17.201613999999999
 20
-30.856551
 30
0.0
 40
1.0
 50
90.0
 51
112.386968
  0
LINE
  5
202
  8
DETAIL
  6
CONTINUOUS
 62
     5
 10
16.820753
 20
-29.931918
 30
0.0
 11
16.656739000000002
 21
-29.999476999999999
 31
0.0
  0
ARC
  5
203
  8
DETAIL
  6
CONTINUOUS
 62
     5
 10
16.275877999999999
 20
-29.074843999999999
 30
0.0
 40
1.0
 50
270.0
 51
292.38696599999997
  0
LINE
  5
204
  8
DETAIL
  6
CONTINUOUS
 62
     5
 10
16.275877999999999
 20
-30.074843999999999
 30
0.0
 11
15.823766000000001
 21
-30.074843999999999
 31
0.0
  0
LINE
  5
205
  8
DETAIL
  6
CONTINUOUS
 62
     5
 10
15.823766000000001
 20
-30.074843999999999
 30
0.0
 11
15.347359000000001
 21
-30.074843999999999
 31
0.0
  0
ARC
  5
206
  8
DETAIL
  6
CONTINUOUS
 62
     5
 10
15.347359000000001
 20
-29.074843999999999
 30
0.0
 40
1.0
 50
250.303955
 51
270.0
  0
LINE
  5
207
  8
DETAIL
  6
CONTINUOUS
 62
     5
 10
15.010329
 20
-30.016338000000001
 30
0.0
 11
14.727401
 21
-29.915057000000001
 31
0.0
  0
ARC
  5
208
  8
DETAIL
  6
CONTINUOUS
 62
     5
 10
14.390371
 20
-30.856551
 30
0.0
 40
1.0
 50
70.303956999999997
 51
90.0
  0
LINE
  5
209
  8
DETAIL
  6
CONTINUOUS
 62
     5
 10
14.390371
 20
-29.856551
 30
0.0
 11
12.474728000000001
 21
-29.856551
 31
0.0
  0
LINE
  5
20A
  8
DETAIL
  6
CONTINUOUS
 62
     5
 10
12.474728000000001
 20
-29.856551
 30
0.0
 11
12.474728000000001
 21
-29.053578000000002
 31
0.0
  0
LINE
  5
20B
  8
DETAIL
  6
CONTINUOUS
 62
     5
 10
12.474728000000001
 20
-29.053578000000002
 30
0.0
 11
14.388147
 21
-29.053578000000002
 31
0.0
  0
LINE
  5
20C
  8
DETAIL
  6
CONTINUOUS
 62
     5
 10
17.199999999999999
 20
-30.074843999999999
 30
0.0
 11
17.5
 21
-30.270985
 31
0.0
  0
LINE
  5
20D
  8
DETAIL
  6
CONTINUOUS
 62
     5
 10
17.5
 20
-30.270985
 30
0.0
 11
17.5
 21
-30.400116000000001
 31
0.0
  0
LINE
  5
20E
  8
DETAIL
  6
CONTINUOUS
 62
     5
 10
17.5
 20
-30.400116000000001
 30
0.0
 11
14.0
 21
-30.400116000000001
 31
0.0
  0
LINE
  5
20F
  8
DETAIL
  6
CONTINUOUS
 62
     5
 10
14.0
 20
-30.400116000000001
 30
0.0
 11
14.0
 21
-30.270985
 31
0.0
  0
LINE
  5
210
  8
DETAIL
  6
CONTINUOUS
 62
     5
 10
14.0
 20
-30.270985
 30
0.0
 11
14.300000000000001
 21
-30.074843999999999
 31
0.0
  0
ARC
  5
211
  8
DETAIL
  6
CONTINUOUS
 62
     5
 10
18.199999999999999
 20
-29.850000000000001
 30
0.0
 40
0.5
 50
188.16048699999999
 51
270.0
  0
LINE
  5
212
  8
DETAIL
  6
CONTINUOUS
 62
     5
 10
21.5
 20
-26.970329
 30
0.0
 11
21.5
 21
-28.850000000000001
 31
0.0
  0
ARC
  5
213
  8
DETAIL
  6
CONTINUOUS
 62
     5
 10
20.0
 20
-28.850000000000001
 30
0.0
 40
1.5
 50
270.0
 51
359.99999800000001
  0
LINE
  5
214
  8
DETAIL
  6
CONTINUOUS
 62
     5
 10
20.0
 20
-30.350000000000001
 30
0.0
 11
18.199999999999999
 21
-30.350000000000001
 31
0.0
  0
ARC
  5
215
  8
DETAIL
  6
CONTINUOUS
 62
     5
 10
18.323435
 20
-32.856551000000003
 30
0.0
 40
3.0
 50
90.0
 51
111.992079
  0
LINE
  5
216
  8
DETAIL
  6
CONTINUOUS
 62
     5
 10
17.5
 20
-30.270985
 30
0.0
 11
17.5
 21
-29.971771
 31
0.0
  0
ARC
  5
217
  8
DETAIL
  6
CONTINUOUS
 62
     5
 10
14.388147
 20
-8.6464230000000004
 30
0.0
 40
1.0
 50
270.0
 51
289.94327399999997
  0
LINE
  5
218
  8
DETAIL
  6
CONTINUOUS
 62
     5
 10
14.729236999999999
 20
-9.5864530000000006
 30
0.0
 11
15.008493
 21
-9.4851259999999993
 31
0.0
  0
ARC
  5
219
  8
DETAIL
  6
CONTINUOUS
 62
     5
 10
15.349582
 20
-10.425155999999999
 30
0.0
 40
1.0
 50
90.0
 51
109.943275
  0
LINE
  5
21A
  8
DETAIL
  6
CONTINUOUS
 62
     5
 10
15.349582
 20
-9.4251559999999994
 30
0.0
 11
16.273389999999999
 21
-9.4251559999999994
 31
0.0
  0
ARC
  5
21B
  8
DETAIL
  6
CONTINUOUS
 62
     5
 10
16.273389999999999
 20
-10.425155999999999
 30
0.0
 40
1.0
 50
67.338771999999992
 51
90.0
  0
LINE
  5
21C
  8
DETAIL
  6
CONTINUOUS
 62
     5
 10
16.658671999999999
 20
-9.5023569999999982
 30
0.0
 11
16.818819999999999
 21
-9.5692219999999981
 31
0.0
  0
ARC
  5
21D
  8
DETAIL
  6
CONTINUOUS
 62
     5
 10
17.204101999999999
 20
-8.6464230000000004
 30
0.0
 40
1.0
 50
247.33877100000001
 51
270.0
  0
LINE
  5
21E
  8
DETAIL
  6
CONTINUOUS
 62
     5
 10
17.204101999999999
 20
-9.6464230000000004
 30
0.0
 11
19.088369
 21
-9.6464230000000004
 31
0.0
  0
LINE
  5
21F
  8
DETAIL
  6
CONTINUOUS
 62
     5
 10
19.088369
 20
-9.6464230000000004
 30
0.0
 11
19.088369
 21
-8.8434500000000007
 31
0.0
  0
LINE
  5
220
  8
DETAIL
  6
CONTINUOUS
 62
     5
 10
19.088369
 20
-8.8434500000000007
 30
0.0
 11
17.201613999999999
 21
-8.8434500000000007
 31
0.0
  0
ARC
  5
221
  8
DETAIL
  6
CONTINUOUS
 62
     5
 10
17.201613999999999
 20
-7.8434499999999989
 30
0.0
 40
1.0
 50
247.613032
 51
270.0
  0
LINE
  5
222
  8
DETAIL
  6
CONTINUOUS
 62
     5
 10
16.820753
 20
-8.7680820000000015
 30
0.0
 11
16.656739000000002
 21
-8.7005239999999997
 31
0.0
  0
ARC
  5
223
  8
DETAIL
  6
CONTINUOUS
 62
     5
 10
16.275877999999999
 20
-9.6251560000000005
 30
0.0
 40
1.0
 50
67.613033999999999
 51
90.0
  0
LINE
  5
224
  8
DETAIL
  6
CONTINUOUS
 62
     5
 10
16.275877999999999
 20
-8.6251560000000005
 30
0.0
 11
15.823766000000001
 21
-8.6251560000000005
 31
0.0
  0
LINE
  5
225
  8
DETAIL
  6
CONTINUOUS
 62
     5
 10
15.823766000000001
 20
-8.6251560000000005
 30
0.0
 11
15.347359000000001
 21
-8.6251560000000005
 31
0.0
  0
ARC
  5
226
  8
DETAIL
  6
CONTINUOUS
 62
     5
 10
15.347359000000001
 20
-9.6251560000000005
 30
0.0
 40
1.0
 50
90.0
 51
109.696045
  0
LINE
  5
227
  8
DETAIL
  6
CONTINUOUS
 62
     5
 10
15.010329
 20
-8.683663000000001
 30
0.0
 11
14.727401
 21
-8.7849430000000002
 31
0.0
  0
ARC
  5
228
  8
DETAIL
  6
CONTINUOUS
 62
     5
 10
14.390371
 20
-7.8434499999999989
 30
0.0
 40
1.0
 50
270.0
 51
289.69604299999997
  0
LINE
  5
229
  8
DETAIL
  6
CONTINUOUS
 62
     5
 10
14.390371
 20
-8.8434500000000007
 30
0.0
 11
12.474728000000001
 21
-8.8434500000000007
 31
0.0
  0
LINE
  5
22A
  8
DETAIL
  6
CONTINUOUS
 62
     5
 10
12.474728000000001
 20
-8.8434500000000007
 30
0.0
 11
12.474728000000001
 21
-9.6464230000000004
 31
0.0
  0
LINE
  5
22B
  8
DETAIL
  6
CONTINUOUS
 62
     5
 10
12.474728000000001
 20
-9.6464230000000004
 30
0.0
 11
14.388147
 21
-9.6464230000000004
 31
0.0
  0
LINE
  5
22C
  8
DETAIL
  6
CONTINUOUS
 62
     5
 10
17.199999999999999
 20
-8.6251560000000005
 30
0.0
 11
17.5
 21
-8.4290160000000007
 31
0.0
  0
LINE
  5
22D
  8
DETAIL
  6
CONTINUOUS
 62
     5
 10
17.5
 20
-8.4290160000000007
 30
0.0
 11
17.5
 21
-8.2998840000000005
 31
0.0
  0
LINE
  5
22E
  8
DETAIL
  6
CONTINUOUS
 62
     5
 10
17.5
 20
-8.2998840000000005
 30
0.0
 11
14.0
 21
-8.2998840000000005
 31
0.0
  0
LINE
  5
22F
  8
DETAIL
  6
CONTINUOUS
 62
     5
 10
14.0
 20
-8.2998840000000005
 30
0.0
 11
14.0
 21
-8.4290160000000007
 31
0.0
  0
LINE
  5
230
  8
DETAIL
  6
CONTINUOUS
 62
     5
 10
14.0
 20
-8.4290160000000007
 30
0.0
 11
14.300000000000001
 21
-8.6251560000000005
 31
0.0
  0
ARC
  5
231
  8
DETAIL
  6
CONTINUOUS
 62
     5
 10
18.323435
 20
-5.8434499999999989
 30
0.0
 40
3.0
 50
248.00792100000001
 51
270.0
  0
LINE
  5
232
  8
DETAIL
  6
CONTINUOUS
 62
     5
 10
17.5
 20
-8.4290160000000007
 30
0.0
 11
17.5
 21
-8.7282289999999971
 31
0.0
  0
ARC
  5
233
  8
DETAIL
  6
CONTINUOUS
 62
     5
 10
20.199999999999999
 20
-10.85
 30
0.0
 40
1.0
 50
359.99999800000001
 51
90.0
  0
LINE
  5
234
  8
DETAIL
  6
CONTINUOUS
 62
     5
 10
21.199999999999999
 20
-10.85
 30
0.0
 11
21.199999999999999
 21
-19.350000000000001
 31
0.0
  0
LINE
  5
235
  8
DETAIL
  6
CONTINUOUS
 62
     5
 10
21.199999999999999
 20
-19.350000000000001
 30
0.0
 11
21.199999999999999
 21
-27.850000000000001
 31
0.0
  0
ARC
  5
236
  8
DETAIL
  6
CONTINUOUS
 62
     5
 10
20.199999999999999
 20
-27.850000000000001
 30
0.0
 40
1.0
 50
270.0
 51
359.99999800000001
  0
ARC
  5
237
  8
DETAIL
  6
CONTINUOUS
 62
     5
 10
20.0
 20
-9.8499999999999996
 30
0.0
 40
1.5
 50
359.99999800000001
 51
90.0
  0
LINE
  5
238
  8
DETAIL
  6
CONTINUOUS
 62
     5
 10
20.0
 20
-8.3499999999999996
 30
0.0
 11
18.199999999999999
 21
-8.3499999999999996
 31
0.0
  0
ARC
  5
239
  8
DETAIL
  6
CONTINUOUS
 62
     5
 10
18.199999999999999
 20
-8.8499999999999996
 30
0.0
 40
0.5
 50
90.0
 51
171.83951300000001
  0
LINE
  5
23A
  8
DETAIL
  6
CONTINUOUS
 62
     5
 10
21.5
 20
-11.729672000000001
 30
0.0
 11
21.5
 21
-9.8499999999999996
 31
0.0
  0
LINE
  5
23B
  8
DETAIL
  6
CONTINUOUS
 62
     5
 10
21.550000000000001
 20
-11.15
 30
0.0
 11
21.5
 21
-11.15
 31
0.0
  0
LINE
  5
23C
  8
DETAIL
  6
CONTINUOUS
 62
     5
 10
21.5
 20
-14.050000000000001
 30
0.0
 11
21.550000000000001
 21
-14.050000000000001
 31
0.0
  0
LINE
  5
23D
  8
DETAIL
  6
CONTINUOUS
 62
     5
 10
21.550000000000001
 20
-24.649999999999999
 30
0.0
 11
21.5
 21
-24.649999999999999
 31
0.0
  0
LINE
  5
23E
  8
DETAIL
  6
CONTINUOUS
 62
     5
 10
21.5
 20
-27.550000000000001
 30
0.0
 11
21.550000000000001
 21
-27.550000000000001
 31
0.0
  0
LINE
  5
23F
  8
DETAIL
  6
CONTINUOUS
 62
     5
 10
11.75
 20
-9.8499999999999996
 30
0.0
 11
20.199999999999999
 21
-9.8499999999999996
 31
0.0
  0
ARC
  5
240
  8
DETAIL
  6
CONTINUOUS
 62
     5
 10
11.75
 20
-12.85
 30
0.0
 40
3.0
 50
90.0
 51
180.0
  0
LINE
  5
241
  8
DETAIL
  6
CONTINUOUS
 62
     5
 10
20.199999999999999
 20
-28.850000000000001
 30
0.0
 11
11.75
 21
-28.850000000000001
 31
0.0
  0
ARC
  5
242
  8
DETAIL
  6
CONTINUOUS
 62
     5
 10
11.75
 20
-25.850000000000001
 30
0.0
 40
3.0
 50
180.0
 51
270.0
  0
LINE
  5
243
  8
DETAIL
  6
CONTINUOUS
 62
     5
 10
12.474728000000001
 20
-9.6464230000000004
 30
0.0
 11
11.75
 21
-9.6464230000000004
 31
0.0
  0
ARC
  5
244
  8
DETAIL
  6
CONTINUOUS
 62
     5
 10
11.75
 20
-12.646423
 30
0.0
 40
3.0
 50
90.0
 51
180.0
  0
LINE
  5
245
  8
DETAIL
  6
CONTINUOUS
 62
     5
 10
12.474728000000001
 20
-29.053578000000002
 30
0.0
 11
11.75
 21
-29.053578000000002
 31
0.0
  0
ARC
  5
246
  8
DETAIL
  6
CONTINUOUS
 62
     5
 10
11.75
 20
-26.053578000000002
 30
0.0
 40
3.0
 50
180.0
 51
270.0
  0
LINE
  5
247
  8
DETAIL
  6
CONTINUOUS
 62
     5
 10
8.75
 20
-12.85
 30
0.0
 11
8.75
 21
-25.850000000000001
 31
0.0
  0
ARC
  5
248
  8
DETAIL
  6
CONTINUOUS
 62
     5
 10
8.8733509999999995
 20
-9.4499999999999993
 30
0.0
 40
1.5
 50
0.0
 51
90.0
  0
ARC
  5
249
  8
DETAIL
  6
CONTINUOUS
 62
     5
 10
8.8733509999999995
 20
-29.25
 30
0.0
 40
1.5
 50
270.0
 51
0.0
  0
LINE
  5
24A
  8
DETAIL
  6
CONTINUOUS
 62
     5
 10
10.373351
 20
-29.25
 30
0.0
 11
10.373351
 21
-28.719068
 31
0.0
  0
LINE
  5
24B
  8
DETAIL
  6
CONTINUOUS
 62
     5
 10
10.373351
 20
-9.9809330000000003
 30
0.0
 11
10.373351
 21
-9.4499999999999993
 31
0.0
  0
LINE
  5
24C
  8
DETAIL
  6
CONTINUOUS
 62
     5
 10
6.0
 20
-28.378883999999999
 30
0.0
 11
6.0
 21
-29.25
 31
0.0
  0
LINE
  5
24D
  8
DETAIL
  6
CONTINUOUS
 62
     5
 10
-21.899999999999999
 20
12.35
 30
0.0
 11
-21.899999999999999
 21
15.050000000000001
 31
0.0
  0
LINE
  5
24E
  8
DETAIL
  6
CONTINUOUS
 62
     5
 10
-18.449999999999999
 20
15.9
 30
0.0
 11
-15.449999999999999
 21
15.9
 31
0.0
  0
LINE
  5
24F
  8
DETAIL
  6
CONTINUOUS
 62
     5
 10
-15.449999999999999
 20
15.9
 30
0.0
 11
-15.449999999999999
 21
25.0
 31
0.0
  0
LINE
  5
250
  8
DETAIL
  6
CONTINUOUS
 62
     5
 10
-15.449999999999999
 20
25.0
 30
0.0
 11
-18.449999999999999
 21
25.0
 31
0.0
  0
LINE
  5
251
  8
DETAIL
  6
CONTINUOUS
 62
     5
 10
-18.449999999999999
 20
25.0
 30
0.0
 11
-18.449999999999999
 21
15.9
 31
0.0
  0
LINE
  5
252
  8
DETAIL
  6
CONTINUOUS
 62
     5
 10
-18.199999999999999
 20
16.399999999999999
 30
0.0
 11
-15.699999999999999
 21
16.399999999999999
 31
0.0
  0
LINE
  5
253
  8
DETAIL
  6
CONTINUOUS
 62
     5
 10
-15.699999999999999
 20
16.399999999999999
 30
0.0
 11
-15.699999999999999
 21
24.5
 31
0.0
  0
LINE
  5
254
  8
DETAIL
  6
CONTINUOUS
 62
     5
 10
-15.699999999999999
 20
24.5
 30
0.0
 11
-18.199999999999999
 21
24.5
 31
0.0
  0
LINE
  5
255
  8
DETAIL
  6
CONTINUOUS
 62
     5
 10
-18.199999999999999
 20
24.5
 30
0.0
 11
-18.199999999999999
 21
16.399999999999999
 31
0.0
  0
ARC
  5
256
  8
DETAIL
  6
CONTINUOUS
 62
     5
 10
-17.699999999999999
 20
19.149999999999999
 30
0.0
 40
0.5
 50
90.0
 51
180.0
  0
LINE
  5
257
  8
DETAIL
  6
CONTINUOUS
 62
     5
 10
-17.699999999999999
 20
19.649999999999999
 30
0.0
 11
-15.699999999999999
 21
19.649999999999999
 31
0.0
  0
LINE
  5
258
  8
DETAIL
  6
CONTINUOUS
 62
     5
 10
-15.699999999999999
 20
15.85
 30
0.0
 11
-17.699999999999999
 21
15.85
 31
0.0
  0
ARC
  5
259
  8
DETAIL
  6
CONTINUOUS
 62
     5
 10
-17.699999999999999
 20
16.350000000000001
 30
0.0
 40
0.5
 50
180.0
 51
270.0
  0
LINE
  5
25A
  8
DETAIL
  6
CONTINUOUS
 62
     5
 10
-18.199999999999999
 20
16.350000000000001
 30
0.0
 11
-18.199999999999999
 21
19.149999999999999
 31
0.0
  0
ARC
  5
25B
  8
DETAIL
  6
CONTINUOUS
 62
     5
 10
-17.699999999999999
 20
23.449999999999999
 30
0.0
 40
0.5
 50
90.0
 51
180.0
  0
LINE
  5
25C
  8
DETAIL
  6
CONTINUOUS
 62
     5
 10
-17.699999999999999
 20
23.949999999999999
 30
0.0
 11
-15.699999999999999
 21
23.949999999999999
 31
0.0
  0
LINE
  5
25D
  8
DETAIL
  6
CONTINUOUS
 62
     5
 10
-15.699999999999999
 20
16.949999999999999
 30
0.0
 11
-17.699999999999999
 21
16.949999999999999
 31
0.0
  0
ARC
  5
25E
  8
DETAIL
  6
CONTINUOUS
 62
     5
 10
-17.699999999999999
 20
17.449999999999999
 30
0.0
 40
0.5
 50
180.0
 51
270.0
  0
LINE
  5
25F
  8
DETAIL
  6
CONTINUOUS
 62
     5
 10
-18.199999999999999
 20
17.449999999999999
 30
0.0
 11
-18.199999999999999
 21
23.449999999999999
 31
0.0
  0
CIRCLE
  5
260
  8
DETAIL
  6
CONTINUOUS
 62
     5
 10
-13.0
 20
25.199999999999999
 30
0.0
 40
1.1999999999999991
  0
CIRCLE
  5
261
  8
DETAIL
  6
CONTINUOUS
 62
     5
 10
-13.0
 20
25.199999999999999
 30
0.0
 40
1.8999999999999999
  0
CIRCLE
  5
262
  8
DETAIL
  6
CONTINUOUS
 62
     5
 10
-13.0
 20
25.199999999999999
 30
0.0
 40
1.1999999999999991
  0
CIRCLE
  5
263
  8
DETAIL
  6
CONTINUOUS
 62
     5
 10
-13.0
 20
25.199999999999999
 30
0.0
 40
1.8999999999999999
  0
CIRCLE
  5
264
  8
DETAIL
  6
CONTINUOUS
 62
     5
 10
-13.0
 20
25.199999999999999
 30
0.0
 40
1.8
  0
LINE
  5
265
  8
DETAIL
  6
CONTINUOUS
 62
     5
 10
-15.699999999999999
 20
24.5
 30
0.0
 11
-15.449999999999999
 21
25.0
 31
0.0
  0
LINE
  5
266
  8
DETAIL
  6
CONTINUOUS
 62
     5
 10
-18.199999999999999
 20
24.5
 30
0.0
 11
-18.449999999999999
 21
25.0
 31
0.0
  0
LINE
  5
267
  8
DETAIL
  6
CONTINUOUS
 62
     5
 10
-15.449999999999999
 20
15.9
 30
0.0
 11
-15.699999999999999
 21
16.399999999999999
 31
0.0
  0
LINE
  5
268
  8
DETAIL
  6
CONTINUOUS
 62
     5
 10
-18.449999999999999
 20
15.9
 30
0.0
 11
-18.199999999999999
 21
16.399999999999999
 31
0.0
  0
ARC
  5
269
  8
DETAIL
  6
CONTINUOUS
 62
     5
 10
-14.388147
 20
9.7464220000000008
 30
0.0
 40
1.0
 50
90.0
 51
109.943275
  0
LINE
  5
26A
  8
DETAIL
  6
CONTINUOUS
 62
     5
 10
-14.729236999999999
 20
10.686453
 30
0.0
 11
-15.008492
 21
10.585125
 31
0.0
  0
ARC
  5
26B
  8
DETAIL
  6
CONTINUOUS
 62
     5
 10
-15.349582
 20
11.525156000000001
 30
0.0
 40
1.0
 50
270.0
 51
289.94327399999997
  0
LINE
  5
26C
  8
DETAIL
  6
CONTINUOUS
 62
     5
 10
-15.349582
 20
10.525156000000001
 30
0.0
 11
-16.273389999999999
 21
10.525156000000001
 31
0.0
  0
ARC
  5
26D
  8
DETAIL
  6
CONTINUOUS
 62
     5
 10
-16.273389999999999
 20
11.525156000000001
 30
0.0
 40
1.0
 50
247.33877100000001
 51
270.0
  0
LINE
  5
26E
  8
DETAIL
  6
CONTINUOUS
 62
     5
 10
-16.658671999999999
 20
10.602357
 30
0.0
 11
-16.818819999999999
 21
10.669221
 31
0.0
  0
ARC
  5
26F
  8
DETAIL
  6
CONTINUOUS
 62
     5
 10
-17.204101999999999
 20
9.7464220000000008
 30
0.0
 40
1.0
 50
67.338771999999992
 51
90.0
  0
LINE
  5
270
  8
DETAIL
  6
CONTINUOUS
 62
     5
 10
-17.204101999999999
 20
10.746422000000001
 30
0.0
 11
-19.088369
 21
10.746422000000001
 31
0.0
  0
LINE
  5
271
  8
DETAIL
  6
CONTINUOUS
 62
     5
 10
-19.088369
 20
10.746422000000001
 30
0.0
 11
-19.088369
 21
9.9434490000000011
 31
0.0
  0
LINE
  5
272
  8
DETAIL
  6
CONTINUOUS
 62
     5
 10
-19.088369
 20
9.9434490000000011
 30
0.0
 11
-17.201612999999998
 21
9.9434490000000011
 31
0.0
  0
ARC
  5
273
  8
DETAIL
  6
CONTINUOUS
 62
     5
 10
-17.201612999999998
 20
8.9434490000000011
 30
0.0
 40
1.0
 50
67.613033999999999
 51
90.0
  0
LINE
  5
274
  8
DETAIL
  6
CONTINUOUS
 62
     5
 10
-16.820753
 20
9.8680820000000011
 30
0.0
 11
-16.656738000000001
 21
9.8005230000000001
 31
0.0
  0
ARC
  5
275
  8
DETAIL
  6
CONTINUOUS
 62
     5
 10
-16.275877999999999
 20
10.725156
 30
0.0
 40
1.0
 50
247.613032
 51
270.0
  0
LINE
  5
276
  8
DETAIL
  6
CONTINUOUS
 62
     5
 10
-16.275877999999999
 20
9.7251560000000001
 30
0.0
 11
-15.823765
 21
9.7251560000000001
 31
0.0
  0
LINE
  5
277
  8
DETAIL
  6
CONTINUOUS
 62
     5
 10
-15.823765
 20
9.7251560000000001
 30
0.0
 11
-15.347359000000001
 21
9.7251560000000001
 31
0.0
  0
ARC
  5
278
  8
DETAIL
  6
CONTINUOUS
 62
     5
 10
-15.347359000000001
 20
10.725156
 30
0.0
 40
1.0
 50
270.0
 51
289.69604299999997
  0
LINE
  5
279
  8
DETAIL
  6
CONTINUOUS
 62
     5
 10
-15.010327999999999
 20
9.7836619999999996
 30
0.0
 11
-14.727401
 21
9.8849429999999998
 31
0.0
  0
ARC
  5
27A
  8
DETAIL
  6
CONTINUOUS
 62
     5
 10
-14.390371
 20
8.9434490000000011
 30
0.0
 40
1.0
 50
90.0
 51
109.696045
  0
LINE
  5
27B
  8
DETAIL
  6
CONTINUOUS
 62
     5
 10
-17.199999999999999
 20
9.7251560000000001
 30
0.0
 11
-17.5
 21
9.5290149999999993
 31
0.0
  0
LINE
  5
27C
  8
DETAIL
  6
CONTINUOUS
 62
     5
 10
-17.5
 20
9.5290149999999993
 30
0.0
 11
-17.5
 21
9.3998840000000001
 31
0.0
  0
LINE
  5
27D
  8
DETAIL
  6
CONTINUOUS
 62
     5
 10
-16.902954000000001
 20
10.699999999999999
 30
0.0
 11
-14.689295
 21
10.699999999999999
 31
0.0
  0
ARC
  5
27E
  8
DETAIL
  6
CONTINUOUS
 62
     5
 10
-18.199999999999999
 20
9.9499999999999993
 30
0.0
 40
0.5
 50
270.0
 51
351.83951200000001
  0
LINE
  5
27F
  8
DETAIL
  6
CONTINUOUS
 62
     5
 10
-21.5
 20
12.829670999999999
 30
0.0
 11
-21.5
 21
10.949999999999999
 31
0.0
  0
ARC
  5
280
  8
DETAIL
  6
CONTINUOUS
 62
     5
 10
-20.0
 20
10.949999999999999
 30
0.0
 40
1.5
 50
180.0
 51
270.0
  0
LINE
  5
281
  8
DETAIL
  6
CONTINUOUS
 62
     5
 10
-20.0
 20
9.4499999999999993
 30
0.0
 11
-18.199999999999999
 21
9.4499999999999993
 31
0.0
  0
ARC
  5
282
  8
DETAIL
  6
CONTINUOUS
 62
     5
 10
-18.323435
 20
6.9434490000000002
 30
0.0
 40
3.0
 50
68.007923000000005
 51
90.0
  0
LINE
  5
283
  8
DETAIL
  6
CONTINUOUS
 62
     5
 10
-17.5
 20
9.5290149999999993
 30
0.0
 11
-17.5
 21
9.8282289999999985
 31
0.0
  0
LINE
  5
284
  8
DETAIL
  6
CONTINUOUS
 62
     5
 10
-12.474728000000001
 20
30.153576999999999
 30
0.0
 11
-11.75
 21
30.153576999999999
 31
0.0
  0
ARC
  5
285
  8
DETAIL
  6
CONTINUOUS
 62
     5
 10
-14.388147
 20
31.153577000000009
 30
0.0
 40
1.0
 50
250.056725
 51
270.0
  0
LINE
  5
286
  8
DETAIL
  6
CONTINUOUS
 62
     5
 10
-14.729236999999999
 20
30.213546999999998
 30
0.0
 11
-15.008492
 21
30.314874
 31
0.0
  0
ARC
  5
287
  8
DETAIL
  6
CONTINUOUS
 62
     5
 10
-15.349582
 20
29.374844
 30
0.0
 40
1.0
 50
70.056725999999998
 51
90.0
  0
LINE
  5
288
  8
DETAIL
  6
CONTINUOUS
 62
     5
 10
-15.349582
 20
30.374844
 30
0.0
 11
-16.273389999999999
 21
30.374844
 31
0.0
  0
ARC
  5
289
  8
DETAIL
  6
CONTINUOUS
 62
     5
 10
-16.273389999999999
 20
29.374844
 30
0.0
 40
1.0
 50
90.0
 51
112.66122900000001
  0
LINE
  5
28A
  8
DETAIL
  6
CONTINUOUS
 62
     5
 10
-16.658671999999999
 20
30.297643000000001
 30
0.0
 11
-16.818819999999999
 21
30.230778000000011
 31
0.0
  0
ARC
  5
28B
  8
DETAIL
  6
CONTINUOUS
 62
     5
 10
-17.204101999999999
 20
31.153577000000009
 30
0.0
 40
1.0
 50
270.0
 51
292.66122799999999
  0
LINE
  5
28C
  8
DETAIL
  6
CONTINUOUS
 62
     5
 10
-17.204101999999999
 20
30.153576999999999
 30
0.0
 11
-19.088369
 21
30.153576999999999
 31
0.0
  0
LINE
  5
28D
  8
DETAIL
  6
CONTINUOUS
 62
     5
 10
-19.088369
 20
30.153576999999999
 30
0.0
 11
-19.088369
 21
30.95655
 31
0.0
  0
LINE
  5
28E
  8
DETAIL
  6
CONTINUOUS
 62
     5
 10
-19.088369
 20
30.95655
 30
0.0
 11
-17.201612999999998
 21
30.95655
 31
0.0
  0
ARC
  5
28F
  8
DETAIL
  6
CONTINUOUS
 62
     5
 10
-17.201612999999998
 20
31.95655
 30
0.0
 40
1.0
 50
270.0
 51
292.38696599999997
  0
LINE
  5
290
  8
DETAIL
  6
CONTINUOUS
 62
     5
 10
-16.820753
 20
31.031918000000001
 30
0.0
 11
-16.656738000000001
 21
31.099475999999999
 31
0.0
  0
ARC
  5
291
  8
DETAIL
  6
CONTINUOUS
 62
     5
 10
-16.275877999999999
 20
30.174844
 30
0.0
 40
1.0
 50
90.0
 51
112.386968
  0
LINE
  5
292
  8
DETAIL
  6
CONTINUOUS
 62
     5
 10
-16.275877999999999
 20
31.174844
 30
0.0
 11
-15.823765
 21
31.174844
 31
0.0
  0
LINE
  5
293
  8
DETAIL
  6
CONTINUOUS
 62
     5
 10
-15.823765
 20
31.174844
 30
0.0
 11
-15.347359000000001
 21
31.174844
 31
0.0
  0
ARC
  5
294
  8
DETAIL
  6
CONTINUOUS
 62
     5
 10
-15.347359000000001
 20
30.174844
 30
0.0
 40
1.0
 50
70.303956999999997
 51
90.0
  0
LINE
  5
295
  8
DETAIL
  6
CONTINUOUS
 62
     5
 10
-15.010327999999999
 20
31.116337000000001
 30
0.0
 11
-14.727401
 21
31.015057000000009
 31
0.0
  0
ARC
  5
296
  8
DETAIL
  6
CONTINUOUS
 62
     5
 10
-14.390371
 20
31.95655
 30
0.0
 40
1.0
 50
250.303955
 51
270.0
  0
LINE
  5
297
  8
DETAIL
  6
CONTINUOUS
 62
     5
 10
-14.390371
 20
30.95655
 30
0.0
 11
-12.474728000000001
 21
30.95655
 31
0.0
  0
LINE
  5
298
  8
DETAIL
  6
CONTINUOUS
 62
     5
 10
-12.474728000000001
 20
30.95655
 30
0.0
 11
-12.474728000000001
 21
30.153576999999999
 31
0.0
  0
LINE
  5
299
  8
DETAIL
  6
CONTINUOUS
 62
     5
 10
-12.474728000000001
 20
30.153576999999999
 30
0.0
 11
-14.388147
 21
30.153576999999999
 31
0.0
  0
LINE
  5
29A
  8
DETAIL
  6
CONTINUOUS
 62
     5
 10
-17.199999999999999
 20
31.174844
 30
0.0
 11
-17.5
 21
31.370984000000011
 31
0.0
  0
LINE
  5
29B
  8
DETAIL
  6
CONTINUOUS
 62
     5
 10
-17.5
 20
31.370984000000011
 30
0.0
 11
-17.5
 21
31.500115999999998
 31
0.0
  0
LINE
  5
29C
  8
DETAIL
  6
CONTINUOUS
 62
     5
 10
-17.5
 20
31.500115999999998
 30
0.0
 11
-14.0
 21
31.500115999999998
 31
0.0
  0
LINE
  5
29D
  8
DETAIL
  6
CONTINUOUS
 62
     5
 10
-14.0
 20
31.500115999999998
 30
0.0
 11
-14.0
 21
31.370984000000011
 31
0.0
  0
LINE
  5
29E
  8
DETAIL
  6
CONTINUOUS
 62
     5
 10
-14.0
 20
31.370984000000011
 30
0.0
 11
-14.300000000000001
 21
31.174844
 31
0.0
  0
LINE
  5
29F
  8
DETAIL
  6
CONTINUOUS
 62
     5
 10
-16.902954000000001
 20
30.199999999999999
 30
0.0
 11
-14.689295
 21
30.199999999999999
 31
0.0
  0
ARC
  5
2A0
  8
DETAIL
  6
CONTINUOUS
 62
     5
 10
-13.176565
 20
33.95655
 30
0.0
 40
3.0
 50
248.00792100000001
 51
270.0
  0
LINE
  5
2A1
  8
DETAIL
  6
CONTINUOUS
 62
     5
 10
-14.0
 20
31.370984000000011
 30
0.0
 11
-14.0
 21
31.174844
 31
0.0
  0
LINE
  5
2A2
  8
DETAIL
  6
CONTINUOUS
 62
     5
 10
-14.0
 20
31.174844
 30
0.0
 11
-14.0
 21
31.071770999999998
 31
0.0
  0
ARC
  5
2A3
  8
DETAIL
  6
CONTINUOUS
 62
     5
 10
-18.323435
 20
33.95655
 30
0.0
 40
3.0
 50
270.0
 51
291.99207699999999
  0
LINE
  5
2A4
  8
DETAIL
  6
CONTINUOUS
 62
     5
 10
-17.5
 20
31.370984000000011
 30
0.0
 11
-17.5
 21
31.071770999999998
 31
0.0
  0
LINE
  5
2A5
  8
DETAIL
  6
CONTINUOUS
 62
     5
 10
13.300000000000001
 20
31.850000000000001
 30
0.0
 11
-13.300000000000001
 21
31.850000000000001
 31
0.0
  0
ARC
  5
2A6
  8
DETAIL
  6
CONTINUOUS
 62
     5
 10
-13.291776
 20
31.129992000000001
 30
0.0
 40
0.720055
 50
90.654431000000017
 51
169.59934999999999
  0
ARC
  5
2A7
  8
DETAIL
  6
CONTINUOUS
 62
     5
 10
-20.199999999999999
 20
28.949999999999999
 30
0.0
 40
1.0
 50
90.0
 51
180.0
  0
LINE
  5
2A8
  8
DETAIL
  6
CONTINUOUS
 62
     5
 10
-21.199999999999999
 20
28.949999999999999
 30
0.0
 11
-21.199999999999999
 21
20.449999999999999
 31
0.0
  0
LINE
  5
2A9
  8
DETAIL
  6
CONTINUOUS
 62
     5
 10
-21.199999999999999
 20
20.449999999999999
 30
0.0
 11
-21.199999999999999
 21
11.949999999999999
 31
0.0
  0
ARC
  5
2AA
  8
DETAIL
  6
CONTINUOUS
 62
     5
 10
-20.199999999999999
 20
11.949999999999999
 30
0.0
 40
1.0
 50
180.0
 51
270.0
  0
LINE
  5
2AB
  8
DETAIL
  6
CONTINUOUS
 62
     5
 10
-11.75
 20
29.949999999999999
 30
0.0
 11
-20.199999999999999
 21
29.949999999999999
 31
0.0
  0
ARC
  5
2AC
  8
DETAIL
  6
CONTINUOUS
 62
     5
 10
-20.199999999999999
 20
12.023381000000001
 30
0.0
 40
1.3
 50
180.0
 51
270.0
  0
LINE
  5
2AD
  8
DETAIL
  6
CONTINUOUS
 62
     5
 10
-21.5
 20
12.023381000000001
 30
0.0
 11
-21.5
 21
12.486915
 31
0.0
  0
LINE
  5
2AE
  8
DETAIL
  6
CONTINUOUS
 62
     5
 10
-21.5
 20
12.486915
 30
0.0
 11
-21.5
 21
28.876618000000001
 31
0.0
  0
ARC
  5
2AF
  8
DETAIL
  6
CONTINUOUS
 62
     5
 10
-20.199999999999999
 20
28.876618000000001
 30
0.0
 40
1.3
 50
90.0
 51
180.0
  0
LINE
  5
2B0
  8
DETAIL
  6
CONTINUOUS
 62
     5
 10
-20.199999999999999
 20
30.176618000000001
 30
0.0
 11
-19.088369
 21
30.176618000000001
 31
0.0
  0
LINE
  5
2B1
  8
DETAIL
  6
CONTINUOUS
 62
     5
 10
-19.088369
 20
10.723381
 30
0.0
 11
-20.199999999999999
 21
10.723381
 31
0.0
  0
LINE
  5
2B2
  8
DETAIL
  6
CONTINUOUS
 62
     5
 10
-21.600000000000001
 20
15.15
 30
0.0
 11
-21.5
 21
15.15
 31
0.0
  0
LINE
  5
2B3
  8
DETAIL
  6
CONTINUOUS
 62
     5
 10
-21.5
 20
25.75
 30
0.0
 11
-21.600000000000001
 21
25.75
 31
0.0
  0
LINE
  5
2B4
  8
DETAIL
  6
CONTINUOUS
 62
     5
 10
-21.600000000000001
 20
28.649999999999999
 30
0.0
 11
-21.5
 21
28.649999999999999
 31
0.0
  0
LINE
  5
2B5
  8
DETAIL
  6
CONTINUOUS
 62
     5
 10
-21.5
 20
12.25
 30
0.0
 11
-21.600000000000001
 21
12.25
 31
0.0
  0
ARC
  5
2B6
  8
DETAIL
  6
CONTINUOUS
 62
     5
 10
-18.199999999999999
 20
30.949999999999999
 30
0.0
 40
0.5
 50
8.1604880000000009
 51
90.0
  0
LINE
  5
2B7
  8
DETAIL
  6
CONTINUOUS
 62
     5
 10
-21.5
 20
28.070328
 30
0.0
 11
-21.5
 21
29.949999999999999
 31
0.0
  0
ARC
  5
2B8
  8
DETAIL
  6
CONTINUOUS
 62
     5
 10
-20.0
 20
29.949999999999999
 30
0.0
 40
1.5
 50
90.0
 51
180.0
  0
LINE
  5
2B9
  8
DETAIL
  6
CONTINUOUS
 62
     5
 10
-20.0
 20
31.449999999999999
 30
0.0
 11
-18.199999999999999
 21
31.449999999999999
 31
0.0
  0
LINE
  5
2BA
  8
DETAIL
  6
CONTINUOUS
 62
     5
 10
-21.899999999999999
 20
25.850000000000001
 30
0.0
 11
-21.899999999999999
 21
28.550000000000001
 31
0.0
  0
ARC
  5
2BB
  8
DETAIL
  6
CONTINUOUS
 62
     5
 10
-21.600000000000001
 20
28.149999999999999
 30
0.0
 40
0.5
 50
90.0
 51
134.42700400000001
  0
ARC
  5
2BC
  8
DETAIL
  6
CONTINUOUS
 62
     5
 10
-21.600000000000001
 20
26.25
 30
0.0
 40
0.5
 50
225.57299599999999
 51
270.0
  0
ARC
  5
2BD
  8
DETAIL
  6
CONTINUOUS
 62
     5
 10
-21.600000000000001
 20
14.65
 30
0.0
 40
0.5
 50
90.0
 51
134.42700400000001
  0
ARC
  5
2BE
  8
DETAIL
  6
CONTINUOUS
 62
     5
 10
-21.600000000000001
 20
12.75
 30
0.0
 40
0.5
 50
225.57299599999999
 51
270.0
  0
LINE
  5
2BF
  8
DETAIL
  6
CONTINUOUS
 62
     5
 10
-21.899999999999999
 20
-27.449999999999999
 30
0.0
 11
-21.899999999999999
 21
-24.75
 31
0.0
  0
LINE
  5
2C0
  8
DETAIL
  6
CONTINUOUS
 62
     5
 10
-18.449999999999999
 20
-23.899999999999999
 30
0.0
 11
-15.449999999999999
 21
-23.899999999999999
 31
0.0
  0
LINE
  5
2C1
  8
DETAIL
  6
CONTINUOUS
 62
     5
 10
-15.449999999999999
 20
-23.899999999999999
 30
0.0
 11
-15.449999999999999
 21
-14.800000000000001
 31
0.0
  0
LINE
  5
2C2
  8
DETAIL
  6
CONTINUOUS
 62
     5
 10
-15.449999999999999
 20
-14.800000000000001
 30
0.0
 11
-18.449999999999999
 21
-14.800000000000001
 31
0.0
  0
LINE
  5
2C3
  8
DETAIL
  6
CONTINUOUS
 62
     5
 10
-18.449999999999999
 20
-14.800000000000001
 30
0.0
 11
-18.449999999999999
 21
-23.899999999999999
 31
0.0
  0
LINE
  5
2C4
  8
DETAIL
  6
CONTINUOUS
 62
     5
 10
-18.199999999999999
 20
-23.399999999999999
 30
0.0
 11
-15.699999999999999
 21
-23.399999999999999
 31
0.0
  0
LINE
  5
2C5
  8
DETAIL
  6
CONTINUOUS
 62
     5
 10
-15.699999999999999
 20
-23.399999999999999
 30
0.0
 11
-15.699999999999999
 21
-15.300000000000001
 31
0.0
  0
LINE
  5
2C6
  8
DETAIL
  6
CONTINUOUS
 62
     5
 10
-15.699999999999999
 20
-15.300000000000001
 30
0.0
 11
-18.199999999999999
 21
-15.300000000000001
 31
0.0
  0
LINE
  5
2C7
  8
DETAIL
  6
CONTINUOUS
 62
     5
 10
-18.199999999999999
 20
-15.300000000000001
 30
0.0
 11
-18.199999999999999
 21
-23.399999999999999
 31
0.0
  0
ARC
  5
2C8
  8
DETAIL
  6
CONTINUOUS
 62
     5
 10
-17.699999999999999
 20
-17.949999999999999
 30
0.0
 40
0.5
 50
90.0
 51
180.0
  0
LINE
  5
2C9
  8
DETAIL
  6
CONTINUOUS
 62
     5
 10
-17.699999999999999
 20
-17.449999999999999
 30
0.0
 11
-15.699999999999999
 21
-17.449999999999999
 31
0.0
  0
LINE
  5
2CA
  8
DETAIL
  6
CONTINUOUS
 62
     5
 10
-15.699999999999999
 20
-21.25
 30
0.0
 11
-17.699999999999999
 21
-21.25
 31
0.0
  0
ARC
  5
2CB
  8
DETAIL
  6
CONTINUOUS
 62
     5
 10
-17.699999999999999
 20
-20.75
 30
0.0
 40
0.5
 50
180.0
 51
270.0
  0
LINE
  5
2CC
  8
DETAIL
  6
CONTINUOUS
 62
     5
 10
-18.199999999999999
 20
-20.75
 30
0.0
 11
-18.199999999999999
 21
-17.949999999999999
 31
0.0
  0
ARC
  5
2CD
  8
DETAIL
  6
CONTINUOUS
 62
     5
 10
-17.699999999999999
 20
-16.350000000000001
 30
0.0
 40
0.5
 50
90.0
 51
180.0
  0
LINE
  5
2CE
  8
DETAIL
  6
CONTINUOUS
 62
     5
 10
-17.699999999999999
 20
-15.85
 30
0.0
 11
-15.699999999999999
 21
-15.85
 31
0.0
  0
LINE
  5
2CF
  8
DETAIL
  6
CONTINUOUS
 62
     5
 10
-15.699999999999999
 20
-22.850000000000001
 30
0.0
 11
-17.699999999999999
 21
-22.850000000000001
 31
0.0
  0
ARC
  5
2D0
  8
DETAIL
  6
CONTINUOUS
 62
     5
 10
-17.699999999999999
 20
-22.350000000000001
 30
0.0
 40
0.5
 50
180.0
 51
270.0
  0
LINE
  5
2D1
  8
DETAIL
  6
CONTINUOUS
 62
     5
 10
-18.199999999999999
 20
-22.350000000000001
 30
0.0
 11
-18.199999999999999
 21
-16.350000000000001
 31
0.0
  0
LINE
  5
2D2
  8
DETAIL
  6
CONTINUOUS
 62
     5
 10
-15.699999999999999
 20
-15.300000000000001
 30
0.0
 11
-15.449999999999999
 21
-14.800000000000001
 31
0.0
  0
LINE
  5
2D3
  8
DETAIL
  6
CONTINUOUS
 62
     5
 10
-18.199999999999999
 20
-15.300000000000001
 30
0.0
 11
-18.449999999999999
 21
-14.800000000000001
 31
0.0
  0
ARC
  5
2D4
  8
DETAIL
  6
CONTINUOUS
 62
     5
 10
-13.0
 20
-24.100000000000001
 30
0.0
 40
1.8999999999999999
 50
96.011476999999999
 51
17.678056000000002
  0
ARC
  5
2D5
  8
DETAIL
  6
CONTINUOUS
 62
     5
 10
-13.0
 20
-24.100000000000001
 30
0.0
 40
1.8
 50
98.655081999999993
 51
15.034452
  0
LINE
  5
2D6
  8
DETAIL
  6
CONTINUOUS
 62
     5
 10
-15.449999999999999
 20
-23.899999999999999
 30
0.0
 11
-15.699999999999999
 21
-23.399999999999999
 31
0.0
  0
LINE
  5
2D7
  8
DETAIL
  6
CONTINUOUS
 62
     5
 10
-18.449999999999999
 20
-23.899999999999999
 30
0.0
 11
-18.199999999999999
 21
-23.399999999999999
 31
0.0
  0
ARC
  5
2D8
  8
DETAIL
  6
CONTINUOUS
 62
     5
 10
-14.388147
 20
-30.053578000000002
 30
0.0
 40
1.0
 50
90.0
 51
109.943275
  0
LINE
  5
2D9
  8
DETAIL
  6
CONTINUOUS
 62
     5
 10
-14.729236999999999
 20
-29.113547000000001
 30
0.0
 11
-15.008492
 21
-29.214874999999999
 31
0.0
  0
ARC
  5
2DA
  8
DETAIL
  6
CONTINUOUS
 62
     5
 10
-15.349582
 20
-28.274844000000002
 30
0.0
 40
1.0
 50
270.0
 51
289.94327399999997
  0
LINE
  5
2DB
  8
DETAIL
  6
CONTINUOUS
 62
     5
 10
-15.349582
 20
-29.274844000000002
 30
0.0
 11
-16.273389999999999
 21
-29.274844000000002
 31
0.0
  0
ARC
  5
2DC
  8
DETAIL
  6
CONTINUOUS
 62
     5
 10
-16.273389999999999
 20
-28.274844000000002
 30
0.0
 40
1.0
 50
247.33877100000001
 51
270.0
  0
LINE
  5
2DD
  8
DETAIL
  6
CONTINUOUS
 62
     5
 10
-16.658671999999999
 20
-29.197642999999999
 30
0.0
 11
-16.818819999999999
 21
-29.130779
 31
0.0
  0
ARC
  5
2DE
  8
DETAIL
  6
CONTINUOUS
 62
     5
 10
-17.204101999999999
 20
-30.053578000000002
 30
0.0
 40
1.0
 50
67.338771999999992
 51
90.0
  0
LINE
  5
2DF
  8
DETAIL
  6
CONTINUOUS
 62
     5
 10
-17.204101999999999
 20
-29.053578000000002
 30
0.0
 11
-19.088369
 21
-29.053578000000002
 31
0.0
  0
LINE
  5
2E0
  8
DETAIL
  6
CONTINUOUS
 62
     5
 10
-19.088369
 20
-29.053578000000002
 30
0.0
 11
-19.088369
 21
-29.856551
 31
0.0
  0
LINE
  5
2E1
  8
DETAIL
  6
CONTINUOUS
 62
     5
 10
-19.088369
 20
-29.856551
 30
0.0
 11
-17.201612999999998
 21
-29.856551
 31
0.0
  0
ARC
  5
2E2
  8
DETAIL
  6
CONTINUOUS
 62
     5
 10
-17.201612999999998
 20
-30.856551
 30
0.0
 40
1.0
 50
67.613033999999999
 51
90.0
  0
LINE
  5
2E3
  8
DETAIL
  6
CONTINUOUS
 62
     5
 10
-16.820753
 20
-29.931918
 30
0.0
 11
-16.656738000000001
 21
-29.999476999999999
 31
0.0
  0
ARC
  5
2E4
  8
DETAIL
  6
CONTINUOUS
 62
     5
 10
-16.275877999999999
 20
-29.074843999999999
 30
0.0
 40
1.0
 50
247.613032
 51
270.0
  0
LINE
  5
2E5
  8
DETAIL
  6
CONTINUOUS
 62
     5
 10
-16.275877999999999
 20
-30.074843999999999
 30
0.0
 11
-15.823765
 21
-30.074843999999999
 31
0.0
  0
LINE
  5
2E6
  8
DETAIL
  6
CONTINUOUS
 62
     5
 10
-15.823765
 20
-30.074843999999999
 30
0.0
 11
-15.347359000000001
 21
-30.074843999999999
 31
0.0
  0
ARC
  5
2E7
  8
DETAIL
  6
CONTINUOUS
 62
     5
 10
-15.347359000000001
 20
-29.074843999999999
 30
0.0
 40
1.0
 50
270.0
 51
289.69604299999997
  0
LINE
  5
2E8
  8
DETAIL
  6
CONTINUOUS
 62
     5
 10
-15.010327999999999
 20
-30.016338000000001
 30
0.0
 11
-14.727401
 21
-29.915057000000001
 31
0.0
  0
ARC
  5
2E9
  8
DETAIL
  6
CONTINUOUS
 62
     5
 10
-14.390371
 20
-30.856551
 30
0.0
 40
1.0
 50
90.0
 51
109.696045
  0
LINE
  5
2EA
  8
DETAIL
  6
CONTINUOUS
 62
     5
 10
-14.390371
 20
-29.856551
 30
0.0
 11
-12.474728000000001
 21
-29.856551
 31
0.0
  0
LINE
  5
2EB
  8
DETAIL
  6
CONTINUOUS
 62
     5
 10
-12.474728000000001
 20
-29.856551
 30
0.0
 11
-12.474728000000001
 21
-29.053578000000002
 31
0.0
  0
LINE
  5
2EC
  8
DETAIL
  6
CONTINUOUS
 62
     5
 10
-12.474728000000001
 20
-29.053578000000002
 30
0.0
 11
-14.388147
 21
-29.053578000000002
 31
0.0
  0
LINE
  5
2ED
  8
DETAIL
  6
CONTINUOUS
 62
     5
 10
-17.199999999999999
 20
-30.074843999999999
 30
0.0
 11
-17.5
 21
-30.270985
 31
0.0
  0
LINE
  5
2EE
  8
DETAIL
  6
CONTINUOUS
 62
     5
 10
-17.5
 20
-30.270985
 30
0.0
 11
-17.5
 21
-30.400116000000001
 31
0.0
  0
LINE
  5
2EF
  8
DETAIL
  6
CONTINUOUS
 62
     5
 10
-17.5
 20
-30.400116000000001
 30
0.0
 11
-14.0
 21
-30.400116000000001
 31
0.0
  0
LINE
  5
2F0
  8
DETAIL
  6
CONTINUOUS
 62
     5
 10
-14.0
 20
-30.400116000000001
 30
0.0
 11
-14.0
 21
-30.270985
 31
0.0
  0
LINE
  5
2F1
  8
DETAIL
  6
CONTINUOUS
 62
     5
 10
-14.0
 20
-30.270985
 30
0.0
 11
-14.300000000000001
 21
-30.074843999999999
 31
0.0
  0
LINE
  5
2F2
  8
DETAIL
  6
CONTINUOUS
 62
     5
 10
-16.902954000000001
 20
-29.100000000000001
 30
0.0
 11
-14.689295
 21
-29.100000000000001
 31
0.0
  0
ARC
  5
2F3
  8
DETAIL
  6
CONTINUOUS
 62
     5
 10
-13.176565
 20
-32.856551000000003
 30
0.0
 40
3.0
 50
90.0
 51
111.992079
  0
LINE
  5
2F4
  8
DETAIL
  6
CONTINUOUS
 62
     5
 10
-14.0
 20
-30.270985
 30
0.0
 11
-14.0
 21
-30.074843999999999
 31
0.0
  0
LINE
  5
2F5
  8
DETAIL
  6
CONTINUOUS
 62
     5
 10
-14.0
 20
-30.074843999999999
 30
0.0
 11
-14.0
 21
-29.971771
 31
0.0
  0
ARC
  5
2F6
  8
DETAIL
  6
CONTINUOUS
 62
     5
 10
-18.199999999999999
 20
-29.850000000000001
 30
0.0
 40
0.5
 50
270.0
 51
351.83951200000001
  0
LINE
  5
2F7
  8
DETAIL
  6
CONTINUOUS
 62
     5
 10
-21.5
 20
-26.970329
 30
0.0
 11
-21.5
 21
-28.850000000000001
 31
0.0
  0
ARC
  5
2F8
  8
DETAIL
  6
CONTINUOUS
 62
     5
 10
-20.0
 20
-28.850000000000001
 30
0.0
 40
1.5
 50
180.0
 51
270.0
  0
LINE
  5
2F9
  8
DETAIL
  6
CONTINUOUS
 62
     5
 10
-20.0
 20
-30.350000000000001
 30
0.0
 11
-18.199999999999999
 21
-30.350000000000001
 31
0.0
  0
ARC
  5
2FA
  8
DETAIL
  6
CONTINUOUS
 62
     5
 10
-18.323435
 20
-32.856551000000003
 30
0.0
 40
3.0
 50
68.007923000000005
 51
90.0
  0
LINE
  5
2FB
  8
DETAIL
  6
CONTINUOUS
 62
     5
 10
-17.5
 20
-30.270985
 30
0.0
 11
-17.5
 21
-29.971771
 31
0.0
  0
LINE
  5
2FC
  8
DETAIL
  6
CONTINUOUS
 62
     5
 10
13.300000000000001
 20
-30.75
 30
0.0
 11
-13.300000000000001
 21
-30.75
 31
0.0
  0
ARC
  5
2FD
  8
DETAIL
  6
CONTINUOUS
 62
     5
 10
-13.291776
 20
-30.029992
 30
0.0
 40
0.720055
 50
190.40065000000001
 51
269.34556900000001
  0
ARC
  5
2FE
  8
DETAIL
  6
CONTINUOUS
 62
     5
 10
-14.388147
 20
-8.6464230000000004
 30
0.0
 40
1.0
 50
250.056725
 51
270.0
  0
LINE
  5
2FF
  8
DETAIL
  6
CONTINUOUS
 62
     5
 10
-14.729236999999999
 20
-9.5864530000000006
 30
0.0
 11
-15.008492
 21
-9.4851259999999993
 31
0.0
  0
ARC
  5
300
  8
DETAIL
  6
CONTINUOUS
 62
     5
 10
-15.349582
 20
-10.425155999999999
 30
0.0
 40
1.0
 50
70.056725999999998
 51
90.0
  0
LINE
  5
301
  8
DETAIL
  6
CONTINUOUS
 62
     5
 10
-15.349582
 20
-9.4251559999999994
 30
0.0
 11
-16.273389999999999
 21
-9.4251559999999994
 31
0.0
  0
ARC
  5
302
  8
DETAIL
  6
CONTINUOUS
 62
     5
 10
-16.273389999999999
 20
-10.425155999999999
 30
0.0
 40
1.0
 50
90.0
 51
112.66122900000001
  0
LINE
  5
303
  8
DETAIL
  6
CONTINUOUS
 62
     5
 10
-16.658671999999999
 20
-9.5023569999999982
 30
0.0
 11
-16.818819999999999
 21
-9.5692219999999981
 31
0.0
  0
ARC
  5
304
  8
DETAIL
  6
CONTINUOUS
 62
     5
 10
-17.204101999999999
 20
-8.6464230000000004
 30
0.0
 40
1.0
 50
270.0
 51
292.66122799999999
  0
LINE
  5
305
  8
DETAIL
  6
CONTINUOUS
 62
     5
 10
-17.204101999999999
 20
-9.6464230000000004
 30
0.0
 11
-19.088369
 21
-9.6464230000000004
 31
0.0
  0
LINE
  5
306
  8
DETAIL
  6
CONTINUOUS
 62
     5
 10
-19.088369
 20
-9.6464230000000004
 30
0.0
 11
-19.088369
 21
-8.8434500000000007
 31
0.0
  0
LINE
  5
307
  8
DETAIL
  6
CONTINUOUS
 62
     5
 10
-19.088369
 20
-8.8434500000000007
 30
0.0
 11
-17.201612999999998
 21
-8.8434500000000007
 31
0.0
  0
ARC
  5
308
  8
DETAIL
  6
CONTINUOUS
 62
     5
 10
-17.201612999999998
 20
-7.8434499999999989
 30
0.0
 40
1.0
 50
270.0
 51
292.38696599999997
  0
LINE
  5
309
  8
DETAIL
  6
CONTINUOUS
 62
     5
 10
-16.820753
 20
-8.7680820000000015
 30
0.0
 11
-16.656738000000001
 21
-8.7005239999999997
 31
0.0
  0
ARC
  5
30A
  8
DETAIL
  6
CONTINUOUS
 62
     5
 10
-16.275877999999999
 20
-9.6251560000000005
 30
0.0
 40
1.0
 50
90.0
 51
112.386968
  0
LINE
  5
30B
  8
DETAIL
  6
CONTINUOUS
 62
     5
 10
-16.275877999999999
 20
-8.6251560000000005
 30
0.0
 11
-15.823765
 21
-8.6251560000000005
 31
0.0
  0
LINE
  5
30C
  8
DETAIL
  6
CONTINUOUS
 62
     5
 10
-15.823765
 20
-8.6251560000000005
 30
0.0
 11
-15.347359000000001
 21
-8.6251560000000005
 31
0.0
  0
ARC
  5
30D
  8
DETAIL
  6
CONTINUOUS
 62
     5
 10
-15.347359000000001
 20
-9.6251560000000005
 30
0.0
 40
1.0
 50
70.303956999999997
 51
90.0
  0
LINE
  5
30E
  8
DETAIL
  6
CONTINUOUS
 62
     5
 10
-15.010327999999999
 20
-8.683663000000001
 30
0.0
 11
-14.727401
 21
-8.7849430000000002
 31
0.0
  0
ARC
  5
30F
  8
DETAIL
  6
CONTINUOUS
 62
     5
 10
-14.390371
 20
-7.8434499999999989
 30
0.0
 40
1.0
 50
250.303955
 51
270.0
  0
LINE
  5
310
  8
DETAIL
  6
CONTINUOUS
 62
     5
 10
-17.199999999999999
 20
-8.6251560000000005
 30
0.0
 11
-17.5
 21
-8.4290160000000007
 31
0.0
  0
LINE
  5
311
  8
DETAIL
  6
CONTINUOUS
 62
     5
 10
-17.5
 20
-8.4290160000000007
 30
0.0
 11
-17.5
 21
-8.2998840000000005
 31
0.0
  0
LINE
  5
312
  8
DETAIL
  6
CONTINUOUS
 62
     5
 10
-16.902954000000001
 20
-9.5999999999999996
 30
0.0
 11
-14.689295
 21
-9.5999999999999996
 31
0.0
  0
ARC
  5
313
  8
DETAIL
  6
CONTINUOUS
 62
     5
 10
-18.323435
 20
-5.8434499999999989
 30
0.0
 40
3.0
 50
270.0
 51
291.99207699999999
  0
LINE
  5
314
  8
DETAIL
  6
CONTINUOUS
 62
     5
 10
-17.5
 20
-8.4290160000000007
 30
0.0
 11
-17.5
 21
-8.7282289999999971
 31
0.0
  0
ARC
  5
315
  8
DETAIL
  6
CONTINUOUS
 62
     5
 10
-20.199999999999999
 20
-10.85
 30
0.0
 40
1.0
 50
90.0
 51
180.0
  0
LINE
  5
316
  8
DETAIL
  6
CONTINUOUS
 62
     5
 10
-21.199999999999999
 20
-10.85
 30
0.0
 11
-21.199999999999999
 21
-19.350000000000001
 31
0.0
  0
LINE
  5
317
  8
DETAIL
  6
CONTINUOUS
 62
     5
 10
-21.199999999999999
 20
-19.350000000000001
 30
0.0
 11
-21.199999999999999
 21
-27.850000000000001
 31
0.0
  0
ARC
  5
318
  8
DETAIL
  6
CONTINUOUS
 62
     5
 10
-20.199999999999999
 20
-27.850000000000001
 30
0.0
 40
1.0
 50
180.0
 51
270.0
  0
ARC
  5
319
  8
DETAIL
  6
CONTINUOUS
 62
     5
 10
-20.199999999999999
 20
-27.776619
 30
0.0
 40
1.3
 50
180.0
 51
270.0
  0
LINE
  5
31A
  8
DETAIL
  6
CONTINUOUS
 62
     5
 10
-21.5
 20
-27.776619
 30
0.0
 11
-21.5
 21
-27.313085000000001
 31
0.0
  0
LINE
  5
31B
  8
DETAIL
  6
CONTINUOUS
 62
     5
 10
-21.5
 20
-27.313085000000001
 30
0.0
 11
-21.5
 21
-10.923382
 31
0.0
  0
ARC
  5
31C
  8
DETAIL
  6
CONTINUOUS
 62
     5
 10
-20.199999999999999
 20
-10.923382
 30
0.0
 40
1.3
 50
90.0
 51
180.0
  0
LINE
  5
31D
  8
DETAIL
  6
CONTINUOUS
 62
     5
 10
-20.199999999999999
 20
-9.6233820000000012
 30
0.0
 11
-19.088369
 21
-9.6233820000000012
 31
0.0
  0
LINE
  5
31E
  8
DETAIL
  6
CONTINUOUS
 62
     5
 10
-19.088369
 20
-29.076619000000001
 30
0.0
 11
-20.199999999999999
 21
-29.076619000000001
 31
0.0
  0
LINE
  5
31F
  8
DETAIL
  6
CONTINUOUS
 62
     5
 10
-21.600000000000001
 20
-24.649999999999999
 30
0.0
 11
-21.5
 21
-24.649999999999999
 31
0.0
  0
LINE
  5
320
  8
DETAIL
  6
CONTINUOUS
 62
     5
 10
-21.5
 20
-14.050000000000001
 30
0.0
 11
-21.600000000000001
 21
-14.050000000000001
 31
0.0
  0
LINE
  5
321
  8
DETAIL
  6
CONTINUOUS
 62
     5
 10
-21.600000000000001
 20
-11.15
 30
0.0
 11
-21.5
 21
-11.15
 31
0.0
  0
LINE
  5
322
  8
DETAIL
  6
CONTINUOUS
 62
     5
 10
-21.5
 20
-27.550000000000001
 30
0.0
 11
-21.600000000000001
 21
-27.550000000000001
 31
0.0
  0
ARC
  5
323
  8
DETAIL
  6
CONTINUOUS
 62
     5
 10
-18.199999999999999
 20
-8.8499999999999996
 30
0.0
 40
0.5
 50
8.1604880000000009
 51
90.0
  0
LINE
  5
324
  8
DETAIL
  6
CONTINUOUS
 62
     5
 10
-21.5
 20
-11.729672000000001
 30
0.0
 11
-21.5
 21
-9.8499999999999996
 31
0.0
  0
ARC
  5
325
  8
DETAIL
  6
CONTINUOUS
 62
     5
 10
-20.0
 20
-9.8499999999999996
 30
0.0
 40
1.5
 50
90.0
 51
180.0
  0
LINE
  5
326
  8
DETAIL
  6
CONTINUOUS
 62
     5
 10
-20.0
 20
-8.3499999999999996
 30
0.0
 11
-18.199999999999999
 21
-8.3499999999999996
 31
0.0
  0
LINE
  5
327
  8
DETAIL
  6
CONTINUOUS
 62
     5
 10
-21.899999999999999
 20
-13.949999999999999
 30
0.0
 11
-21.899999999999999
 21
-11.25
 31
0.0
  0
ARC
  5
328
  8
DETAIL
  6
CONTINUOUS
 62
     5
 10
-21.600000000000001
 20
-11.65
 30
0.0
 40
0.5
 50
90.0
 51
134.42700400000001
  0
ARC
  5
329
  8
DETAIL
  6
CONTINUOUS
 62
     5
 10
-21.600000000000001
 20
-13.550000000000001
 30
0.0
 40
0.5
 50
225.57299599999999
 51
270.0
  0
ARC
  5
32A
  8
DETAIL
  6
CONTINUOUS
 62
     5
 10
-21.600000000000001
 20
-25.149999999999999
 30
0.0
 40
0.5
 50
90.0
 51
134.42700400000001
  0
ARC
  5
32B
  8
DETAIL
  6
CONTINUOUS
 62
     5
 10
-21.600000000000001
 20
-27.050000000000001
 30
0.0
 40
0.5
 50
225.57299599999999
 51
270.0
  0
LINE
  5
32C
  8
DETAIL
  6
CONTINUOUS
 62
     5
 10
-20.199999999999999
 20
-28.850000000000001
 30
0.0
 11
-11.75
 21
-28.850000000000001
 31
0.0
  0
ARC
  5
32D
  8
DETAIL
  6
CONTINUOUS
 62
     5
 10
-11.75
 20
-25.850000000000001
 30
0.0
 40
3.0
 50
270.0
 51
0.0
  0
ARC
  5
32E
  8
DETAIL
  6
CONTINUOUS
 62
     5
 10
-11.75
 20
-12.646423
 30
0.0
 40
3.0
 50
0.0
 51
20.810286000000001
  0
LINE
  5
32F
  8
DETAIL
  6
CONTINUOUS
 62
     5
 10
-12.474728000000001
 20
-29.053578000000002
 30
0.0
 11
-11.75
 21
-29.053578000000002
 31
0.0
  0
ARC
  5
330
  8
DETAIL
  6
CONTINUOUS
 62
     5
 10
-11.75
 20
-26.053578000000002
 30
0.0
 40
3.0
 50
270.0
 51
0.0
  0
LINE
  5
331
  8
DETAIL
  6
CONTINUOUS
 62
     5
 10
-9.8544920000000005
 20
-10.321116
 30
0.0
 11
-9.7937969999999996
 21
-10.321116
 31
0.0
  0
LINE
  5
332
  8
DETAIL
  6
CONTINUOUS
 62
     5
 10
-9.8544920000000005
 20
-28.378883999999999
 30
0.0
 11
9.8544929999999997
 21
-28.378883999999999
 31
0.0
  0
LINE
  5
333
  8
DETAIL
  6
CONTINUOUS
 62
     5
 10
-8.75
 20
-12.85
 30
0.0
 11
-8.75
 21
-15.400081999999999
 31
0.0
  0
ARC
  5
334
  8
DETAIL
  6
CONTINUOUS
 62
     5
 10
-8.8733509999999995
 20
-29.25
 30
0.0
 40
1.5
 50
180.0
 51
270.0
  0
LINE
  5
335
  8
DETAIL
  6
CONTINUOUS
 62
     5
 10
-10.373351
 20
-29.25
 30
0.0
 11
-10.373351
 21
-28.719068
 31
0.0
  0
ARC
  5
336
  8
DETAIL
  6
CONTINUOUS
 62
     5
 10
-8.8733509999999995
 20
-9.4499999999999993
 30
0.0
 40
1.5
 50
90.0
 51
180.0
  0
LINE
  5
337
  8
DETAIL
  6
CONTINUOUS
 62
     5
 10
-10.373351
 20
-9.9809330000000003
 30
0.0
 11
-10.373351
 21
-9.4499999999999993
 31
0.0
  0
ARC
  5
338
  8
DETAIL
  6
CONTINUOUS
 62
     5
 10
4.5
 20
-29.25
 30
0.0
 40
1.5
 50
270.0
 51
0.0
  0
ARC
  5
339
  8
DETAIL
  6
CONTINUOUS
 62
     5
 10
-4.5
 20
-29.25
 30
0.0
 40
1.5
 50
180.0
 51
270.0
  0
LINE
  5
33A
  8
DETAIL
  6
CONTINUOUS
 62
     5
 10
-6.0
 20
-28.378883999999999
 30
0.0
 11
-6.0
 21
-29.25
 31
0.0
  0
LINE
  5
33B
  8
DETAIL
  6
CONTINUOUS
 62
     5
 10
-20.199999999999999
 20
10.949999999999999
 30
0.0
 11
-11.75
 21
10.949999999999999
 31
0.0
  0
LINE
  5
33C
  8
DETAIL
  6
CONTINUOUS
 62
     5
 10
-11.75
 20
10.746422000000001
 30
0.0
 11
-14.388147
 21
10.746422000000001
 31
0.0
  0
LINE
  5
33D
  8
DETAIL
  6
CONTINUOUS
 62
     5
 10
-14.390371
 20
9.9434490000000011
 30
0.0
 11
-14.199999999999999
 21
9.9434490000000011
 31
0.0
  0
ARC
  5
33E
  8
DETAIL
  6
CONTINUOUS
 62
     5
 10
-13.176565
 20
6.9434490000000002
 30
0.0
 40
3.0
 50
109.94664899999999
 51
111.992079
  0
LINE
  5
33F
  8
DETAIL
  6
CONTINUOUS
 62
     5
 10
-14.199999999999999
 20
9.659775999999999
 30
0.0
 11
-14.300000000000001
 21
9.7251560000000001
 31
0.0
  0
LINE
  5
340
  8
DETAIL
  6
CONTINUOUS
 62
     5
 10
-17.5
 20
9.3998840000000001
 30
0.0
 11
-13.999999000000001
 21
9.3998840000000001
 31
0.0
  0
LINE
  5
341
  8
DETAIL
  6
CONTINUOUS
 62
     5
 10
13.300000000000001
 20
9.0500000000000007
 30
0.0
 11
10.089142000000001
 21
9.0500000000000007
 31
0.0
  0
LINE
  5
342
  8
DETAIL
  6
CONTINUOUS
 62
     5
 10
13.300000000000001
 20
-7.9500000000000002
 30
0.0
 11
-1.016386
 21
-7.9500000000000002
 31
0.0
  0
LINE
  5
343
  8
DETAIL
  6
CONTINUOUS
 62
     5
 10
-14.199999999999999
 20
-8.5597759999999994
 30
0.0
 11
-14.300000000000001
 21
-8.6251560000000005
 31
0.0
  0
ARC
  5
344
  8
DETAIL
  6
CONTINUOUS
 62
     5
 10
-13.176565
 20
-5.8434499999999989
 30
0.0
 40
3.0
 50
248.00792100000001
 51
250.05335099999999
  0
LINE
  5
345
  8
DETAIL
  6
CONTINUOUS
 62
     5
 10
-17.5
 20
-8.2998840000000005
 30
0.0
 11
-14.0
 21
-8.2998840000000005
 31
0.0
  0
LINE
  5
346
  8
DETAIL
  6
CONTINUOUS
 62
     5
 10
-14.390371
 20
-8.8434500000000007
 30
0.0
 11
-14.199999999999999
 21
-8.8434500000000007
 31
0.0
  0
LINE
  5
347
  8
DETAIL
  6
CONTINUOUS
 62
     5
 10
-11.75
 20
-9.6464230000000004
 30
0.0
 11
-14.388147
 21
-9.6464230000000004
 31
0.0
  0
LINE
  5
348
  8
DETAIL
  6
CONTINUOUS
 62
     5
 10
-11.800000000000001
 20
-9.8499999999999996
 30
0.0
 11
-20.199999999999999
 21
-9.8499999999999996
 31
0.0
  0
LINE
  5
349
  8
DETAIL
  6
CONTINUOUS
 62
     5
 10
-11.800000000000001
 20
-9.6464230000000004
 30
0.0
 11
-11.75
 21
-9.6464230000000004
 31
0.0
  0
ARC
  5
34A
  8
DETAIL
  6
CONTINUOUS
 62
     5
 10
-11.75
 20
-12.85
 30
0.0
 40
3.0
 50
0.0
 51
23.141448
  0
ARC
  5
34B
  8
DETAIL
  6
CONTINUOUS
 62
     5
 10
-11.75
 20
13.746422000000001
 30
0.0
 40
3.0
 50
270.0
 51
0.0
  0
ARC
  5
34C
  8
DETAIL
  6
CONTINUOUS
 62
     5
 10
-11.75
 20
13.949999999999999
 30
0.0
 40
3.0
 50
270.0
 51
0.0
  0
LINE
  5
34D
  8
DETAIL
  6
CONTINUOUS
 62
     5
 10
-8.75
 20
26.949999999999999
 30
0.0
 11
-8.75
 21
13.949999999999999
 31
0.0
  0
ARC
  5
34E
  8
DETAIL
  6
CONTINUOUS
 62
     5
 10
-11.75
 20
26.949999999999999
 30
0.0
 40
3.0
 50
0.0
 51
90.954973999999993
  0
ARC
  5
34F
  8
DETAIL
  6
CONTINUOUS
 62
     5
 10
-11.75
 20
27.153576999999999
 30
0.0
 40
3.0
 50
0.0
 51
90.0
  0
LINE
  5
350
  8
DETAIL
  6
CONTINUOUS
 62
     5
 10
-9.8544920000000005
 20
11.421116
 30
0.0
 11
8.7713859999999997
 21
11.421116
 31
0.0
  0
LINE
  5
351
  8
DETAIL
  6
CONTINUOUS
 62
     5
 10
-10.373351
 20
10.550000000000001
 30
0.0
 11
-10.373351
 21
11.080932000000001
 31
0.0
  0
LINE
  5
352
  8
DETAIL
  6
CONTINUOUS
 62
     5
 10
-6.0
 20
11.421116
 30
0.0
 11
-6.0
 21
10.550000000000001
 31
0.0
  0
ARC
  5
353
  8
DETAIL
  6
CONTINUOUS
 62
     5
 10
4.5
 20
10.550000000000001
 30
0.0
 40
1.5
 50
270.0
 51
0.0
  0
LINE
  5
354
  8
DETAIL
  6
CONTINUOUS
 62
     5
 10
6.0
 20
11.421116
 30
0.0
 11
6.0
 21
10.550000000000001
 31
0.0
  0
ARC
  5
355
  8
DETAIL
  6
CONTINUOUS
 62
     5
 10
-4.5
 20
10.550000000000001
 30
0.0
 40
1.5
 50
180.0
 51
270.0
  0
ARC
  5
356
  8
DETAIL
  6
CONTINUOUS
 62
     5
 10
-8.8733509999999995
 20
10.550000000000001
 30
0.0
 40
1.5
 50
180.0
 51
270.0
  0
ARC
  5
357
  8
DETAIL
  6
CONTINUOUS
 62
     5
 10
11.75
 20
13.746422000000001
 30
0.0
 40
3.0
 50
180.0
 51
212.80859100000001
  0
ARC
  5
358
  8
DETAIL
  6
CONTINUOUS
 62
     5
 10
11.75
 20
13.949999999999999
 30
0.0
 40
3.0
 50
180.0
 51
215.11678599999999
  0
LINE
  5
359
  8
DETAIL
  6
CONTINUOUS
 62
     5
 10
-9.8544920000000005
 20
29.478884000000001
 30
0.0
 11
9.8544929999999997
 21
29.478884000000001
 31
0.0
  0
LINE
  5
35A
  8
DETAIL
  6
CONTINUOUS
 62
     5
 10
10.373351
 20
29.819067
 30
0.0
 11
10.373351
 21
30.350000000000001
 31
0.0
  0
ARC
  5
35B
  8
DETAIL
  6
CONTINUOUS
 62
     5
 10
8.8733509999999995
 20
30.350000000000001
 30
0.0
 40
1.5
 50
0.0
 51
90.0
  0
LINE
  5
35C
  8
DETAIL
  6
CONTINUOUS
 62
     5
 10
8.75
 20
26.949999999999999
 30
0.0
 11
8.75
 21
13.949999999999999
 31
0.0
  0
ARC
  5
35D
  8
DETAIL
  6
CONTINUOUS
 62
     5
 10
11.75
 20
27.153576999999999
 30
0.0
 40
3.0
 50
90.0
 51
180.0
  0
ARC
  5
35E
  8
DETAIL
  6
CONTINUOUS
 62
     5
 10
11.75
 20
26.949999999999999
 30
0.0
 40
3.0
 50
90.0
 51
180.0
  0
LINE
  5
35F
  8
DETAIL
  6
CONTINUOUS
 62
     5
 10
-10.373351
 20
29.819067
 30
0.0
 11
-10.373351
 21
30.350000000000001
 31
0.0
  0
ARC
  5
360
  8
DETAIL
  6
CONTINUOUS
 62
     5
 10
-8.8733509999999995
 20
30.350000000000001
 30
0.0
 40
1.5
 50
90.0
 51
180.0
  0
CIRCLE
  5
361
  8
DETAIL
  6
CONTINUOUS
 62
     5
 10
-13.0
 20
15.699999999999999
 30
0.0
 40
1.1999999999999991
  0
CIRCLE
  5
362
  8
DETAIL
  6
CONTINUOUS
 62
     5
 10
-13.0
 20
15.699999999999999
 30
0.0
 40
1.8
  0
CIRCLE
  5
363
  8
DETAIL
  6
CONTINUOUS
 62
     5
 10
-13.0
 20
15.699999999999999
 30
0.0
 40
1.8999999999999999
  0
ARC
  5
364
  8
DETAIL
  6
CONTINUOUS
 62
     5
 10
11.75
 20
13.746422000000001
 30
0.0
 40
3.0
 50
259.96654100000001
 51
270.0
  0
ARC
  5
365
  8
DETAIL
  6
CONTINUOUS
 62
     5
 10
11.75
 20
13.949999999999999
 30
0.0
 40
3.0
 50
262.29960599999998
 51
270.0
  0
LINE
  5
366
  8
DETAIL
  6
CONTINUOUS
 62
     5
 10
7.2224159999999991
 20
9.0500000000000007
 30
0.0
 11
-13.300000000000001
 21
9.0500000000000007
 31
0.0
  0
LINE
  5
367
  8
DETAIL
  6
CONTINUOUS
 62
     5
 10
-8.8749590000000005
 20
-7.9500000000000002
 30
0.0
 11
-13.300000000000001
 21
-7.9500000000000002
 31
0.0
  0
LINE
  5
368
  8
DETAIL
  6
CONTINUOUS
 62
     5
 10
-9.7937969999999996
 20
-10.321116
 30
0.0
 11
-5.4320820000000003
 21
-10.321116
 31
0.0
  0
ARC
  5
369
  8
DETAIL
  6
CONTINUOUS
 62
     5
 10
-11.75
 20
-12.646423
 30
0.0
 40
3.0
 50
19.473316000000001
 51
90.0
  0
ARC
  5
36A
  8
DETAIL
  6
CONTINUOUS
 62
     5
 10
-11.75
 20
-12.85
 30
0.0
 40
3.0
 50
23.141448
 51
90.954973999999993
  0
LINE
  5
36B
  8
DETAIL
  6
CONTINUOUS
 62
     5
 10
9.8386580000000006
 20
11.421116
 30
0.0
 11
9.8544929999999997
 21
11.421116
 31
0.0
  0
ARC
  5
36C
  8
DETAIL
  6
CONTINUOUS
 62
     5
 10
-13.176565
 20
-5.8434499999999989
 30
0.0
 40
3.0
 50
248.00792300000001
 51
270.0
  0
LINE
  5
36D
  8
DETAIL
  6
CONTINUOUS
 62
     5
 10
-14.0
 20
-8.4290160000000007
 30
0.0
 11
-14.300000000000001
 21
-8.6251560000000005
 31
0.0
  0
LINE
  5
36E
  8
DETAIL
  6
CONTINUOUS
 62
     5
 10
-14.0
 20
-8.4290160000000007
 30
0.0
 11
-14.0
 21
-8.8434500000000007
 31
0.0
  0
ARC
  5
36F
  8
DETAIL
  6
CONTINUOUS
 62
     5
 10
-13.287356000000001
 20
-8.673648
 30
0.0
 40
0.7237580000000001
 50
91.000971999999976
 51
169.94589099999999
  0
LINE
  5
370
  8
DETAIL
  6
CONTINUOUS
 62
     5
 10
-14.0
 20
-8.2998840000000005
 30
0.0
 11
-14.0
 21
-8.4290160000000007
 31
0.0
  0
LINE
  5
371
  8
DETAIL
  6
CONTINUOUS
 62
     5
 10
-14.390371
 20
-8.8434500000000007
 30
0.0
 11
-12.474728000000001
 21
-8.8434500000000007
 31
0.0
  0
LINE
  5
372
  8
DETAIL
  6
CONTINUOUS
 62
     5
 10
-12.474728000000001
 20
-8.8434500000000007
 30
0.0
 11
-12.474728000000001
 21
-9.6464230000000004
 31
0.0
  0
LINE
  5
373
  8
DETAIL
  6
CONTINUOUS
 62
     5
 10
-14.0
 20
9.5290149999999993
 30
0.0
 11
-14.300000000000001
 21
9.7251560000000001
 31
0.0
  0
ARC
  5
374
  8
DETAIL
  6
CONTINUOUS
 62
     5
 10
-13.176565
 20
6.9434490000000002
 30
0.0
 40
3.0
 50
90.0
 51
111.99207699999999
  0
LINE
  5
375
  8
DETAIL
  6
CONTINUOUS
 62
     5
 10
-14.0
 20
9.3998840000000001
 30
0.0
 11
-14.0
 21
9.9434490000000011
 31
0.0
  0
LINE
  5
376
  8
DETAIL
  6
CONTINUOUS
 62
     5
 10
-14.0
 20
9.7251560000000001
 30
0.0
 11
-14.0
 21
9.8282289999999985
 31
0.0
  0
ARC
  5
377
  8
DETAIL
  6
CONTINUOUS
 62
     5
 10
-13.287356000000001
 20
9.7736470000000004
 30
0.0
 40
0.7237580000000001
 50
190.05410900000001
 51
268.9990279999999
  0
LINE
  5
378
  8
DETAIL
  6
CONTINUOUS
 62
     5
 10
-14.390371
 20
9.9434490000000011
 30
0.0
 11
-12.474728000000001
 21
9.9434490000000011
 31
0.0
  0
LINE
  5
379
  8
DETAIL
  6
CONTINUOUS
 62
     5
 10
-12.474728000000001
 20
9.9434490000000011
 30
0.0
 11
-12.474728000000001
 21
10.746422000000001
 31
0.0
  0
CIRCLE
  5
37A
  8
DETAIL
  6
CONTINUOUS
 62
     5
 10
-13.0
 20
-14.566667000000001
 30
0.0
 40
1.1999999999999991
  0
CIRCLE
  5
37B
  8
DETAIL
  6
CONTINUOUS
 62
     5
 10
-13.0
 20
-14.566667000000001
 30
0.0
 40
1.8
  0
CIRCLE
  5
37C
  8
DETAIL
  6
CONTINUOUS
 62
     5
 10
-13.0
 20
-14.566667000000001
 30
0.0
 40
1.8999999999999999
  0
LINE
  5
37D
  8
DETAIL
  6
CONTINUOUS
 62
     5
 10
-2.5653559999999991
 20
-10.321116
 30
0.0
 11
9.8544929999999997
 21
-10.321116
 31
0.0
  0
LINE
  5
37E
  8
DETAIL
  6
CONTINUOUS
 62
     5
 10
-3.8831120000000001
 20
-7.9500000000000002
 30
0.0
 11
-8.8749590000000005
 21
-7.9500000000000002
 31
0.0
  0
LINE
  5
37F
  8
DETAIL
  6
CONTINUOUS
 62
     5
 10
-8.75
 20
-19.788378999999999
 30
0.0
 11
-8.75
 21
-25.850000000000001
 31
0.0
  0
LINE
  5
380
  8
DETAIL
  6
CONTINUOUS
 62
     5
 10
23.899999999999999
 20
-58.399999999999991
 30
0.0
 11
-23.899999999999999
 21
-58.399999999999991
 31
0.0
  0
LINE
  5
381
  8
DETAIL
  6
CONTINUOUS
 62
     5
 10
33.399999999999999
 20
48.899999999999999
 30
0.0
 11
33.399999999999999
 21
-48.899999999999999
 31
0.0
  0
ARC
  5
382
  8
DETAIL
  6
CONTINUOUS
 62
     5
 10
23.899999999999999
 20
48.899999999999999
 30
0.0
 40
9.5
 50
0.0
 51
90.0
  0
ARC
  5
383
  8
DETAIL
  6
CONTINUOUS
 62
     5
 10
23.899999999999999
 20
-48.899999999999999
 30
0.0
 40
9.5
 50
270.0
 51
0.0
  0
ARC
  5
384
  8
DETAIL
  6
CONTINUOUS
 62
     5
 10
24.0
 20
-48.5
 30
0.0
 40
5.0
 50
270.0
 51
0.0
  0
LINE
  5
385
  8
DETAIL
  6
CONTINUOUS
 62
     5
 10
29.0
 20
48.5
 30
0.0
 11
29.0
 21
-48.5
 31
0.0
  0
ARC
  5
386
  8
DETAIL
  6
CONTINUOUS
 62
     5
 10
24.0
 20
48.5
 30
0.0
 40
5.0
 50
0.0
 51
90.0
  0
LINE
  5
387
  8
DETAIL
  6
CONTINUOUS
 62
     5
 10
25.0
 20
-49.0
 30
0.0
 11
26.5
 21
-49.0
 31
0.0
  0
LINE
  5
388
  8
DETAIL
  6
CONTINUOUS
 62
     5
 10
25.0
 20
-42.0
 30
0.0
 11
25.0
 21
-49.0
 31
0.0
  0
LINE
  5
389
  8
DETAIL
  6
CONTINUOUS
 62
     5
 10
26.5
 20
-42.0
 30
0.0
 11
25.0
 21
-42.0
 31
0.0
  0
ARC
  5
38A
  8
DETAIL
  6
CONTINUOUS
 62
     5
 10
26.5
 20
-43.0
 30
0.0
 40
1.0
 50
0.0
 51
90.0
  0
LINE
  5
38B
  8
DETAIL
  6
CONTINUOUS
 62
     5
 10
27.5
 20
-48.0
 30
0.0
 11
27.5
 21
-43.0
 31
0.0
  0
ARC
  5
38C
  8
DETAIL
  6
CONTINUOUS
 62
     5
 10
26.5
 20
-48.0
 30
0.0
 40
1.0
 50
270.0
 51
0.0
  0
LINE
  5
38D
  8
DETAIL
  6
CONTINUOUS
 62
     5
 10
25.0
 20
49.0
 30
0.0
 11
26.5
 21
49.0
 31
0.0
  0
LINE
  5
38E
  8
DETAIL
  6
CONTINUOUS
 62
     5
 10
25.0
 20
42.0
 30
0.0
 11
25.0
 21
49.0
 31
0.0
  0
LINE
  5
38F
  8
DETAIL
  6
CONTINUOUS
 62
     5
 10
26.5
 20
42.0
 30
0.0
 11
25.0
 21
42.0
 31
0.0
  0
ARC
  5
390
  8
DETAIL
  6
CONTINUOUS
 62
     5
 10
26.5
 20
43.0
 30
0.0
 40
1.0
 50
270.0
 51
0.0
  0
LINE
  5
391
  8
DETAIL
  6
CONTINUOUS
 62
     5
 10
27.5
 20
48.0
 30
0.0
 11
27.5
 21
43.0
 31
0.0
  0
ARC
  5
392
  8
DETAIL
  6
CONTINUOUS
 62
     5
 10
26.5
 20
48.0
 30
0.0
 40
1.0
 50
0.0
 51
90.0
  0
LINE
  5
393
  8
DETAIL
  6
CONTINUOUS
 62
     5
 10
22.586492
 20
53.5
 30
0.0
 11
24.0
 21
53.5
 31
0.0
  0
LINE
  5
394
  8
DETAIL
  6
CONTINUOUS
 62
     5
 10
24.0
 20
-53.5
 30
0.0
 11
22.586492
 21
-53.5
 31
0.0
  0
LINE
  5
395
  8
DETAIL
  6
CONTINUOUS
 62
     5
 10
-23.899999999999999
 20
58.399999999999991
 30
0.0
 11
23.899999999999999
 21
58.399999999999991
 31
0.0
  0
ARC
  5
396
  8
DETAIL
  6
CONTINUOUS
 62
     5
 10
-23.899999999999999
 20
48.899999999999999
 30
0.0
 40
9.5
 50
90.0
 51
179.99999800000001
  0
LINE
  5
397
  8
DETAIL
  6
CONTINUOUS
 62
     5
 10
-33.399999999999999
 20
-48.899999999999999
 30
0.0
 11
-33.399999999999999
 21
48.899999999999999
 31
0.0
  0
ARC
  5
398
  8
DETAIL
  6
CONTINUOUS
 62
     5
 10
-23.899999999999999
 20
-48.899999999999999
 30
0.0
 40
9.5
 50
179.99999800000001
 51
270.0
  0
ARC
  5
399
  8
DETAIL
  6
CONTINUOUS
 62
     5
 10
-24.0
 20
48.5
 30
0.0
 40
5.0
 50
90.0
 51
179.99999800000001
  0
LINE
  5
39A
  8
DETAIL
  6
CONTINUOUS
 62
     5
 10
-29.0
 20
-48.5
 30
0.0
 11
-29.0
 21
48.5
 31
0.0
  0
ARC
  5
39B
  8
DETAIL
  6
CONTINUOUS
 62
     5
 10
-24.0
 20
-48.5
 30
0.0
 40
5.0
 50
179.99999800000001
 51
270.0
  0
LINE
  5
39C
  8
DETAIL
  6
CONTINUOUS
 62
     5
 10
-25.600000000000001
 20
-18.0
 30
0.0
 11
-25.600000000000001
 21
-28.0
 31
0.0
  0
LINE
  5
39D
  8
DETAIL
  6
CONTINUOUS
 62
     5
 10
-24.0
 20
-28.0
 30
0.0
 11
-24.0
 21
-18.0
 31
0.0
  0
LINE
  5
39E
  8
DETAIL
  6
CONTINUOUS
 62
     5
 10
-25.0
 20
-42.0
 30
0.0
 11
-26.5
 21
-42.0
 31
0.0
  0
LINE
  5
39F
  8
DETAIL
  6
CONTINUOUS
 62
     5
 10
-25.0
 20
-49.0
 30
0.0
 11
-25.0
 21
-42.0
 31
0.0
  0
LINE
  5
3A0
  8
DETAIL
  6
CONTINUOUS
 62
     5
 10
-26.5
 20
-49.0
 30
0.0
 11
-25.0
 21
-49.0
 31
0.0
  0
ARC
  5
3A1
  8
DETAIL
  6
CONTINUOUS
 62
     5
 10
-26.5
 20
-48.0
 30
0.0
 40
1.0
 50
179.99999800000001
 51
270.0
  0
LINE
  5
3A2
  8
DETAIL
  6
CONTINUOUS
 62
     5
 10
-27.5
 20
-43.0
 30
0.0
 11
-27.5
 21
-48.0
 31
0.0
  0
ARC
  5
3A3
  8
DETAIL
  6
CONTINUOUS
 62
     5
 10
-26.5
 20
-43.0
 30
0.0
 40
1.0
 50
90.0
 51
179.99999800000001
  0
LINE
  5
3A4
  8
DETAIL
  6
CONTINUOUS
 62
     5
 10
-25.600000000000001
 20
-28.0
 30
0.0
 11
-24.0
 21
-28.0
 31
0.0
  0
ARC
  5
3A5
  8
DETAIL
  6
CONTINUOUS
 62
     5
 10
0.0
 20
0.0
 30
0.0
 40
39.5
 50
264.50215200000002
 51
275.49785000000003
  0
ARC
  5
3A6
  8
DETAIL
  6
CONTINUOUS
 62
     5
 10
-4.0
 20
-41.55794199999999
 30
0.0
 40
2.25
 50
84.50215
 51
264.50215200000002
  0
ARC
  5
3A7
  8
DETAIL
  6
CONTINUOUS
 62
     5
 10
0.0
 20
0.0
 30
0.0
 40
44.0
 50
264.50215200000002
 51
275.49785000000003
  0
ARC
  5
3A8
  8
DETAIL
  6
CONTINUOUS
 62
     5
 10
4.0
 20
-41.55794199999999
 30
0.0
 40
2.25
 50
275.49785000000003
 51
95.497848000000005
  0
LINE
  5
3A9
  8
DETAIL
  6
CONTINUOUS
 62
     5
 10
-25.600000000000001
 20
-18.0
 30
0.0
 11
-24.0
 21
-18.0
 31
0.0
  0
LINE
  5
3AA
  8
DETAIL
  6
CONTINUOUS
 62
     5
 10
-24.0
 20
28.0
 30
0.0
 11
-25.600000000000001
 21
28.0
 31
0.0
  0
LINE
  5
3AB
  8
DETAIL
  6
CONTINUOUS
 62
     5
 10
-25.600000000000001
 20
18.0
 30
0.0
 11
-24.0
 21
18.0
 31
0.0
  0
LINE
  5
3AC
  8
DETAIL
  6
CONTINUOUS
 62
     5
 10
-25.600000000000001
 20
28.0
 30
0.0
 11
-25.600000000000001
 21
18.0
 31
0.0
  0
LINE
  5
3AD
  8
DETAIL
  6
CONTINUOUS
 62
     5
 10
-24.0
 20
18.0
 30
0.0
 11
-24.0
 21
28.0
 31
0.0
  0
LINE
  5
3AE
  8
DETAIL
  6
CONTINUOUS
 62
     5
 10
-25.600000000000001
 20
5.0
 30
0.0
 11
-24.0
 21
5.0
 31
0.0
  0
LINE
  5
3AF
  8
DETAIL
  6
CONTINUOUS
 62
     5
 10
-25.600000000000001
 20
-5.0
 30
0.0
 11
-24.0
 21
-5.0
 31
0.0
  0
LINE
  5
3B0
  8
DETAIL
  6
CONTINUOUS
 62
     5
 10
-25.600000000000001
 20
5.0
 30
0.0
 11
-25.600000000000001
 21
-5.0
 31
0.0
  0
LINE
  5
3B1
  8
DETAIL
  6
CONTINUOUS
 62
     5
 10
-24.0
 20
5.0
 30
0.0
 11
-24.0
 21
-5.0
 31
0.0
  0
LINE
  5
3B2
  8
DETAIL
  6
CONTINUOUS
 62
     5
 10
-25.0
 20
42.0
 30
0.0
 11
-26.5
 21
42.0
 31
0.0
  0
LINE
  5
3B3
  8
DETAIL
  6
CONTINUOUS
 62
     5
 10
-25.0
 20
49.0
 30
0.0
 11
-25.0
 21
42.0
 31
0.0
  0
LINE
  5
3B4
  8
DETAIL
  6
CONTINUOUS
 62
     5
 10
-26.5
 20
49.0
 30
0.0
 11
-25.0
 21
49.0
 31
0.0
  0
ARC
  5
3B5
  8
DETAIL
  6
CONTINUOUS
 62
     5
 10
-26.5
 20
48.0
 30
0.0
 40
1.0
 50
90.0
 51
179.99999800000001
  0
LINE
  5
3B6
  8
DETAIL
  6
CONTINUOUS
 62
     5
 10
-27.5
 20
43.0
 30
0.0
 11
-27.5
 21
48.0
 31
0.0
  0
ARC
  5
3B7
  8
DETAIL
  6
CONTINUOUS
 62
     5
 10
-26.5
 20
43.0
 30
0.0
 40
1.0
 50
179.99999800000001
 51
270.0
  0
ARC
  5
3B8
  8
DETAIL
  6
CONTINUOUS
 62
     5
 10
0.0
 20
0.0
 30
0.0
 40
39.5
 50
84.50215
 51
95.497848000000005
  0
ARC
  5
3B9
  8
DETAIL
  6
CONTINUOUS
 62
     5
 10
-4.0
 20
41.557941
 30
0.0
 40
2.25
 50
95.497848000000005
 51
275.49785000000003
  0
ARC
  5
3BA
  8
DETAIL
  6
CONTINUOUS
 62
     5
 10
0.0
 20
0.0
 30
0.0
 40
44.0
 50
84.50215
 51
95.497848000000005
  0
ARC
  5
3BB
  8
DETAIL
  6
CONTINUOUS
 62
     5
 10
4.0
 20
41.557941
 30
0.0
 40
2.25
 50
264.50215200000002
 51
84.50215
  0
LINE
  5
3BC
  8
DETAIL
  6
CONTINUOUS
 62
     5
 10
-24.0
 20
53.5
 30
0.0
 11
-22.986491999999998
 21
53.5
 31
0.0
  0
LINE
  5
3BD
  8
DETAIL
  6
CONTINUOUS
 62
     5
 10
-22.986491999999998
 20
-53.5
 30
0.0
 11
-24.0
 21
-53.5
 31
0.0
  0
ARC
  5
3BE
  8
DETAIL
  6
CONTINUOUS
 62
     5
 10
4.0
 20
-41.55794199999999
 30
0.0
 40
2.75
 50
275.49785000000003
 51
95.497848000000005
  0
ARC
  5
3BF
  8
DETAIL
  6
CONTINUOUS
 62
     5
 10
0.0
 20
0.0
 30
0.0
 40
39.0
 50
264.50215200000002
 51
275.49785000000003
  0
ARC
  5
3C0
  8
DETAIL
  6
CONTINUOUS
 62
     5
 10
0.0
 20
0.0
 30
0.0
 40
44.5
 50
264.50215200000002
 51
275.49785000000003
  0
ARC
  5
3C1
  8
DETAIL
  6
CONTINUOUS
 62
     5
 10
-4.0
 20
-41.55794199999999
 30
0.0
 40
2.75
 50
84.50215
 51
264.50215200000002
  0
ARC
  5
3C2
  8
DETAIL
  6
CONTINUOUS
 62
     5
 10
4.0
 20
41.557941
 30
0.0
 40
2.75
 50
264.50215200000002
 51
84.50215
  0
ARC
  5
3C3
  8
DETAIL
  6
CONTINUOUS
 62
     5
 10
0.0
 20
0.0
 30
0.0
 40
44.5
 50
84.50215
 51
95.497848000000005
  0
ARC
  5
3C4
  8
DETAIL
  6
CONTINUOUS
 62
     5
 10
-4.0
 20
41.557941
 30
0.0
 40
2.75
 50
95.497848000000005
 51
275.49785000000003
  0
ARC
  5
3C5
  8
DETAIL
  6
CONTINUOUS
 62
     5
 10
0.0
 20
0.0
 30
0.0
 40
39.0
 50
84.50215
 51
95.497848000000005
  0
LINE
  5
3C6
  8
DETAIL
  6
CONTINUOUS
 62
     5
 10
30.0
 20
-60.0
 30
0.0
 11
-30.0
 21
-60.0
 31
0.0
  0
LINE
  5
3C7
  8
DETAIL
  6
CONTINUOUS
 62
     5
 10
30.0
 20
-58.5
 30
0.0
 11
-30.0
 21
-58.5
 31
0.0
  0
ARC
  5
3C8
  8
DETAIL
  6
CONTINUOUS
 62
     5
 10
30.0
 20
-55.0
 30
0.0
 40
5.0
 50
270.0
 51
0.0
  0
ARC
  5
3C9
  8
DETAIL
  6
CONTINUOUS
 62
     5
 10
30.0
 20
55.0
 30
0.0
 40
5.0
 50
0.0
 51
90.0
  0
LINE
  5
3CA
  8
DETAIL
  6
CONTINUOUS
 62
     5
 10
35.0
 20
0.0
 30
0.0
 11
35.0
 21
55.0
 31
0.0
  0
LINE
  5
3CB
  8
DETAIL
  6
CONTINUOUS
 62
     5
 10
35.0
 20
-55.0
 30
0.0
 11
35.0
 21
0.0
 31
0.0
  0
ARC
  5
3CC
  8
DETAIL
  6
CONTINUOUS
 62
     5
 10
30.0
 20
55.0
 30
0.0
 40
3.5
 50
0.0
 51
90.0
  0
LINE
  5
3CD
  8
DETAIL
  6
CONTINUOUS
 62
     5
 10
33.5
 20
0.0
 30
0.0
 11
33.5
 21
-55.0
 31
0.0
  0
ARC
  5
3CE
  8
DETAIL
  6
CONTINUOUS
 62
     5
 10
30.0
 20
-55.0
 30
0.0
 40
3.5
 50
270.0
 51
0.0
  0
LINE
  5
3CF
  8
DETAIL
  6
CONTINUOUS
 62
     5
 10
33.5
 20
0.0
 30
0.0
 11
33.5
 21
55.0
 31
0.0
  0
ARC
  5
3D0
  8
DETAIL
  6
CONTINUOUS
 62
     5
 10
-30.0
 20
-55.0
 30
0.0
 40
5.0
 50
180.0
 51
270.0
  0
ARC
  5
3D1
  8
DETAIL
  6
CONTINUOUS
 62
     5
 10
-30.0
 20
55.0
 30
0.0
 40
5.0
 50
90.0
 51
180.0
  0
LINE
  5
3D2
  8
DETAIL
  6
CONTINUOUS
 62
     5
 10
30.0
 20
60.0
 30
0.0
 11
-30.0
 21
60.0
 31
0.0
  0
LINE
  5
3D3
  8
DETAIL
  6
CONTINUOUS
 62
     5
 10
-35.0
 20
0.0
 30
0.0
 11
-35.0
 21
55.0
 31
0.0
  0
LINE
  5
3D4
  8
DETAIL
  6
CONTINUOUS
 62
     5
 10
-35.0
 20
-55.0
 30
0.0
 11
-35.0
 21
0.0
 31
0.0
  0
LINE
  5
3D5
  8
DETAIL
  6
CONTINUOUS
 62
     5
 10
30.0
 20
58.5
 30
0.0
 11
-30.0
 21
58.5
 31
0.0
  0
ARC
  5
3D6
  8
DETAIL
  6
CONTINUOUS
 62
     5
 10
-30.0
 20
55.0
 30
0.0
 40
3.5
 50
90.0
 51
180.0
  0
LINE
  5
3D7
  8
DETAIL
  6
CONTINUOUS
 62
     5
 10
-33.5
 20
55.0
 30
0.0
 11
-33.5
 21
0.0
 31
0.0
  0
ARC
  5
3D8
  8
DETAIL
  6
CONTINUOUS
 62
     5
 10
-30.0
 20
-55.0
 30
0.0
 40
3.5
 50
180.0
 51
270.0
  0
LINE
  5
3D9
  8
DETAIL
  6
CONTINUOUS
 62
     5
 10
-33.5
 20
-55.0
 30
0.0
 11
-33.5
 21
0.0
 31
0.0
  0
LINE
  5
3DA
  8
SIZE
  6
CONTINUOUS
 62
    30
 10
50.0
 20
60.0
 30
0.0
 11
275.640917
 21
60.0
 31
0.0
  0
LINE
  5
3DB
  8
SIZE
  6
CONTINUOUS
 62
    30
 10
50.0
 20
-60.0
 30
0.0
 11
275.640917
 21
-60.0
 31
0.0
  0
LINE
  5
3DC
  8
SIZE
  6
CONTINUOUS
 62
    30
 10
255.640917
 20
48.0
 30
0.0
 11
255.640917
 21
-48.0
 31
0.0
  0
LINE
  5
3DD
  8
SIZE
  6
CONTINUOUS
 62
    30
 10
255.640917
 20
-60.0
 30
0.0
 11
255.640917
 21
-259.14285699999999
 31
0.0
  0
CIRCLE
  5
3DE
  8
SIZE
  6
CONTINUOUS
 62
    30
 10
255.640917
 20
60.0
 30
0.0
 40
6.0
  0
LINE
  5
3DF
  8
SIZE
  6
CONTINUOUS
 62
    30
 10
255.640917
 20
60.0
 30
0.0
 11
255.640917
 21
48.0
 31
0.0
  0
CIRCLE
  5
3E0
  8
SIZE
  6
CONTINUOUS
 62
    30
 10
255.640917
 20
-60.0
 30
0.0
 40
6.0
  0
LINE
  5
3E1
  8
SIZE
  6
CONTINUOUS
 62
    30
 10
255.640917
 20
-60.0
 30
0.0
 11
255.640917
 21
-48.0
 31
0.0
  0
TEXT
  5
3E2
  8
SIZE
  6
CONTINUOUS
 62
    30
 10
230.640917
 20
-234.14285757142861
 30
0.0
 40
64.0
  1
120
 50
90.0
 41
0.9
 72
     1
 11
230.640917
 21
-165.57142899999999
 31
0.0
  0
POINT
  5
3E3
  8
DEFPOINTS
  6
CONTINUOUS
 62
    30
 10
30.0
 20
60.0
 30
0.0
  0
POINT
  5
3E4
  8
DEFPOINTS
  6
CONTINUOUS
 62
    30
 10
30.0
 20
-60.0
 30
0.0
  0
POINT
  5
3E5
  8
DEFPOINTS
  6
CONTINUOUS
 62
    30
 10
255.640917
 20
-60.0
 30
0.0
  0
LINE
  5
3E6
  8
SIZE
  6
CONTINUOUS
 62
    30
 10
35.0
 20
75.0
 30
0.0
 11
35.0
 21
120.11949
 31
0.0
  0
LINE
  5
3E7
  8
SIZE
  6
CONTINUOUS
 62
    30
 10
-35.0
 20
75.0
 30
0.0
 11
-35.0
 21
120.11949
 31
0.0
  0
LINE
  5
3E8
  8
SIZE
  6
CONTINUOUS
 62
    30
 10
47.0
 20
100.11949
 30
0.0
 11
59.0
 21
100.11949
 31
0.0
  0
LINE
  5
3E9
  8
SIZE
  6
CONTINUOUS
 62
    30
 10
-47.0
 20
100.11949
 30
0.0
 11
-59.0
 21
100.11949
 31
0.0
  0
LINE
  5
3EA
  8
SIZE
  6
CONTINUOUS
 62
    30
 10
35.0
 20
100.11949
 30
0.0
 11
-35.0
 21
100.11949
 31
0.0
  0
CIRCLE
  5
3EB
  8
SIZE
  6
CONTINUOUS
 62
    30
 10
35.0
 20
100.11949
 30
0.0
 40
6.0
  0
LINE
  5
3EC
  8
SIZE
  6
CONTINUOUS
 62
    30
 10
35.0
 20
100.11949
 30
0.0
 11
47.0
 21
100.11949
 31
0.0
  0
CIRCLE
  5
3ED
  8
SIZE
  6
CONTINUOUS
 62
    30
 10
-35.0
 20
100.11949
 30
0.0
 40
6.0
  0
LINE
  5
3EE
  8
SIZE
  6
CONTINUOUS
 62
    30
 10
-35.0
 20
100.11949
 30
0.0
 11
-47.0
 21
100.11949
 31
0.0
  0
TEXT
  5
3EF
  8
SIZE
  6
CONTINUOUS
 62
    30
 10
-46.628571428571419
 20
125.1194899999999
 30
0.0
 40
64.0
  1
70
 41
0.9
 72
     1
 11
0.0
 21
125.1194899999999
 31
0.0
  0
POINT
  5
3F0
  8
DEFPOINTS
  6
CONTINUOUS
 62
    30
 10
35.0
 20
55.0
 30
0.0
  0
POINT
  5
3F1
  8
DEFPOINTS
  6
CONTINUOUS
 62
    30
 10
-35.0
 20
55.0
 30
0.0
  0
POINT
  5
3F2
  8
DEFPOINTS
  6
CONTINUOUS
 62
    30
 10
-35.0
 20
100.11949
 30
0.0
  0
LINE
  5
3F3
  8
SIZE
  6
CONTINUOUS
 62
    30
 10
28.952919000000001
 20
41.749999999999993
 30
0.0
 11
165.43013500000001
 21
41.749999999999993
 31
0.0
  0
LINE
  5
3F4
  8
SIZE
  6
CONTINUOUS
 62
    30
 10
28.952919000000001
 20
-41.749999999999993
 30
0.0
 11
165.43013500000001
 21
-41.749999999999993
 31
0.0
  0
LINE
  5
3F5
  8
SIZE
  6
CONTINUOUS
 62
    30
 10
145.43013500000001
 20
29.75
 30
0.0
 11
145.43013500000001
 21
-29.75
 31
0.0
  0
LINE
  5
3F6
  8
SIZE
  6
CONTINUOUS
 62
    30
 10
145.43013500000001
 20
-41.749999999999993
 30
0.0
 11
145.43013500000001
 21
-279.29285700000003
 31
0.0
  0
CIRCLE
  5
3F7
  8
SIZE
  6
CONTINUOUS
 62
    30
 10
145.43013500000001
 20
41.749999999999993
 30
0.0
 40
6.0
  0
LINE
  5
3F8
  8
SIZE
  6
CONTINUOUS
 62
    30
 10
145.43013500000001
 20
41.749999999999993
 30
0.0
 11
145.43013500000001
 21
29.75
 31
0.0
  0
CIRCLE
  5
3F9
  8
SIZE
  6
CONTINUOUS
 62
    30
 10
145.43013500000001
 20
-41.749999999999993
 30
0.0
 40
6.0
  0
LINE
  5
3FA
  8
SIZE
  6
CONTINUOUS
 62
    30
 10
145.43013500000001
 20
-41.749999999999993
 30
0.0
 11
145.43013500000001
 21
-29.75
 31
0.0
  0
TEXT
  5
3FB
  8
SIZE
  6
CONTINUOUS
 62
    30
 10
120.43013500000001
 20
-254.29285757142861
 30
0.0
 40
64.0
  1
83.5
 50
90.0
 41
0.9
 72
     1
 11
120.43013500000001
 21
-166.52142900000001
 31
0.0
  0
POINT
  5
3FC
  8
DEFPOINTS
  6
CONTINUOUS
 62
    30
 10
8.9529189999999996
 20
41.749999999999993
 30
0.0
  0
POINT
  5
3FD
  8
DEFPOINTS
  6
CONTINUOUS
 62
    30
 10
8.9529189999999996
 20
-41.749999999999993
 30
0.0
  0
POINT
  5
3FE
  8
DEFPOINTS
  6
CONTINUOUS
 62
    30
 10
145.43013500000001
 20
-41.749999999999993
 30
0.0
  0
LINE
  5
3FF
  8
OUTLINE
  6
CONTINUOUS
 62
     3
 10
30.0
 20
-60.0
 30
0.0
 11
-30.0
 21
-60.0
 31
0.0
  0
ARC
  5
400
  8
OUTLINE
  6
CONTINUOUS
 62
     3
 10
30.0
 20
-55.0
 30
0.0
 40
5.0
 50
270.0
 51
0.0
  0
ARC
  5
401
  8
OUTLINE
  6
CONTINUOUS
 62
     3
 10
30.0
 20
55.0
 30
0.0
 40
5.0
 50
0.0
 51
90.0
  0
LINE
  5
402
  8
OUTLINE
  6
CONTINUOUS
 62
     3
 10
35.0
 20
0.0
 30
0.0
 11
35.0
 21
55.0
 31
0.0
  0
LINE
  5
403
  8
OUTLINE
  6
CONTINUOUS
 62
     3
 10
35.0
 20
-55.0
 30
0.0
 11
35.0
 21
0.0
 31
0.0
  0
ARC
  5
404
  8
OUTLINE
  6
CONTINUOUS
 62
     3
 10
-30.0
 20
-55.0
 30
0.0
 40
5.0
 50
180.0
 51
270.0
  0
ARC
  5
405
  8
OUTLINE
  6
CONTINUOUS
 62
     3
 10
-30.0
 20
55.0
 30
0.0
 40
5.0
 50
90.0
 51
180.0
  0
LINE
  5
406
  8
OUTLINE
  6
CONTINUOUS
 62
     3
 10
30.0
 20
60.0
 30
0.0
 11
-30.0
 21
60.0
 31
0.0
  0
LINE
  5
407
  8
OUTLINE
  6
CONTINUOUS
 62
     3
 10
-35.0
 20
0.0
 30
0.0
 11
-35.0
 21
55.0
 31
0.0
  0
LINE
  5
408
  8
OUTLINE
  6
CONTINUOUS
 62
     3
 10
-35.0
 20
-55.0
 30
0.0
 11
-35.0
 21
0.0
 31
0.0
  0
TEXT
  5
411
  8
ETC
  6
CONTINUOUS
 62
    61
 10
308.77135633574773
 20
106.3473436448736
 30
0.0
 40
40.0
  1
P-04SWLV
 41
0.9
  0
ENDSEC
  0
EOF
