  0
SECTION
  2
HEADER
  9
$ACADVER
  1
AC1009
  9
$INSBASE
 10
0.0
 20
0.0
 30
0.0
  9
$EXTMIN
 10
-58.772994999999987
 20
-249.06823399999999
 30
0.0
  9
$EXTMAX
 10
826.33046614285649
 20
530.58015100000011
 30
50.0
  9
$LIMMIN
 10
-2970.0
 20
-2100.0
  9
$LIMMAX
 10
2970.0
 20
2100.0
  9
$ORTHOMODE
 70
     1
  9
$REGENMODE
 70
     1
  9
$FILLMODE
 70
     1
  9
$QTEXTMODE
 70
     0
  9
$MIRRTEXT
 70
     0
  9
$DRAGMODE
 70
     2
  9
$LTSCALE
 40
20.0
  9
$OSMODE
 70
    55
  9
$ATTMODE
 70
     1
  9
$TEXTSIZE
 40
64.0
  9
$TRACEWID
 40
0.05
  9
$TEXTSTYLE
  7
STANDARD
  9
$CLAYER
  8
SIZE
  9
$CELTYPE
  6
CONTINUOUS
  9
$CECOLOR
 62
     7
  9
$DIMSCALE
 40
1.0
  9
$DIMASZ
 40
12.0
  9
$DIMEXO
 40
20.0
  9
$DIMDLI
 40
200.0
  9
$DIMRND
 40
0.0
  9
$DIMDLE
 40
0.0
  9
$DIMEXE
 40
20.0
  9
$DIMTP
 40
0.0
  9
$DIMTM
 40
0.0
  9
$DIMTXT
 40
64.0
  9
$DIMCEN
 40
0.09
  9
$DIMTSZ
 40
0.0
  9
$DIMTOL
 70
     0
  9
$DIMLIM
 70
     0
  9
$DIMTIH
 70
     0
  9
$DIMTOH
 70
     0
  9
$DIMSE1
 70
     0
  9
$DIMSE2
 70
     0
  9
$DIMTAD
 70
     1
  9
$DIMZIN
 70
     8
  9
$DIMBLK
  1
DOT1
  9
$DIMASO
 70
     1
  9
$DIMSHO
 70
     0
  9
$DIMPOST
  1

  9
$DIMAPOST
  1

  9
$DIMALT
 70
     0
  9
$DIMALTD
 70
     2
  9
$DIMALTF
 40
25.399999999999999
  9
$DIMLFAC
 40
1.0
  9
$DIMTOFL
 70
     1
  9
$DIMTVP
 40
0.0
  9
$DIMTIX
 70
     1
  9
$DIMSOXD
 70
     0
  9
$DIMSAH
 70
     1
  9
$DIMBLK1
  1
ORIGIN
  9
$DIMBLK2
  1
ORIGIN
  9
$DIMSTYLE
  2
STANDARD
  9
$DIMCLRD
 70
     7
  9
$DIMCLRE
 70
     7
  9
$DIMCLRT
 70
     7
  9
$DIMTFAC
 40
1.0
  9
$DIMGAP
 40
25.0
  9
$LUNITS
 70
     2
  9
$LUPREC
 70
     4
  9
$SKETCHINC
 40
0.1
  9
$FILLETRAD
 40
3.0
  9
$AUNITS
 70
     1
  9
$AUPREC
 70
     3
  9
$MENU
  1
ACAD
  9
$ELEVATION
 40
0.0
  9
$PELEVATION
 40
0.0
  9
$THICKNESS
 40
50.0
  9
$LIMCHECK
 70
     0
  9
$BLIPMODE
 70
     0
  9
$CHAMFERA
 40
0.0
  9
$CHAMFERB
 40
0.0
  9
$SKPOLY
 70
     0
  9
$TDCREATE
 40
2453019.6230103709
  9
$TDUPDATE
 40
2456388.6422419441
  9
$TDINDWG
 40
1.6883513426000001
  9
$TDUSRTIMER
 40
1.6883513426000001
  9
$USRTIMER
 70
     1
  9
$ANGBASE
 50
0.0
  9
$ANGDIR
 70
     0
  9
$PDMODE
 70
     3
  9
$PDSIZE
 40
-2.0
  9
$PLINEWID
 40
0.0
  9
$COORDS
 70
     1
  9
$SPLFRAME
 70
     0
  9
$SPLINETYPE
 70
     6
  9
$SPLINESEGS
 70
     8
  9
$ATTDIA
 70
     0
  9
$ATTREQ
 70
     1
  9
$HANDLING
 70
     1
  9
$HANDSEED
  5
16E
  9
$SURFTAB1
 70
     6
  9
$SURFTAB2
 70
     6
  9
$SURFTYPE
 70
     6
  9
$SURFU
 70
     6
  9
$SURFV
 70
     6
  9
$UCSNAME
  2

  9
$UCSORG
 10
0.0
 20
0.0
 30
0.0
  9
$UCSXDIR
 10
1.0
 20
0.0
 30
0.0
  9
$UCSYDIR
 10
0.0
 20
1.0
 30
0.0
  9
$PUCSNAME
  2

  9
$PUCSORG
 10
0.0
 20
0.0
 30
0.0
  9
$PUCSXDIR
 10
1.0
 20
0.0
 30
0.0
  9
$PUCSYDIR
 10
0.0
 20
1.0
 30
0.0
  9
$USERI1
 70
     0
  9
$USERI2
 70
     0
  9
$USERI3
 70
     0
  9
$USERI4
 70
     0
  9
$USERI5
 70
     0
  9
$USERR1
 40
20.0
  9
$USERR2
 40
0.0
  9
$USERR3
 40
0.0
  9
$USERR4
 40
0.0
  9
$USERR5
 40
0.0
  9
$WORLDVIEW
 70
     1
  9
$SHADEDGE
 70
     3
  9
$SHADEDIF
 70
    70
  9
$TILEMODE
 70
     1
  9
$MAXACTVP
 70
    48
  9
$PLIMCHECK
 70
     0
  9
$PEXTMIN
 10
-1.0000000000000000E+020
 20
-1.0000000000000000E+020
 30
-1.0000000000000000E+020
  9
$PEXTMAX
 10
1.0000000000000000E+020
 20
1.0000000000000000E+020
 30
1.0000000000000000E+020
  9
$PLIMMIN
 10
0.0
 20
0.0
  9
$PLIMMAX
 10
12.0
 20
9.0
  9
$UNITMODE
 70
     0
  9
$VISRETAIN
 70
     0
  9
$PLINEGEN
 70
     0
  9
$PSLTSCALE
 70
     0
  0
ENDSEC
  0
SECTION
  2
TABLES
  0
TABLE
  2
VPORT
 70
     1
  0
VPORT
  2
*ACTIVE
 70
     0
 10
0.0
 20
0.0
 11
1.0
 21
1.0
 12
633.831105453698
 22
140.98548422761991
 13
0.0
 23
0.0
 14
1.0
 24
1.0
 15
0.0
 25
0.0
 16
0.0
 26
0.0
 36
1.0
 17
0.0
 27
0.0
 37
0.0
 40
1215.140897685267
 41
1.6865079365079361
 42
50.0
 43
0.0
 44
0.0
 50
0.0
 51
0.0
 71
     0
 72
  1000
 73
     1
 74
     0
 75
     0
 76
     0
 77
     0
 78
     0
  0
ENDTAB
  0
TABLE
  2
LTYPE
 70
     3
  0
LTYPE
  2
CONTINUOUS
 70
     0
  3
実線
 72
    65
 73
     0
 40
0.0
  0
LTYPE
  2
DASHDOT
 70
     0
  3
____ _ ____ _ ____ _ ____ _ ____ _ ____ _ ____
 72
    65
 73
     4
 40
5.5
 49
4.0
 49
-0.6
 49
0.3
 49
-0.6
  0
ENDTAB
  0
TABLE
  2
LAYER
 70
    12
  0
LAYER
  2
0
 70
     0
 62
     7
  6
CONTINUOUS
  0
LAYER
  2
SIZE
 70
     0
 62
    30
  6
CONTINUOUS
  0
LAYER
  2
BASIS
 70
     0
 62
     6
  6
DASHDOT
  0
LAYER
  2
OUTLINE
 70
     0
 62
     3
  6
CONTINUOUS
  0
LAYER
  2
DETAIL
 70
     0
 62
     5
  6
CONTINUOUS
  0
LAYER
  2
ARRANGE
 70
     0
 62
     1
  6
CONTINUOUS
  0
LAYER
  2
DEFPOINTS
 70
     0
 62
     7
  6
CONTINUOUS
  0
LAYER
  2
ETC
 70
     0
 62
    61
  6
CONTINUOUS
  0
LAYER
  2
FIX
 70
     0
 62
    11
  6
CONTINUOUS
  0
LAYER
  2
NOTE
 70
     0
 62
     4
  6
CONTINUOUS
  0
LAYER
  2
SERVICESPACE
 70
     0
 62
     2
  6
DASHDOT
  0
LAYER
  2
SYMBOLLINE
 70
     0
 62
    15
  6
CONTINUOUS
  0
ENDTAB
  0
TABLE
  2
STYLE
 70
     2
  0
STYLE
  2
STANDARD
 70
     0
 40
64.0
 41
0.9
 50
0.0
 71
     0
 42
64.0
  3
SIMPLEX.shx
  4
BIGFONT.shx
  0
STYLE
  2
ANNOTATIVE
 70
     0
 40
0.0
 41
1.0
 50
0.0
 71
     0
 42
0.2
  3
txt
  4

  0
ENDTAB
  0
TABLE
  2
VIEW
 70
     1
  0
VIEW
  2
ALL
 70
     0
 40
4282.6198079999986
 10
0.0
 20
41.309903999999989
 41
5940.0
 11
0.0
 21
0.0
 31
1.0
 12
0.0
 22
0.0
 32
0.0
 42
50.0
 43
0.0
 44
0.0
 50
0.0
 71
     0
  0
ENDTAB
  0
TABLE
  2
UCS
 70
     0
  0
ENDTAB
  0
TABLE
  2
APPID
 70
    18
  0
APPID
  2
ACAD
 70
     0
  0
APPID
  2
ACADANNOTATIVE
 70
     0
  0
APPID
  2
AUTOCAD_POSTSCRIPT_FIGURE
 70
     0
  0
APPID
  2
ACAD_EXEMPT_FROM_CAD_STANDARDS
 70
     0
  0
APPID
  2
ACAD_PSEXT
 70
     0
  0
APPID
  2
ACAUTHENVIRON
 70
     0
  0
APPID
  2
GENIUS_GENOENT_13
 70
     0
  0
APPID
  2
GENIUS_GENCFG_13
 70
     0
  0
APPID
  2
GENIUS_GENCFG0_13
 70
     0
  0
APPID
  2
GENIUS_GENCFG1_13
 70
     0
  0
APPID
  2
GENIUS_GENCFG2_13
 70
     0
  0
APPID
  2
GENIUS_GENCFG3_13
 70
     0
  0
APPID
  2
GENIUS_GENCFG4_13
 70
     0
  0
APPID
  2
GENIUS_GEVCFG0_13
 70
     0
  0
APPID
  2
CONTENTBLOCKICON
 70
     0
  0
APPID
  2
CONTENTBLOCKDESCRIPTION
 70
     0
  0
APPID
  2
ACAD_NAV_VCDISPLAY
 70
     0
  0
APPID
  2
ACAD_MLEADERVER
 70
     0
  0
ENDTAB
  0
TABLE
  2
DIMSTYLE
 70
     2
  0
DIMSTYLE
  2
STANDARD
 70
     0
  3

  4

  5

  6

  7

 40
1.0
 41
0.18
 42
0.0625
 43
0.38
 44
0.18
 45
0.0
 46
0.0
 47
0.0
 48
0.0
140
0.18
141
0.09
142
0.0
143
25.399999999999999
144
1.0
145
0.0
146
1.0
147
0.09
 71
     0
 72
     0
 73
     1
 74
     1
 75
     0
 76
     0
 77
     0
 78
     0
170
     0
171
     2
172
     0
173
     0
174
     0
175
     0
176
     7
177
     7
178
     7
  0
DIMSTYLE
  2
ANNOTATIVE
 70
     0
  3

  4

  5

  6

  7

 40
1.0
 41
0.18
 42
0.0625
 43
0.38
 44
0.18
 45
0.0
 46
0.0
 47
0.0
 48
0.0
140
0.18
141
0.09
142
0.0
143
25.399999999999999
144
1.0
145
0.0
146
1.0
147
0.09
 71
     0
 72
     0
 73
     1
 74
     1
 75
     0
 76
     0
 77
     0
 78
     0
170
     0
171
     2
172
     0
173
     0
174
     0
175
     0
176
     0
177
     0
178
     0
  0
ENDTAB
  0
ENDSEC
  0
SECTION
  2
BLOCKS
  0
BLOCK
  8
0
  2
$MODEL_SPACE
 70
     0
 10
0.0
 20
0.0
 30
0.0
  3
$MODEL_SPACE
  1

  0
ENDBLK
  5
6D
  8
0
  0
BLOCK
 67
     1
  8
0
  2
$PAPER_SPACE
 70
     0
 10
0.0
 20
0.0
 30
0.0
  3
$PAPER_SPACE
  1

  0
ENDBLK
  5
69
 67
     1
  8
0
  0
BLOCK
  8
0
  2
DOT1
 70
     0
 10
0.0
 20
0.0
 30
0.0
  3
DOT1
  1

  0
CIRCLE
  5
90
  8
SIZE
  6
CONTINUOUS
 62
     7
 10
0.0
 20
0.0
 30
0.0
 40
3.0
  0
ENDBLK
  5
91
  8
0
  0
BLOCK
  8
0
  2
_ORIGIN
 70
     0
 10
0.0
 20
0.0
 30
0.0
  3
_ORIGIN
  1

  0
CIRCLE
  5
94
  8
0
  6
CONTINUOUS
 62
     7
 10
0.0
 20
0.0
 30
0.0
 40
0.5
  0
LINE
  5
95
  8
0
  6
CONTINUOUS
 62
     7
 10
0.0
 20
0.0
 30
0.0
 11
-1.0
 21
0.0
 31
0.0
  0
ENDBLK
  5
96
  8
0
  0
ENDSEC
  0
SECTION
  2
ENTITIES
  0
TEXT
  5
97
  8
ETC
  6
CONTINUOUS
 62
    61
 10
209.18760900000001
 20
466.580151
 30
0.0
 40
64.0
  1
P-04SWLV2_6
 41
0.9
  0
TEXT
  5
98
  8
ETC
  6
CONTINUOUS
 62
    61
 10
205.00161499999999
 20
348.624841
 30
0.0
 40
64.0
  1
システム部材
 41
0.9
  0
TEXT
  5
99
  8
ETC
  6
CONTINUOUS
 62
    61
 10
255.609118
 20
241.70390499999999
 30
0.0
 40
40.0
  1
P-04SWLV2
 41
0.9
  0
CIRCLE
  5
9A
  8
ARRANGE
  6
CONTINUOUS
 62
     1
 10
0.0
 20
0.0
 30
0.0
 40
40.0
  0
POINT
  5
9B
  8
ARRANGE
  6
CONTINUOUS
 62
     1
 10
0.0
 20
0.0
 30
0.0
 39
50.0
  0
LINE
  5
9C
  8
OUTLINE
  6
CONTINUOUS
 62
     3
 10
9.9729850000000013
 20
30.463016
 30
0.0
 11
-9.9729850000000013
 21
30.463016
 31
0.0
  0
ARC
  5
9D
  8
OUTLINE
  6
CONTINUOUS
 62
     3
 10
-9.9729850000000013
 20
26.463016
 30
0.0
 40
4.0
 50
90.0
 51
180.0
  0
LINE
  5
9E
  8
OUTLINE
  6
CONTINUOUS
 62
     3
 10
-13.972994999999999
 20
25.639723
 30
0.0
 11
-13.972994999999999
 21
26.463016
 31
0.0
  0
LINE
  5
9F
  8
OUTLINE
  6
CONTINUOUS
 62
     3
 10
-23.033573000000001
 20
0.000303
 30
0.0
 11
-22.589428999999999
 21
24.694725999999999
 31
0.0
  0
ARC
  5
A0
  8
OUTLINE
  6
CONTINUOUS
 62
     3
 10
-21.589590999999999
 20
24.676742999999998
 30
0.0
 40
1.0
 50
90.0
 51
178.96961400000001
  0
ARC
  5
A1
  8
OUTLINE
  6
CONTINUOUS
 62
     3
 10
20.5
 20
-13.103566000000001
 30
0.0
 40
1.5
 50
270.00129199999998
 51
0.0
  0
LINE
  5
A2
  8
OUTLINE
  6
CONTINUOUS
 62
     3
 10
22.0
 20
-13.103566000000001
 30
0.0
 11
22.0
 21
-11.125814999999999
 31
0.0
  0
LINE
  5
A3
  8
OUTLINE
  6
CONTINUOUS
 62
     3
 10
11.229651
 20
-14.603775000000001
 30
0.0
 11
20.500033999999999
 21
-14.603566000000001
 31
0.0
  0
ARC
  5
A4
  8
OUTLINE
  6
CONTINUOUS
 62
     3
 10
20.5
 20
-13.103567
 30
0.0
 40
1.5
 50
270.00129199999998
 51
0.0
  0
LINE
  5
A5
  8
OUTLINE
  6
CONTINUOUS
 62
     3
 10
-20.500033999999999
 20
-14.603566000000001
 30
0.0
 11
20.500033999999999
 21
-14.603567
 31
0.0
  0
LINE
  5
A6
  8
OUTLINE
  6
CONTINUOUS
 62
     3
 10
22.0
 20
-13.103567
 30
0.0
 11
22.0
 21
-10.499964
 31
0.0
  0
LINE
  5
A7
  8
OUTLINE
  6
CONTINUOUS
 62
     3
 10
-34.772995000000002
 20
-6.9999640000000003
 30
0.0
 11
-34.772995000000002
 21
0.000036
 31
0.0
  0
LINE
  5
A8
  8
OUTLINE
  6
CONTINUOUS
 62
     3
 10
35.227004999999998
 20
-6.9999640000000003
 30
0.0
 11
35.227004999999998
 21
0.000036
 31
0.0
  0
LINE
  5
A9
  8
OUTLINE
  6
CONTINUOUS
 62
     3
 10
-24.372995
 20
-10.499964
 30
0.0
 11
-31.272995000000002
 21
-10.499964
 31
0.0
  0
ARC
  5
AA
  8
OUTLINE
  6
CONTINUOUS
 62
     3
 10
-31.272995000000002
 20
-6.9999640000000003
 30
0.0
 40
3.5
 50
180.0
 51
270.0
  0
ARC
  5
AB
  8
OUTLINE
  6
CONTINUOUS
 62
     3
 10
31.727004999999998
 20
-6.9999640000000003
 30
0.0
 40
3.5
 50
270.0
 51
0.0
  0
LINE
  5
AC
  8
OUTLINE
  6
CONTINUOUS
 62
     3
 10
-34.772995000000002
 20
0.000467
 30
0.0
 11
-23.034251999999999
 21
0.000303
 31
0.0
  0
LINE
  5
AD
  8
OUTLINE
  6
CONTINUOUS
 62
     3
 10
31.727004999999998
 20
-10.499964
 30
0.0
 11
22.0
 21
-10.499964
 31
0.0
  0
LINE
  5
AE
  8
OUTLINE
  6
CONTINUOUS
 62
     3
 39
50.0
 10
-21.589590999999999
 20
25.676742999999998
 30
0.0
 11
-13.972994999999999
 21
25.676742999999998
 31
0.0
  0
ARC
  5
AF
  8
OUTLINE
  6
CONTINUOUS
 62
     3
 10
9.9729850000000013
 20
26.463016
 30
0.0
 40
4.0
 50
0.0
 51
90.0
  0
LINE
  5
B0
  8
OUTLINE
  6
CONTINUOUS
 62
     3
 10
13.972994999999999
 20
25.639723
 30
0.0
 11
13.972994999999999
 21
26.463016
 31
0.0
  0
LINE
  5
B1
  8
OUTLINE
  6
CONTINUOUS
 62
     3
 10
23.033583
 20
-0.000258
 30
0.0
 11
22.589428999999999
 21
24.694725999999999
 31
0.0
  0
ARC
  5
B2
  8
OUTLINE
  6
CONTINUOUS
 62
     3
 10
21.589590999999999
 20
24.676742999999998
 30
0.0
 40
1.0
 50
1.030386
 51
90.0
  0
LINE
  5
B3
  8
OUTLINE
  6
CONTINUOUS
 62
     3
 39
50.0
 10
21.589590999999999
 20
25.676742999999998
 30
0.0
 11
13.972994999999999
 21
25.676742999999998
 31
0.0
  0
ARC
  5
B4
  8
OUTLINE
  6
CONTINUOUS
 62
     3
 10
-20.5
 20
-13.103566000000001
 30
0.0
 40
1.5
 50
180.0
 51
269.99870800000002
  0
LINE
  5
B5
  8
OUTLINE
  6
CONTINUOUS
 62
     3
 10
-22.0
 20
-13.103566000000001
 30
0.0
 11
-22.0
 21
-11.125814999999999
 31
0.0
  0
ARC
  5
B6
  8
OUTLINE
  6
CONTINUOUS
 62
     3
 10
-20.5
 20
-13.103567
 30
0.0
 40
1.5
 50
180.0
 51
269.99870800000002
  0
LINE
  5
B7
  8
OUTLINE
  6
CONTINUOUS
 62
     3
 10
-22.0
 20
-13.103567
 30
0.0
 11
-22.0
 21
-10.499964
 31
0.0
  0
LINE
  5
B8
  8
BASIS
  6
DASHDOT
 62
     6
 39
50.0
 10
0.0
 20
-48.782291999999991
 30
0.0
 11
0.0
 21
48.782291999999991
 31
0.0
  0
LINE
  5
B9
  8
BASIS
  6
DASHDOT
 62
     6
 39
50.0
 10
0.0
 20
50.847984999999987
 30
0.0
 11
0.0
 21
50.847984999999987
 31
0.0
  0
LINE
  5
BA
  8
SIZE
  6
CONTINUOUS
 62
    30
 10
-34.772995000000002
 20
20.000036000000001
 30
0.0
 11
-34.772995000000002
 21
88.744422999999998
 31
0.0
  0
LINE
  5
BB
  8
SIZE
  6
CONTINUOUS
 62
    30
 10
35.227004999999998
 20
19.999606
 30
0.0
 11
35.227004999999998
 21
88.744422999999998
 31
0.0
  0
LINE
  5
BC
  8
SIZE
  6
CONTINUOUS
 62
    30
 10
-46.772995000000002
 20
68.744422999999998
 30
0.0
 11
-58.772994999999987
 21
68.744422999999998
 31
0.0
  0
LINE
  5
BD
  8
SIZE
  6
CONTINUOUS
 62
    30
 10
47.227004999999998
 20
68.744422999999998
 30
0.0
 11
59.227005000000013
 21
68.744422999999998
 31
0.0
  0
LINE
  5
BE
  8
SIZE
  6
CONTINUOUS
 62
    30
 10
-34.772995000000002
 20
68.744422999999998
 30
0.0
 11
35.227004999999998
 21
68.744422999999998
 31
0.0
  0
CIRCLE
  5
BF
  8
SIZE
  6
CONTINUOUS
 62
    30
 10
-34.772995000000002
 20
68.744422999999998
 30
0.0
 40
6.0
  0
LINE
  5
C0
  8
SIZE
  6
CONTINUOUS
 62
    30
 10
-34.772995000000002
 20
68.744422999999998
 30
0.0
 11
-46.772995000000002
 21
68.744422999999998
 31
0.0
  0
CIRCLE
  5
C1
  8
SIZE
  6
CONTINUOUS
 62
    30
 10
35.227004999999998
 20
68.744422999999998
 30
0.0
 40
6.0
  0
LINE
  5
C2
  8
SIZE
  6
CONTINUOUS
 62
    30
 10
35.227004999999998
 20
68.744422999999998
 30
0.0
 11
47.227004999999998
 21
68.744422999999998
 31
0.0
  0
TEXT
  5
C3
  8
SIZE
  6
CONTINUOUS
 62
    30
 10
-46.401566428571421
 20
93.744422999999998
 30
0.0
 40
64.0
  1
70
 41
0.9
 72
     1
 11
0.227005
 21
93.744422999999998
 31
0.0
  0
POINT
  5
C4
  8
DEFPOINTS
  6
CONTINUOUS
 62
    30
 10
-34.772995000000002
 20
0.000036
 30
0.0
  0
POINT
  5
C5
  8
DEFPOINTS
  6
CONTINUOUS
 62
    30
 10
35.227004999999998
 20
-0.000394
 30
0.0
  0
POINT
  5
C6
  8
DEFPOINTS
  6
CONTINUOUS
 62
    30
 10
35.227004999999998
 20
68.744422999999998
 30
0.0
  0
LINE
  5
C7
  8
SIZE
  6
CONTINUOUS
 62
    30
 10
51.875670999999997
 20
-10.496805999999999
 30
0.0
 11
196.404797
 21
-10.496805999999999
 31
0.0
  0
LINE
  5
C8
  8
SIZE
  6
CONTINUOUS
 62
    30
 10
54.095006000000012
 20
0.000457
 30
0.0
 11
196.404797
 21
0.000457
 31
0.0
  0
LINE
  5
C9
  8
SIZE
  6
CONTINUOUS
 62
    30
 10
176.404797
 20
12.000457000000001
 30
0.0
 11
176.404797
 21
24.000457000000001
 31
0.0
  0
LINE
  5
CA
  8
SIZE
  6
CONTINUOUS
 62
    30
 10
176.404797
 20
-22.496805999999999
 30
0.0
 11
176.404797
 21
-249.06823399999999
 31
0.0
  0
LINE
  5
CB
  8
SIZE
  6
CONTINUOUS
 62
    30
 10
176.404797
 20
0.000457
 30
0.0
 11
176.404797
 21
-10.496805999999999
 31
0.0
  0
CIRCLE
  5
CC
  8
SIZE
  6
CONTINUOUS
 62
    30
 10
176.404797
 20
0.000457
 30
0.0
 40
6.0
  0
LINE
  5
CD
  8
SIZE
  6
CONTINUOUS
 62
    30
 10
176.404797
 20
0.000457
 30
0.0
 11
176.404797
 21
12.000457000000001
 31
0.0
  0
CIRCLE
  5
CE
  8
SIZE
  6
CONTINUOUS
 62
    30
 10
176.404797
 20
-10.496805999999999
 30
0.0
 40
6.0
  0
LINE
  5
CF
  8
SIZE
  6
CONTINUOUS
 62
    30
 10
176.404797
 20
-10.496805999999999
 30
0.0
 11
176.404797
 21
-22.496805999999999
 31
0.0
  0
TEXT
  5
D0
  8
SIZE
  6
CONTINUOUS
 62
    30
 10
151.404797
 20
-224.06823428571431
 30
0.0
 40
64.0
  1
10.5
 50
90.0
 41
0.9
 72
     1
 11
151.404797
 21
-141.78252000000001
 31
0.0
  0
POINT
  5
D1
  8
DEFPOINTS
  6
CONTINUOUS
 62
    30
 10
31.875671000000001
 20
-10.496805999999999
 30
0.0
  0
POINT
  5
D2
  8
DEFPOINTS
  6
CONTINUOUS
 62
    30
 10
34.095005999999998
 20
0.000457
 30
0.0
  0
POINT
  5
D3
  8
DEFPOINTS
  6
CONTINUOUS
 62
    30
 10
176.404797
 20
0.000457
 30
0.0
  0
LINE
  5
D4
  8
SIZE
  6
CONTINUOUS
 62
    30
 10
54.095006000000012
 20
0.000457
 30
0.0
 11
196.404797
 21
0.000457
 31
0.0
  0
LINE
  5
D5
  8
SIZE
  6
CONTINUOUS
 62
    30
 10
41.589590999999992
 20
25.676742999999998
 30
0.0
 11
196.404797
 21
25.676742999999998
 31
0.0
  0
LINE
  5
D6
  8
SIZE
  6
CONTINUOUS
 62
    30
 10
176.404797
 20
-11.999542999999999
 30
0.0
 11
176.404797
 21
-23.999542999999999
 31
0.0
  0
LINE
  5
D7
  8
SIZE
  6
CONTINUOUS
 62
    30
 10
176.404797
 20
37.676743000000002
 30
0.0
 11
176.404797
 21
190.19102799999999
 31
0.0
  0
LINE
  5
D8
  8
SIZE
  6
CONTINUOUS
 62
    30
 10
176.404797
 20
0.000457
 30
0.0
 11
176.404797
 21
25.676742999999998
 31
0.0
  0
CIRCLE
  5
D9
  8
SIZE
  6
CONTINUOUS
 62
    30
 10
176.404797
 20
0.000457
 30
0.0
 40
6.0
  0
LINE
  5
DA
  8
SIZE
  6
CONTINUOUS
 62
    30
 10
176.404797
 20
0.000457
 30
0.0
 11
176.404797
 21
-11.999542999999999
 31
0.0
  0
CIRCLE
  5
DB
  8
SIZE
  6
CONTINUOUS
 62
    30
 10
176.404797
 20
25.676742999999998
 30
0.0
 40
6.0
  0
LINE
  5
DC
  8
SIZE
  6
CONTINUOUS
 62
    30
 10
176.404797
 20
25.676742999999998
 30
0.0
 11
176.404797
 21
37.676743000000002
 31
0.0
  0
TEXT
  5
DD
  8
SIZE
  6
CONTINUOUS
 62
    30
 10
151.404797
 20
74.676743142857163
 30
0.0
 40
64.0
  1
26
 50
90.0
 41
0.9
 72
     1
 11
151.404797
 21
119.933886
 31
0.0
  0
POINT
  5
DE
  8
DEFPOINTS
  6
CONTINUOUS
 62
    30
 10
34.095005999999998
 20
0.000457
 30
0.0
  0
POINT
  5
DF
  8
DEFPOINTS
  6
CONTINUOUS
 62
    30
 10
21.589590999999999
 20
25.676742999999998
 30
0.0
  0
POINT
  5
E0
  8
DEFPOINTS
  6
CONTINUOUS
 62
    30
 10
176.404797
 20
25.676742999999998
 30
0.0
  0
ARC
  5
E1
  8
DETAIL
  6
CONTINUOUS
 62
     5
 10
-9.9729850000000013
 20
26.463016
 30
0.0
 40
2.0
 50
90.0
 51
180.0
  0
LINE
  5
E2
  8
DETAIL
  6
CONTINUOUS
 62
     5
 10
9.9729850000000013
 20
28.463016
 30
0.0
 11
-9.9729850000000013
 21
28.463016
 31
0.0
  0
LINE
  5
E3
  8
DETAIL
  6
CONTINUOUS
 62
     5
 10
9.9729850000000013
 20
30.463016
 30
0.0
 11
-9.9729850000000013
 21
30.463016
 31
0.0
  0
ARC
  5
E4
  8
DETAIL
  6
CONTINUOUS
 62
     5
 10
-9.9729850000000013
 20
26.463016
 30
0.0
 40
4.0
 50
90.0
 51
180.0
  0
LINE
  5
E5
  8
DETAIL
  6
CONTINUOUS
 62
     5
 10
-11.972994999999999
 20
25.639723
 30
0.0
 11
-11.972994999999999
 21
26.463016
 31
0.0
  0
LINE
  5
E6
  8
DETAIL
  6
CONTINUOUS
 62
     5
 10
-13.972994999999999
 20
25.639723
 30
0.0
 11
-13.972994999999999
 21
26.463016
 31
0.0
  0
LINE
  5
E7
  8
DETAIL
  6
CONTINUOUS
 62
     5
 10
-23.033573000000001
 20
0.000303
 30
0.0
 11
-22.589428999999999
 21
24.694725999999999
 31
0.0
  0
ARC
  5
E8
  8
DETAIL
  6
CONTINUOUS
 62
     5
 10
-21.589590999999999
 20
24.676742999999998
 30
0.0
 40
1.0
 50
90.0
 51
178.96961400000001
  0
ARC
  5
E9
  8
DETAIL
  6
CONTINUOUS
 62
     5
 10
20.5
 20
-13.103566000000001
 30
0.0
 40
1.5
 50
270.00129199999998
 51
0.0
  0
LINE
  5
EA
  8
DETAIL
  6
CONTINUOUS
 62
     5
 10
22.0
 20
-13.103566000000001
 30
0.0
 11
22.0
 21
-11.125814999999999
 31
0.0
  0
LINE
  5
EB
  8
DETAIL
  6
CONTINUOUS
 62
     5
 10
11.229651
 20
-14.603775000000001
 30
0.0
 11
20.500033999999999
 21
-14.603566000000001
 31
0.0
  0
ARC
  5
EC
  8
DETAIL
  6
CONTINUOUS
 62
     5
 10
20.5
 20
-13.103567
 30
0.0
 40
1.5
 50
270.00129199999998
 51
0.0
  0
LINE
  5
ED
  8
DETAIL
  6
CONTINUOUS
 62
     5
 10
-20.500033999999999
 20
-14.603566000000001
 30
0.0
 11
20.500033999999999
 21
-14.603567
 31
0.0
  0
LINE
  5
EE
  8
DETAIL
  6
CONTINUOUS
 62
     5
 10
22.0
 20
-13.103567
 30
0.0
 11
22.0
 21
-10.499964
 31
0.0
  0
LINE
  5
EF
  8
DETAIL
  6
CONTINUOUS
 62
     5
 10
-34.772995000000002
 20
-6.9999640000000003
 30
0.0
 11
-34.772995000000002
 21
0.000036
 31
0.0
  0
LINE
  5
F0
  8
DETAIL
  6
CONTINUOUS
 62
     5
 10
35.227004999999998
 20
-6.9999640000000003
 30
0.0
 11
35.227004999999998
 21
0.000036
 31
0.0
  0
LINE
  5
F1
  8
DETAIL
  6
CONTINUOUS
 62
     5
 10
-24.372995
 20
-10.499964
 30
0.0
 11
-31.272995000000002
 21
-10.499964
 31
0.0
  0
ARC
  5
F2
  8
DETAIL
  6
CONTINUOUS
 62
     5
 10
-31.272995000000002
 20
-6.9999640000000003
 30
0.0
 40
3.5
 50
180.0
 51
270.0
  0
ARC
  5
F3
  8
DETAIL
  6
CONTINUOUS
 62
     5
 10
31.727004999999998
 20
-6.9999640000000003
 30
0.0
 40
3.5
 50
270.0
 51
0.0
  0
LINE
  5
F4
  8
DETAIL
  6
CONTINUOUS
 62
     5
 10
-34.772995000000002
 20
0.000467
 30
0.0
 11
0.0
 21
-0.000017
 31
0.0
  0
LINE
  5
F5
  8
DETAIL
  6
CONTINUOUS
 62
     5
 10
0.0
 20
0.0
 30
0.0
 11
35.227004999999998
 21
-0.000394
 31
0.0
  0
LINE
  5
F6
  8
DETAIL
  6
CONTINUOUS
 62
     5
 10
10.900363
 20
-10.499964
 30
0.0
 11
-24.372995
 21
-10.499964
 31
0.0
  0
LINE
  5
F7
  8
DETAIL
  6
CONTINUOUS
 62
     5
 10
31.727004999999998
 20
-10.499964
 30
0.0
 11
-24.372995
 21
-10.499964
 31
0.0
  0
LINE
  5
F8
  8
DETAIL
  6
CONTINUOUS
 62
     5
 39
50.0
 10
-21.589590999999999
 20
25.676742999999998
 30
0.0
 11
0.0
 21
25.676742999999998
 31
0.0
  0
ARC
  5
F9
  8
DETAIL
  6
CONTINUOUS
 62
     5
 10
9.9729850000000013
 20
26.463016
 30
0.0
 40
2.0
 50
0.0
 51
90.0
  0
ARC
  5
FA
  8
DETAIL
  6
CONTINUOUS
 62
     5
 10
9.9729850000000013
 20
26.463016
 30
0.0
 40
4.0
 50
0.0
 51
90.0
  0
LINE
  5
FB
  8
DETAIL
  6
CONTINUOUS
 62
     5
 10
11.972994999999999
 20
25.639723
 30
0.0
 11
11.972994999999999
 21
26.463016
 31
0.0
  0
LINE
  5
FC
  8
DETAIL
  6
CONTINUOUS
 62
     5
 10
13.972994999999999
 20
25.639723
 30
0.0
 11
13.972994999999999
 21
26.463016
 31
0.0
  0
LINE
  5
FD
  8
DETAIL
  6
CONTINUOUS
 62
     5
 10
23.033583
 20
-0.000258
 30
0.0
 11
22.589428999999999
 21
24.694725999999999
 31
0.0
  0
ARC
  5
FE
  8
DETAIL
  6
CONTINUOUS
 62
     5
 10
21.589590999999999
 20
24.676742999999998
 30
0.0
 40
1.0
 50
1.030386
 51
90.0
  0
LINE
  5
FF
  8
DETAIL
  6
CONTINUOUS
 62
     5
 39
50.0
 10
21.589590999999999
 20
25.676742999999998
 30
0.0
 11
0.0
 21
25.676742999999998
 31
0.0
  0
ARC
  5
100
  8
DETAIL
  6
CONTINUOUS
 62
     5
 10
-20.5
 20
-13.103566000000001
 30
0.0
 40
1.5
 50
180.0
 51
269.99870800000002
  0
LINE
  5
101
  8
DETAIL
  6
CONTINUOUS
 62
     5
 10
-22.0
 20
-13.103566000000001
 30
0.0
 11
-22.0
 21
-11.125814999999999
 31
0.0
  0
ARC
  5
102
  8
DETAIL
  6
CONTINUOUS
 62
     5
 10
-20.5
 20
-13.103567
 30
0.0
 40
1.5
 50
180.0
 51
269.99870800000002
  0
LINE
  5
103
  8
DETAIL
  6
CONTINUOUS
 62
     5
 10
-22.0
 20
-13.103567
 30
0.0
 11
-22.0
 21
-10.499964
 31
0.0
  0
LINE
  5
104
  8
OUTLINE
  6
CONTINUOUS
 62
     3
 10
23.033583
 20
-0.000258
 30
0.0
 11
35.227004999999998
 21
-0.000394
 31
0.0
  0
LINE
  5
105
  8
OUTLINE
  6
CONTINUOUS
 62
     3
 10
-22.0
 20
-10.499964
 30
0.0
 11
-24.372995
 21
-10.499964
 31
0.0
  0
TEXT
  5
10E
  8
ETC
  6
CONTINUOUS
 62
    61
 10
253.9956506857294
 20
179.5104268400861
 30
0.0
 40
40.0
  1
P-04SWLV
 41
0.9
  0
ENDSEC
  0
EOF
