  0
SECTION
  2
HEADER
  9
$ACADVER
  1
AC1009
  9
$INSBASE
 10
0.0
 20
0.0
 30
0.0
  9
$EXTMIN
 10
-517.53843546325686
 20
-564.60570132430428
 30
-0.0030518556252446
  9
$EXTMAX
 10
693.37464496886048
 20
415.2832109426181
 30
50.003052088470113
  9
$LIMMIN
 10
-2970.0
 20
-2100.0
  9
$LIMMAX
 10
2970.0
 20
2100.0
  9
$ORTHOMODE
 70
     1
  9
$REGENMODE
 70
     0
  9
$FILLMODE
 70
     1
  9
$QTEXTMODE
 70
     0
  9
$MIRRTEXT
 70
     0
  9
$DRAGMODE
 70
     2
  9
$LTSCALE
 40
20.0
  9
$OSMODE
 70
    37
  9
$ATTMODE
 70
     1
  9
$TEXTSIZE
 40
64.0
  9
$TRACEWID
 40
0.05
  9
$TEXTSTYLE
  7
STANDARD
  9
$CLAYER
  8
SIZE
  9
$CELTYPE
  6
CONTINUOUS
  9
$CECOLOR
 62
    30
  9
$DIMSCALE
 40
1.0
  9
$DIMASZ
 40
12.0
  9
$DIMEXO
 40
20.0
  9
$DIMDLI
 40
200.0
  9
$DIMRND
 40
0.0
  9
$DIMDLE
 40
0.0
  9
$DIMEXE
 40
20.0
  9
$DIMTP
 40
0.0
  9
$DIMTM
 40
0.0
  9
$DIMTXT
 40
64.0
  9
$DIMCEN
 40
0.09
  9
$DIMTSZ
 40
0.0
  9
$DIMTOL
 70
     0
  9
$DIMLIM
 70
     0
  9
$DIMTIH
 70
     0
  9
$DIMTOH
 70
     0
  9
$DIMSE1
 70
     0
  9
$DIMSE2
 70
     0
  9
$DIMTAD
 70
     1
  9
$DIMZIN
 70
     8
  9
$DIMBLK
  1
DOT1
  9
$DIMASO
 70
     1
  9
$DIMSHO
 70
     0
  9
$DIMPOST
  1

  9
$DIMAPOST
  1

  9
$DIMALT
 70
     0
  9
$DIMALTD
 70
     2
  9
$DIMALTF
 40
25.399999999999999
  9
$DIMLFAC
 40
1.0
  9
$DIMTOFL
 70
     1
  9
$DIMTVP
 40
0.0
  9
$DIMTIX
 70
     1
  9
$DIMSOXD
 70
     0
  9
$DIMSAH
 70
     1
  9
$DIMBLK1
  1
ORIGIN
  9
$DIMBLK2
  1
ORIGIN
  9
$DIMSTYLE
  2
STANDARD
  9
$DIMCLRD
 70
     7
  9
$DIMCLRE
 70
     7
  9
$DIMCLRT
 70
     7
  9
$DIMTFAC
 40
1.0
  9
$DIMGAP
 40
25.0
  9
$LUNITS
 70
     2
  9
$LUPREC
 70
     4
  9
$SKETCHINC
 40
0.1
  9
$FILLETRAD
 40
4.0
  9
$AUNITS
 70
     1
  9
$AUPREC
 70
     3
  9
$MENU
  1
ACAD
  9
$ELEVATION
 40
0.0
  9
$PELEVATION
 40
0.0
  9
$THICKNESS
 40
50.0
  9
$LIMCHECK
 70
     0
  9
$BLIPMODE
 70
     0
  9
$CHAMFERA
 40
0.0
  9
$CHAMFERB
 40
0.0
  9
$SKPOLY
 70
     0
  9
$TDCREATE
 40
2453138.8258560649
  9
$TDUPDATE
 40
2455048.4787931368
  9
$TDINDWG
 40
0.0720295949
  9
$TDUSRTIMER
 40
0.0720295949
  9
$USRTIMER
 70
     1
  9
$ANGBASE
 50
0.0
  9
$ANGDIR
 70
     0
  9
$PDMODE
 70
     3
  9
$PDSIZE
 40
-2.0
  9
$PLINEWID
 40
0.0
  9
$COORDS
 70
     0
  9
$SPLFRAME
 70
     0
  9
$SPLINETYPE
 70
     6
  9
$SPLINESEGS
 70
     8
  9
$ATTDIA
 70
     0
  9
$ATTREQ
 70
     1
  9
$HANDLING
 70
     1
  9
$HANDSEED
  5
43C
  9
$SURFTAB1
 70
     6
  9
$SURFTAB2
 70
     6
  9
$SURFTYPE
 70
     6
  9
$SURFU
 70
     6
  9
$SURFV
 70
     6
  9
$UCSNAME
  2

  9
$UCSORG
 10
0.0
 20
0.0
 30
0.0
  9
$UCSXDIR
 10
1.0
 20
0.0
 30
0.0
  9
$UCSYDIR
 10
0.0
 20
1.0
 30
0.0
  9
$PUCSNAME
  2

  9
$PUCSORG
 10
0.0
 20
0.0
 30
0.0
  9
$PUCSXDIR
 10
1.0
 20
0.0
 30
0.0
  9
$PUCSYDIR
 10
0.0
 20
1.0
 30
0.0
  9
$USERI1
 70
     0
  9
$USERI2
 70
     0
  9
$USERI3
 70
     0
  9
$USERI4
 70
     0
  9
$USERI5
 70
     0
  9
$USERR1
 40
20.0
  9
$USERR2
 40
0.0
  9
$USERR3
 40
0.0
  9
$USERR4
 40
0.0
  9
$USERR5
 40
0.0
  9
$WORLDVIEW
 70
     1
  9
$SHADEDGE
 70
     3
  9
$SHADEDIF
 70
    70
  9
$TILEMODE
 70
     1
  9
$MAXACTVP
 70
    48
  9
$PLIMCHECK
 70
     0
  9
$PEXTMIN
 10
-1.0000000000000000E+020
 20
-1.0000000000000000E+020
 30
-1.0000000000000000E+020
  9
$PEXTMAX
 10
1.0000000000000000E+020
 20
1.0000000000000000E+020
 30
1.0000000000000000E+020
  9
$PLIMMIN
 10
0.0
 20
0.0
  9
$PLIMMAX
 10
12.0
 20
9.0
  9
$UNITMODE
 70
     0
  9
$VISRETAIN
 70
     0
  9
$PLINEGEN
 70
     0
  9
$PSLTSCALE
 70
     0
  0
ENDSEC
  0
SECTION
  2
TABLES
  0
TABLE
  2
VPORT
 70
     1
  0
VPORT
  2
*ACTIVE
 70
     0
 10
0.0
 20
0.0
 11
1.0
 21
1.0
 12
322.53886945577727
 22
-258.41377359368988
 13
0.0
 23
0.0
 14
1.0
 24
1.0
 15
0.0
 25
0.0
 16
0.0
 26
0.0
 36
1.0
 17
0.0
 27
0.0
 37
0.0
 40
1611.2628486836211
 41
1.209523809523809
 42
50.0
 43
0.0
 44
0.0
 50
0.0
 51
0.0
 71
     0
 72
  1000
 73
     1
 74
     0
 75
     0
 76
     0
 77
     0
 78
     0
  0
ENDTAB
  0
TABLE
  2
LTYPE
 70
     3
  0
LTYPE
  2
CONTINUOUS
 70
     0
  3
実線
 72
    65
 73
     0
 40
0.0
  0
LTYPE
  2
DASHDOT
 70
     0
  3
____ _ ____ _ ____ _ ____ _ ____ _ ____ _ ____
 72
    65
 73
     4
 40
5.5
 49
4.0
 49
-0.6
 49
0.3
 49
-0.6
  0
LTYPE
  2
DASHED
 70
     0
  3
-- -- -- -- -- -- -- -- -- -- -- -- -- -- --
 72
    65
 73
     2
 40
0.75
 49
0.5
 49
-0.25
  0
ENDTAB
  0
TABLE
  2
LAYER
 70
    12
  0
LAYER
  2
0
 70
     0
 62
     7
  6
CONTINUOUS
  0
LAYER
  2
SIZE
 70
     0
 62
    30
  6
CONTINUOUS
  0
LAYER
  2
BASIS
 70
     0
 62
     6
  6
DASHDOT
  0
LAYER
  2
OUTLINE
 70
     0
 62
     3
  6
CONTINUOUS
  0
LAYER
  2
DETAIL
 70
     0
 62
     5
  6
CONTINUOUS
  0
LAYER
  2
ARRANGE
 70
     0
 62
     1
  6
CONTINUOUS
  0
LAYER
  2
DEFPOINTS
 70
     0
 62
     7
  6
CONTINUOUS
  0
LAYER
  2
ETC
 70
     0
 62
    61
  6
CONTINUOUS
  0
LAYER
  2
FIX
 70
     0
 62
    11
  6
CONTINUOUS
  0
LAYER
  2
NOTE
 70
     0
 62
     4
  6
CONTINUOUS
  0
LAYER
  2
SERVICESPACE
 70
     0
 62
     2
  6
DASHDOT
  0
LAYER
  2
SYMBOLLINE
 70
     0
 62
    15
  6
CONTINUOUS
  0
ENDTAB
  0
TABLE
  2
STYLE
 70
     2
  0
STYLE
  2
STANDARD
 70
     0
 40
64.0
 41
0.9
 50
0.0
 71
     0
 42
64.0
  3
SIMPLEX.shx
  4
BIGFONT.shx
  0
STYLE
  2
ANNOTATIVE
 70
     0
 40
0.0
 41
1.0
 50
0.0
 71
     0
 42
0.2
  3
txt
  4

  0
ENDTAB
  0
TABLE
  2
VIEW
 70
     2
  0
VIEW
  2
ALL
 70
     0
 40
4282.6198079999986
 10
0.0
 20
41.309903999999989
 41
5940.0
 11
0.0
 21
0.0
 31
1.0
 12
0.0
 22
0.0
 32
0.0
 42
50.0
 43
0.0
 44
0.0
 50
0.0
 71
     0
  0
ENDTAB
  0
TABLE
  2
UCS
 70
     0
  0
ENDTAB
  0
TABLE
  2
APPID
 70
     4
  0
APPID
  2
ACAD
 70
     0
  0
APPID
  2
ACADANNOTATIVE
 70
     0
  0
APPID
  2
ACAD_MLEADERVER
 70
     0
  0
APPID
  2
AUTOCAD_POSTSCRIPT_FIGURE
 70
     0
  0
ENDTAB
  0
TABLE
  2
DIMSTYLE
 70
     2
  0
DIMSTYLE
  2
STANDARD
 70
     0
  3

  4

  5

  6

  7

 40
1.0
 41
0.18
 42
0.0625
 43
0.38
 44
0.18
 45
0.0
 46
0.0
 47
0.0
 48
0.0
140
0.18
141
0.09
142
0.0
143
25.399999999999999
144
1.0
145
0.0
146
1.0
147
0.09
 71
     0
 72
     0
 73
     1
 74
     1
 75
     0
 76
     0
 77
     0
 78
     0
170
     0
171
     2
172
     0
173
     0
174
     0
175
     0
176
     7
177
     7
178
     7
  0
DIMSTYLE
  2
ANNOTATIVE
 70
     0
  3

  4

  5

  6

  7

 40
1.0
 41
0.18
 42
0.0625
 43
0.38
 44
0.18
 45
0.0
 46
0.0
 47
0.0
 48
0.0
140
0.18
141
0.09
142
0.0
143
25.399999999999999
144
1.0
145
0.0
146
1.0
147
0.09
 71
     0
 72
     0
 73
     1
 74
     1
 75
     0
 76
     0
 77
     0
 78
     0
170
     0
171
     2
172
     0
173
     0
174
     0
175
     0
176
     0
177
     0
178
     0
  0
ENDTAB
  0
ENDSEC
  0
SECTION
  2
BLOCKS
  0
BLOCK
  8
0
  2
$MODEL_SPACE
 70
     0
 10
0.0
 20
0.0
 30
0.0
  3
$MODEL_SPACE
  1

  0
ENDBLK
  5
76
  8
0
  0
BLOCK
 67
     1
  8
0
  2
$PAPER_SPACE
 70
     0
 10
0.0
 20
0.0
 30
0.0
  3
$PAPER_SPACE
  1

  0
ENDBLK
  5
72
 67
     1
  8
0
  0
BLOCK
  8
0
  2
DOT1
 70
     0
 10
0.0
 20
0.0
 30
0.0
  3
DOT1
  1

  0
CIRCLE
  5
8D
  8
SIZE
  6
CONTINUOUS
 62
     7
 10
0.0
 20
0.0
 30
0.0
 40
3.0
  0
ENDBLK
  5
8E
  8
0
  0
BLOCK
  8
0
  2
_ORIGIN
 70
     0
 10
0.0
 20
0.0
 30
0.0
  3
_ORIGIN
  1

  0
CIRCLE
  5
91
  8
0
  6
CONTINUOUS
 62
     7
 10
0.0
 20
0.0
 30
0.0
 40
0.5
  0
LINE
  5
92
  8
0
  6
CONTINUOUS
 62
     7
 10
0.0
 20
0.0
 30
0.0
 11
-1.0
 21
0.0
 31
0.0
  0
ENDBLK
  5
93
  8
0
  0
ENDSEC
  0
SECTION
  2
ENTITIES
  0
LINE
  5
96
  8
BASIS
  6
DASHDOT
 62
     6
 39
50.0
 10
-49.299501999999997
 20
0.0
 30
0.0
 11
137.30851299999989
 21
0.0
 31
0.0
  0
CIRCLE
  5
97
  8
ARRANGE
  6
CONTINUOUS
 62
     1
 39
50.0
 10
0.0
 20
0.0
 30
0.0
 40
40.0
  0
POINT
  5
98
  8
ARRANGE
  6
CONTINUOUS
 62
     1
 10
0.0
 20
0.0
 30
0.0
 39
50.0
  0
ARC
  5
9A
  8
DETAIL
  6
CONTINUOUS
 62
     5
 10
-40.0
 20
-30.717967999999999
 30
0.0
 40
50.0
 50
0.0
 51
30.0
  0
LINE
  5
9B
  8
DETAIL
  6
CONTINUOUS
 62
     5
 10
0.0
 20
0.0
 30
0.0
 11
3.3012699999999988
 21
-5.7179679999999991
 31
0.0
  0
LINE
  5
9C
  8
DETAIL
  6
CONTINUOUS
 62
     5
 10
5.1961519999999988
 20
-100.0
 30
0.0
 11
0.0
 21
-100.0
 31
0.0
  0
LINE
  5
9D
  8
DETAIL
  6
CONTINUOUS
 62
     5
 10
5.6961519999999988
 20
-100.13397500000001
 30
0.0
 11
19.0
 21
-108.0
 31
0.0
  0
ARC
  5
9E
  8
DETAIL
  6
CONTINUOUS
 62
     5
 10
5.1961519999999988
 20
-101.0
 30
0.0
 40
1.0
 50
60.0
 51
90.0
  0
ARC
  5
9F
  8
DETAIL
  6
CONTINUOUS
 62
     5
 10
211.15004099999999
 20
-43.634085999999989
 30
0.0
 40
201.15004099999999
 50
179.99966900000001
 51
198.14234400000001
  0
LINE
  5
A0
  8
DETAIL
  6
CONTINUOUS
 62
     5
 10
10.0
 20
-43.632923999999988
 30
0.0
 11
10.0
 21
-30.717967999999999
 31
0.0
  0
LINE
  5
A1
  8
DETAIL
  6
CONTINUOUS
 62
     5
 10
20.0
 20
-106.267949
 30
0.0
 11
19.0
 21
-108.0
 31
0.0
  0
LINE
  5
A2
  8
DETAIL
  6
CONTINUOUS
 62
     5
 10
0.0
 20
13.383217999999999
 30
0.0
 11
0.0
 21
-100.0
 31
0.0
  0
LINE
  5
A3
  8
DETAIL
  6
CONTINUOUS
 62
     5
 10
0.0
 20
90.0
 30
0.0
 11
0.0
 21
13.383217999999999
 31
0.0
  0
ARC
  5
A4
  8
DETAIL
  6
CONTINUOUS
 62
     5
 10
87.400000000000006
 20
0.0
 30
0.0
 40
6.0999999999999988
 50
309.60198300000002
 51
50.398035
  0
LINE
  5
A5
  8
DETAIL
  6
CONTINUOUS
 62
     5
 10
91.0
 20
4.7000000000000002
 30
0.0
 11
91.0
 21
-4.7000000000000002
 31
0.0
  0
LINE
  5
A6
  8
DETAIL
  6
CONTINUOUS
 62
     5
 10
91.0
 20
-4.7000000000000002
 30
0.0
 11
91.288444999999996
 21
-4.7000000000000002
 31
0.0
  0
LINE
  5
A7
  8
DETAIL
  6
CONTINUOUS
 62
     5
 10
91.0
 20
4.7000000000000002
 30
0.0
 11
91.288444999999996
 21
4.7000000000000002
 31
0.0
  0
LINE
  5
A8
  8
DETAIL
  6
CONTINUOUS
 62
     5
 10
91.288444999999996
 20
-4.7000000000000002
 30
0.0
 11
91.288444999999996
 21
4.7000000000000002
 31
0.0
  0
LINE
  5
A9
  8
DETAIL
  6
CONTINUOUS
 62
     5
 10
15.0
 20
19.786646999999999
 30
0.0
 11
42.0
 21
19.578703999999998
 31
0.0
  0
LINE
  5
AA
  8
DETAIL
  6
CONTINUOUS
 62
     5
 10
15.0
 20
17.634723000000001
 30
0.0
 11
42.0
 21
17.42677999999999
 31
0.0
  0
LINE
  5
AB
  8
DETAIL
  6
CONTINUOUS
 62
     5
 10
15.0
 20
17.218837000000001
 30
0.0
 11
44.0
 21
16.969877
 31
0.0
  0
LINE
  5
AC
  8
DETAIL
  6
CONTINUOUS
 62
     5
 10
44.0
 20
19.138704000000001
 30
0.0
 11
43.961570999999992
 21
19.224544000000002
 31
0.0
  0
LINE
  5
AD
  8
DETAIL
  6
CONTINUOUS
 62
     5
 10
43.961570999999992
 20
19.224544000000002
 30
0.0
 11
43.847759000000003
 21
19.307085000000001
 31
0.0
  0
LINE
  5
AE
  8
DETAIL
  6
CONTINUOUS
 62
     5
 10
43.847759000000003
 20
19.307085000000001
 30
0.0
 11
43.662939000000001
 21
19.383154999999999
 31
0.0
  0
LINE
  5
AF
  8
DETAIL
  6
CONTINUOUS
 62
     5
 10
43.662939000000001
 20
19.383154999999999
 30
0.0
 11
43.414214000000001
 21
19.449831
 31
0.0
  0
LINE
  5
B0
  8
DETAIL
  6
CONTINUOUS
 62
     5
 10
43.414214000000001
 20
19.449831
 30
0.0
 11
43.111139999999992
 21
19.504550999999999
 31
0.0
  0
LINE
  5
B1
  8
DETAIL
  6
CONTINUOUS
 62
     5
 10
43.111139999999992
 20
19.504550999999999
 30
0.0
 11
42.765366999999998
 21
19.545210999999998
 31
0.0
  0
LINE
  5
B2
  8
DETAIL
  6
CONTINUOUS
 62
     5
 10
42.765366999999998
 20
19.545210999999998
 30
0.0
 11
42.390180999999998
 21
19.570250000000001
 31
0.0
  0
LINE
  5
B3
  8
DETAIL
  6
CONTINUOUS
 62
     5
 10
42.390180999999998
 20
19.570250000000001
 30
0.0
 11
42.0
 21
19.578703999999998
 31
0.0
  0
LINE
  5
B4
  8
DETAIL
  6
CONTINUOUS
 62
     5
 10
44.0
 20
16.969877
 30
0.0
 11
44.0
 21
19.138704000000001
 31
0.0
  0
LINE
  5
B5
  8
DETAIL
  6
CONTINUOUS
 62
     5
 10
43.998525999999998
 20
16.969889999999999
 30
0.0
 11
43.980319000000001
 21
17.04835499999999
 31
0.0
  0
LINE
  5
B6
  8
DETAIL
  6
CONTINUOUS
 62
     5
 10
43.980319000000001
 20
17.04835499999999
 30
0.0
 11
43.898972000000001
 21
17.124856000000001
 31
0.0
  0
LINE
  5
B7
  8
DETAIL
  6
CONTINUOUS
 62
     5
 10
43.898972000000001
 20
17.124856000000001
 30
0.0
 11
43.757077000000002
 21
17.196954999999999
 31
0.0
  0
LINE
  5
B8
  8
DETAIL
  6
CONTINUOUS
 62
     5
 10
43.757077000000002
 20
17.196954999999999
 30
0.0
 11
43.559159999999991
 21
17.262353000000001
 31
0.0
  0
LINE
  5
B9
  8
DETAIL
  6
CONTINUOUS
 62
     5
 10
43.559159999999991
 20
17.262353000000001
 30
0.0
 11
43.311531000000002
 21
17.318964000000001
 31
0.0
  0
LINE
  5
BA
  8
DETAIL
  6
CONTINUOUS
 62
     5
 10
43.311531000000002
 20
17.318964000000001
 30
0.0
 11
43.02208499999999
 21
17.364984
 31
0.0
  0
LINE
  5
BB
  8
DETAIL
  6
CONTINUOUS
 62
     5
 10
43.02208499999999
 20
17.364984
 30
0.0
 11
42.700051000000002
 21
17.398945000000001
 31
0.0
  0
LINE
  5
BC
  8
DETAIL
  6
CONTINUOUS
 62
     5
 10
42.700051000000002
 20
17.398945000000001
 30
0.0
 11
42.355696000000002
 21
17.419764999999991
 31
0.0
  0
LINE
  5
BD
  8
DETAIL
  6
CONTINUOUS
 62
     5
 10
42.355696000000002
 20
17.419764999999991
 30
0.0
 11
42.0
 21
17.42677999999999
 31
0.0
  0
LINE
  5
BE
  8
DETAIL
  6
CONTINUOUS
 62
     5
 10
44.0
 20
0.0
 30
0.0
 11
44.0
 21
1.1000000000000001
 31
0.0
  0
LINE
  5
BF
  8
DETAIL
  6
CONTINUOUS
 62
     5
 10
15.0
 20
1.1000000000000001
 30
0.0
 11
44.0
 21
1.1000000000000001
 31
0.0
  0
LINE
  5
C0
  8
DETAIL
  6
CONTINUOUS
 62
     5
 10
93.0
 20
7.5
 30
0.0
 11
96.331874999999997
 21
7.5
 31
0.0
  0
LINE
  5
C1
  8
DETAIL
  6
CONTINUOUS
 62
     5
 10
91.0
 20
5.5
 30
0.0
 11
91.0
 21
0.0
 31
0.0
  0
LINE
  5
C2
  8
DETAIL
  6
DASHED
 62
     5
 10
42.0
 20
-84.954812999999987
 30
0.0
 11
42.0
 21
-81.952984000000001
 31
0.0
  0
ARC
  5
C3
  8
DETAIL
  6
CONTINUOUS
 62
     5
 10
93.0
 20
-5.5
 30
0.0
 40
2.0
 50
180.0
 51
270.0
  0
LINE
  5
C4
  8
DETAIL
  6
CONTINUOUS
 62
     5
 10
91.0
 20
-5.5
 30
0.0
 11
91.0
 21
0.0
 31
0.0
  0
LINE
  5
C5
  8
DETAIL
  6
CONTINUOUS
 62
     5
 10
93.0
 20
-7.5
 30
0.0
 11
96.331874999999997
 21
-7.5
 31
0.0
  0
ARC
  5
C6
  8
DETAIL
  6
CONTINUOUS
 62
     5
 10
75.04140799999999
 20
68.790618999999992
 30
0.0
 40
17.0
 50
27.697375000000001
 51
88.0
  0
ARC
  5
C7
  8
DETAIL
  6
CONTINUOUS
 62
     5
 10
75.040756000000002
 20
-68.791860999999997
 30
0.0
 40
17.0
 50
272.0
 51
332.30208199999998
  0
ARC
  5
C8
  8
DETAIL
  6
CONTINUOUS
 62
     5
 10
-56.0
 20
0.0
 30
0.0
 40
165.0
 50
332.30208199999998
 51
27.697375000000001
  0
LINE
  5
C9
  8
DETAIL
  6
CONTINUOUS
 62
     5
 10
42.0
 20
-86.287518999999989
 30
0.0
 11
42.0
 21
-84.837389999999985
 31
0.0
  0
LINE
  5
CA
  8
DETAIL
  6
CONTINUOUS
 62
     5
 10
42.0
 20
-88.506669999999986
 30
0.0
 11
42.347296
 21
-88.476453000000006
 31
0.0
  0
LINE
  5
CB
  8
DETAIL
  6
CONTINUOUS
 62
     5
 10
42.347296
 20
-88.476453000000006
 30
0.0
 11
42.684040000000003
 21
-88.386718999999985
 31
0.0
  0
LINE
  5
CC
  8
DETAIL
  6
CONTINUOUS
 62
     5
 10
42.684040000000003
 20
-88.386718999999985
 30
0.0
 11
43.0
 21
-88.240195
 31
0.0
  0
LINE
  5
CD
  8
DETAIL
  6
CONTINUOUS
 62
     5
 10
43.0
 20
-88.240195
 30
0.0
 11
43.285575000000001
 21
-88.041332999999995
 31
0.0
  0
LINE
  5
CE
  8
DETAIL
  6
CONTINUOUS
 62
     5
 10
43.285575000000001
 20
-88.041332999999995
 30
0.0
 11
43.532088999999999
 21
-87.796175000000005
 31
0.0
  0
LINE
  5
CF
  8
DETAIL
  6
CONTINUOUS
 62
     5
 10
43.532088999999999
 20
-87.796175000000005
 30
0.0
 11
43.732050999999991
 21
-87.512169999999998
 31
0.0
  0
LINE
  5
D0
  8
DETAIL
  6
CONTINUOUS
 62
     5
 10
43.732050999999991
 20
-87.512169999999998
 30
0.0
 11
43.879384999999992
 21
-87.197947999999997
 31
0.0
  0
LINE
  5
D1
  8
DETAIL
  6
CONTINUOUS
 62
     5
 10
43.879384999999992
 20
-87.197947999999997
 30
0.0
 11
43.969616000000002
 21
-86.863056
 31
0.0
  0
LINE
  5
D2
  8
DETAIL
  6
CONTINUOUS
 62
     5
 10
43.969616000000002
 20
-86.863056
 30
0.0
 11
44.0
 21
-86.517669999999995
 31
0.0
  0
LINE
  5
D3
  8
DETAIL
  6
CONTINUOUS
 62
     5
 10
42.0
 20
-88.276707999999985
 30
0.0
 11
42.356344999999997
 21
-88.24488199999999
 31
0.0
  0
LINE
  5
D4
  8
DETAIL
  6
CONTINUOUS
 62
     5
 10
42.356344999999997
 20
-88.24488199999999
 30
0.0
 11
42.701285999999989
 21
-88.150424999999998
 31
0.0
  0
LINE
  5
D5
  8
DETAIL
  6
CONTINUOUS
 62
     5
 10
42.701285999999989
 20
-88.150424999999998
 30
0.0
 11
43.02378499999999
 21
-87.996356999999989
 31
0.0
  0
LINE
  5
D6
  8
DETAIL
  6
CONTINUOUS
 62
     5
 10
43.02378499999999
 20
-87.996356999999989
 30
0.0
 11
43.313521999999999
 21
-87.787610999999998
 31
0.0
  0
LINE
  5
D7
  8
DETAIL
  6
CONTINUOUS
 62
     5
 10
43.313521999999999
 20
-87.787610999999998
 30
0.0
 11
43.561223999999989
 21
-87.530865000000006
 31
0.0
  0
LINE
  5
D8
  8
DETAIL
  6
CONTINUOUS
 62
     5
 10
43.561223999999989
 20
-87.530865000000006
 30
0.0
 11
43.758963999999999
 21
-87.234335999999985
 31
0.0
  0
LINE
  5
D9
  8
DETAIL
  6
CONTINUOUS
 62
     5
 10
43.758963999999999
 20
-87.234335999999985
 30
0.0
 11
43.900415000000002
 21
-86.907514000000006
 31
0.0
  0
LINE
  5
DA
  8
DETAIL
  6
CONTINUOUS
 62
     5
 10
43.900415000000002
 20
-86.907514000000006
 30
0.0
 11
43.981051000000001
 21
-86.560857999999996
 31
0.0
  0
LINE
  5
DB
  8
DETAIL
  6
CONTINUOUS
 62
     5
 10
43.981051000000001
 20
-86.560857999999996
 30
0.0
 11
43.998289
 21
-86.205460000000002
 31
0.0
  0
LINE
  5
DC
  8
DETAIL
  6
CONTINUOUS
 62
     5
 10
44.0
 20
-86.517669999999995
 30
0.0
 11
44.0
 21
-86.205389999999994
 31
0.0
  0
LINE
  5
DD
  8
DETAIL
  6
CONTINUOUS
 62
     5
 10
42.0
 20
-88.506669999999986
 30
0.0
 11
15.0
 21
-89.615412000000006
 31
0.0
  0
LINE
  5
DE
  8
DETAIL
  6
CONTINUOUS
 62
     5
 10
42.0
 20
-86.287518999999989
 30
0.0
 11
44.0
 21
-86.205389999999994
 31
0.0
  0
LINE
  5
DF
  8
DETAIL
  6
CONTINUOUS
 62
     5
 10
42.0
 20
-88.276707999999985
 30
0.0
 11
15.0
 21
-89.385448999999994
 31
0.0
  0
LINE
  5
E0
  8
DETAIL
  6
CONTINUOUS
 62
     5
 10
15.0
 20
-81.444250999999994
 30
0.0
 11
42.0
 21
-80.383966999999984
 31
0.0
  0
LINE
  5
E1
  8
DETAIL
  6
CONTINUOUS
 62
     5
 10
42.0
 20
-84.837389999999985
 30
0.0
 11
42.390180999999998
 21
-84.800843999999998
 31
0.0
  0
LINE
  5
E2
  8
DETAIL
  6
CONTINUOUS
 62
     5
 10
42.390180999999998
 20
-84.800843999999998
 30
0.0
 11
42.765366999999998
 21
-84.692609000000004
 31
0.0
  0
LINE
  5
E3
  8
DETAIL
  6
CONTINUOUS
 62
     5
 10
42.765366999999998
 20
-84.692609000000004
 30
0.0
 11
43.111139999999992
 21
-84.516844999999975
 31
0.0
  0
LINE
  5
E4
  8
DETAIL
  6
CONTINUOUS
 62
     5
 10
43.111139999999992
 20
-84.516844999999975
 30
0.0
 11
43.414214000000001
 21
-84.280306999999979
 31
0.0
  0
LINE
  5
E5
  8
DETAIL
  6
CONTINUOUS
 62
     5
 10
43.414214000000001
 20
-84.280306999999979
 30
0.0
 11
43.662939000000001
 21
-83.992085000000003
 31
0.0
  0
LINE
  5
E6
  8
DETAIL
  6
CONTINUOUS
 62
     5
 10
43.662939000000001
 20
-83.992085000000003
 30
0.0
 11
43.847759000000003
 21
-83.663253999999995
 31
0.0
  0
LINE
  5
E7
  8
DETAIL
  6
CONTINUOUS
 62
     5
 10
43.847759000000003
 20
-83.663253999999995
 30
0.0
 11
43.961570999999992
 21
-83.306452000000007
 31
0.0
  0
LINE
  5
E8
  8
DETAIL
  6
CONTINUOUS
 62
     5
 10
43.961570999999992
 20
-83.306452000000007
 30
0.0
 11
44.0
 21
-82.935389999999998
 31
0.0
  0
LINE
  5
E9
  8
DETAIL
  6
CONTINUOUS
 62
     5
 10
15.0
 20
-85.897673999999995
 30
0.0
 11
42.0
 21
-84.837389999999985
 31
0.0
  0
LINE
  5
EA
  8
DETAIL
  6
CONTINUOUS
 62
     5
 10
42.0
 20
-84.188629000000006
 30
0.0
 11
42.390180999999998
 21
-84.15208299999999
 31
0.0
  0
LINE
  5
EB
  8
DETAIL
  6
CONTINUOUS
 62
     5
 10
42.390180999999998
 20
-84.15208299999999
 30
0.0
 11
42.765366999999998
 21
-84.043847999999997
 31
0.0
  0
LINE
  5
EC
  8
DETAIL
  6
CONTINUOUS
 62
     5
 10
42.765366999999998
 20
-84.043847999999997
 30
0.0
 11
43.111139999999992
 21
-83.868084999999994
 31
0.0
  0
LINE
  5
ED
  8
DETAIL
  6
CONTINUOUS
 62
     5
 10
43.111139999999992
 20
-83.868084999999994
 30
0.0
 11
43.414214000000001
 21
-83.631546999999998
 31
0.0
  0
LINE
  5
EE
  8
DETAIL
  6
CONTINUOUS
 62
     5
 10
43.414214000000001
 20
-83.631546999999998
 30
0.0
 11
43.662939000000001
 21
-83.343323999999996
 31
0.0
  0
LINE
  5
EF
  8
DETAIL
  6
CONTINUOUS
 62
     5
 10
43.662939000000001
 20
-83.343323999999996
 30
0.0
 11
43.847759000000003
 21
-83.014492999999987
 31
0.0
  0
LINE
  5
F0
  8
DETAIL
  6
CONTINUOUS
 62
     5
 10
43.847759000000003
 20
-83.014492999999987
 30
0.0
 11
43.961570999999992
 21
-82.657690999999986
 31
0.0
  0
LINE
  5
F1
  8
DETAIL
  6
CONTINUOUS
 62
     5
 10
43.961570999999992
 20
-82.657690999999986
 30
0.0
 11
44.0
 21
-82.286629000000005
 31
0.0
  0
LINE
  5
F2
  8
DETAIL
  6
CONTINUOUS
 62
     5
 10
44.0
 20
-82.935389999999998
 30
0.0
 11
44.0
 21
-82.207837999999995
 31
0.0
  0
LINE
  5
F3
  8
DETAIL
  6
CONTINUOUS
 62
     5
 10
42.0
 20
-82.286377000000002
 30
0.0
 11
44.0
 21
-82.207837999999995
 31
0.0
  0
LINE
  5
F4
  8
DETAIL
  6
CONTINUOUS
 62
     5
 10
15.0
 20
-85.248913000000002
 30
0.0
 11
42.0
 21
-84.188629000000006
 31
0.0
  0
LINE
  5
F5
  8
DETAIL
  6
CONTINUOUS
 62
     5
 10
15.0
 20
-73.922092000000006
 30
0.0
 11
42.0
 21
-72.95660500000001
 31
0.0
  0
LINE
  5
F6
  8
DETAIL
  6
CONTINUOUS
 62
     5
 10
42.0
 20
-77.521104000000008
 30
0.0
 11
42.390180999999998
 21
-77.487824000000003
 31
0.0
  0
LINE
  5
F7
  8
DETAIL
  6
CONTINUOUS
 62
     5
 10
42.390180999999998
 20
-77.487824000000003
 30
0.0
 11
42.765366999999998
 21
-77.389263
 31
0.0
  0
LINE
  5
F8
  8
DETAIL
  6
CONTINUOUS
 62
     5
 10
42.765366999999998
 20
-77.389263
 30
0.0
 11
43.111139999999992
 21
-77.229208999999997
 31
0.0
  0
LINE
  5
F9
  8
DETAIL
  6
CONTINUOUS
 62
     5
 10
43.111139999999992
 20
-77.229208999999997
 30
0.0
 11
43.414214000000001
 21
-77.013812999999999
 31
0.0
  0
LINE
  5
FA
  8
DETAIL
  6
CONTINUOUS
 62
     5
 10
43.414214000000001
 20
-77.013812999999999
 30
0.0
 11
43.662939000000001
 21
-76.751351999999983
 31
0.0
  0
LINE
  5
FB
  8
DETAIL
  6
CONTINUOUS
 62
     5
 10
43.662939000000001
 20
-76.751351999999983
 30
0.0
 11
43.847759000000003
 21
-76.451911999999993
 31
0.0
  0
LINE
  5
FC
  8
DETAIL
  6
CONTINUOUS
 62
     5
 10
43.847759000000003
 20
-76.451911999999993
 30
0.0
 11
43.961570999999992
 21
-76.126999999999995
 31
0.0
  0
LINE
  5
FD
  8
DETAIL
  6
CONTINUOUS
 62
     5
 10
43.961570999999992
 20
-76.126999999999995
 30
0.0
 11
44.0
 21
-75.789104000000009
 31
0.0
  0
LINE
  5
FE
  8
DETAIL
  6
CONTINUOUS
 62
     5
 10
42.0
 20
-77.521104000000008
 30
0.0
 11
42.0
 21
-82.286377000000002
 31
0.0
  0
LINE
  5
FF
  8
DETAIL
  6
CONTINUOUS
 62
     5
 10
42.0
 20
-76.421103999999985
 30
0.0
 11
42.390180999999998
 21
-76.387823999999995
 31
0.0
  0
LINE
  5
100
  8
DETAIL
  6
CONTINUOUS
 62
     5
 10
42.390180999999998
 20
-76.387823999999995
 30
0.0
 11
42.765366999999998
 21
-76.289263000000005
 31
0.0
  0
LINE
  5
101
  8
DETAIL
  6
CONTINUOUS
 62
     5
 10
42.765366999999998
 20
-76.289263000000005
 30
0.0
 11
43.111139999999992
 21
-76.129209000000003
 31
0.0
  0
LINE
  5
102
  8
DETAIL
  6
CONTINUOUS
 62
     5
 10
43.111139999999992
 20
-76.129209000000003
 30
0.0
 11
43.414214000000001
 21
-75.913813000000005
 31
0.0
  0
LINE
  5
103
  8
DETAIL
  6
CONTINUOUS
 62
     5
 10
43.414214000000001
 20
-75.913813000000005
 30
0.0
 11
43.662939000000001
 21
-75.651352000000003
 31
0.0
  0
LINE
  5
104
  8
DETAIL
  6
CONTINUOUS
 62
     5
 10
43.662939000000001
 20
-75.651352000000003
 30
0.0
 11
43.847759000000003
 21
-75.351911999999984
 31
0.0
  0
LINE
  5
105
  8
DETAIL
  6
CONTINUOUS
 62
     5
 10
43.847759000000003
 20
-75.351911999999984
 30
0.0
 11
43.961570999999992
 21
-75.027000000000001
 31
0.0
  0
LINE
  5
106
  8
DETAIL
  6
CONTINUOUS
 62
     5
 10
43.961570999999992
 20
-75.027000000000001
 30
0.0
 11
44.0
 21
-74.689104
 31
0.0
  0
LINE
  5
107
  8
DETAIL
  6
CONTINUOUS
 62
     5
 10
44.0
 20
-74.689104
 30
0.0
 11
44.0
 21
-75.789104000000009
 31
0.0
  0
LINE
  5
108
  8
DETAIL
  6
CONTINUOUS
 62
     5
 10
15.0
 20
-78.486591000000004
 30
0.0
 11
42.0
 21
-77.521104000000008
 31
0.0
  0
LINE
  5
109
  8
DETAIL
  6
CONTINUOUS
 62
     5
 10
43.998289
 20
-74.617469999999983
 30
0.0
 11
42.0
 21
-74.688927000000007
 31
0.0
  0
LINE
  5
10A
  8
DETAIL
  6
CONTINUOUS
 62
     5
 10
15.0
 20
-77.38659100000001
 30
0.0
 11
42.0
 21
-76.421103999999985
 31
0.0
  0
LINE
  5
10B
  8
DETAIL
  6
CONTINUOUS
 62
     5
 10
42.0
 20
-66.785696999999999
 30
0.0
 11
42.347296
 21
-66.763120999999998
 31
0.0
  0
LINE
  5
10C
  8
DETAIL
  6
CONTINUOUS
 62
     5
 10
42.347296
 20
-66.763120999999998
 30
0.0
 11
42.684040000000003
 21
-66.696080000000009
 31
0.0
  0
LINE
  5
10D
  8
DETAIL
  6
CONTINUOUS
 62
     5
 10
42.684040000000003
 20
-66.696080000000009
 30
0.0
 11
43.0
 21
-66.586611000000005
 31
0.0
  0
LINE
  5
10E
  8
DETAIL
  6
CONTINUOUS
 62
     5
 10
43.0
 20
-66.586611000000005
 30
0.0
 11
43.285575000000001
 21
-66.438039000000003
 31
0.0
  0
LINE
  5
10F
  8
DETAIL
  6
CONTINUOUS
 62
     5
 10
43.285575000000001
 20
-66.438039000000003
 30
0.0
 11
43.532088999999999
 21
-66.254879000000003
 31
0.0
  0
LINE
  5
110
  8
DETAIL
  6
CONTINUOUS
 62
     5
 10
43.532088999999999
 20
-66.254879000000003
 30
0.0
 11
43.732050999999991
 21
-66.042697000000004
 31
0.0
  0
LINE
  5
111
  8
DETAIL
  6
CONTINUOUS
 62
     5
 10
43.732050999999991
 20
-66.042697000000004
 30
0.0
 11
43.879384999999992
 21
-65.807938000000007
 31
0.0
  0
LINE
  5
112
  8
DETAIL
  6
CONTINUOUS
 62
     5
 10
43.879384999999992
 20
-65.807938000000007
 30
0.0
 11
43.969616000000002
 21
-65.557738000000001
 31
0.0
  0
LINE
  5
113
  8
DETAIL
  6
CONTINUOUS
 62
     5
 10
43.969616000000002
 20
-65.557738000000001
 30
0.0
 11
44.0
 21
-65.299695999999997
 31
0.0
  0
LINE
  5
114
  8
DETAIL
  6
CONTINUOUS
 62
     5
 10
42.0
 20
-65.313609999999997
 30
0.0
 11
42.356383999999998
 21
-65.289827000000002
 31
0.0
  0
LINE
  5
115
  8
DETAIL
  6
CONTINUOUS
 62
     5
 10
42.356383999999998
 20
-65.289827000000002
 30
0.0
 11
42.701360999999999
 21
-65.219240999999997
 31
0.0
  0
LINE
  5
116
  8
DETAIL
  6
CONTINUOUS
 62
     5
 10
42.701360999999999
 20
-65.219240999999997
 30
0.0
 11
43.023887999999999
 21
-65.104111000000003
 31
0.0
  0
LINE
  5
117
  8
DETAIL
  6
CONTINUOUS
 62
     5
 10
43.023887999999999
 20
-65.104111000000003
 30
0.0
 11
43.313642000000002
 21
-64.948122999999995
 31
0.0
  0
LINE
  5
118
  8
DETAIL
  6
CONTINUOUS
 62
     5
 10
43.313642000000002
 20
-64.948122999999995
 30
0.0
 11
43.561348999999993
 21
-64.756268000000006
 31
0.0
  0
LINE
  5
119
  8
DETAIL
  6
CONTINUOUS
 62
     5
 10
43.561348999999993
 20
-64.756268000000006
 30
0.0
 11
43.759078000000002
 21
-64.534688000000003
 31
0.0
  0
LINE
  5
11A
  8
DETAIL
  6
CONTINUOUS
 62
     5
 10
43.759078000000002
 20
-64.534688000000003
 30
0.0
 11
43.900503
 21
-64.290475000000001
 31
0.0
  0
LINE
  5
11B
  8
DETAIL
  6
CONTINUOUS
 62
     5
 10
43.900503
 20
-64.290475000000001
 30
0.0
 11
43.981095000000003
 21
-64.031447
 31
0.0
  0
LINE
  5
11C
  8
DETAIL
  6
CONTINUOUS
 62
     5
 10
43.981095000000003
 20
-64.031447
 30
0.0
 11
43.998274000000002
 21
-63.765894000000003
 31
0.0
  0
LINE
  5
11D
  8
DETAIL
  6
CONTINUOUS
 62
     5
 10
44.0
 20
-63.765841000000002
 30
0.0
 11
44.0
 21
-65.299696999999995
 31
0.0
  0
LINE
  5
11E
  8
DETAIL
  6
CONTINUOUS
 62
     5
 10
42.0
 20
-66.785696999999999
 30
0.0
 11
15.0
 21
-67.614191000000005
 31
0.0
  0
LINE
  5
11F
  8
DETAIL
  6
CONTINUOUS
 62
     5
 10
15.0
 20
-64.655705000000012
 30
0.0
 11
44.0
 21
-63.765841000000002
 31
0.0
  0
LINE
  5
120
  8
DETAIL
  6
CONTINUOUS
 62
     5
 10
42.0
 20
-65.313609999999997
 30
0.0
 11
15.0
 21
-66.142103000000006
 31
0.0
  0
LINE
  5
121
  8
DETAIL
  6
CONTINUOUS
 62
     5
 10
42.0
 20
-53.131433999999999
 30
0.0
 11
42.347296
 21
-53.113568000000008
 31
0.0
  0
LINE
  5
122
  8
DETAIL
  6
CONTINUOUS
 62
     5
 10
42.347296
 20
-53.113568000000008
 30
0.0
 11
42.684040000000003
 21
-53.060513
 31
0.0
  0
LINE
  5
123
  8
DETAIL
  6
CONTINUOUS
 62
     5
 10
42.684040000000003
 20
-53.060513
 30
0.0
 11
43.0
 21
-52.973880000000001
 31
0.0
  0
LINE
  5
124
  8
DETAIL
  6
CONTINUOUS
 62
     5
 10
43.0
 20
-52.973880000000001
 30
0.0
 11
43.285575000000001
 21
-52.856303000000011
 31
0.0
  0
LINE
  5
125
  8
DETAIL
  6
CONTINUOUS
 62
     5
 10
43.285575000000001
 20
-52.856303000000011
 30
0.0
 11
43.532088999999999
 21
-52.711353000000003
 31
0.0
  0
LINE
  5
126
  8
DETAIL
  6
CONTINUOUS
 62
     5
 10
43.532088999999999
 20
-52.711353000000003
 30
0.0
 11
43.732050999999991
 21
-52.543433999999991
 31
0.0
  0
LINE
  5
127
  8
DETAIL
  6
CONTINUOUS
 62
     5
 10
43.732050999999991
 20
-52.543433999999991
 30
0.0
 11
43.879384999999992
 21
-52.35765
 31
0.0
  0
LINE
  5
128
  8
DETAIL
  6
CONTINUOUS
 62
     5
 10
43.879384999999992
 20
-52.35765
 30
0.0
 11
43.969616000000002
 21
-52.159645000000012
 31
0.0
  0
LINE
  5
129
  8
DETAIL
  6
CONTINUOUS
 62
     5
 10
43.969616000000002
 20
-52.159645000000012
 30
0.0
 11
44.0
 21
-51.955433999999997
 31
0.0
  0
LINE
  5
12A
  8
DETAIL
  6
CONTINUOUS
 62
     5
 10
42.0
 20
-51.351596999999991
 30
0.0
 11
42.390180999999998
 21
-51.329000999999998
 31
0.0
  0
LINE
  5
12B
  8
DETAIL
  6
CONTINUOUS
 62
     5
 10
42.390180999999998
 20
-51.329000999999998
 30
0.0
 11
42.765366999999998
 21
-51.262079
 31
0.0
  0
LINE
  5
12C
  8
DETAIL
  6
CONTINUOUS
 62
     5
 10
42.765366999999998
 20
-51.262079
 30
0.0
 11
43.111139999999992
 21
-51.153404999999999
 31
0.0
  0
LINE
  5
12D
  8
DETAIL
  6
CONTINUOUS
 62
     5
 10
43.111139999999992
 20
-51.153404999999999
 30
0.0
 11
43.414214000000001
 21
-51.00715499999999
 31
0.0
  0
LINE
  5
12E
  8
DETAIL
  6
CONTINUOUS
 62
     5
 10
43.414214000000001
 20
-51.00715499999999
 30
0.0
 11
43.662939000000001
 21
-50.828947999999997
 31
0.0
  0
LINE
  5
12F
  8
DETAIL
  6
CONTINUOUS
 62
     5
 10
43.662939000000001
 20
-50.828947999999997
 30
0.0
 11
43.847759000000003
 21
-50.625633000000001
 31
0.0
  0
LINE
  5
130
  8
DETAIL
  6
CONTINUOUS
 62
     5
 10
43.847759000000003
 20
-50.625633000000001
 30
0.0
 11
43.961570999999992
 21
-50.405022999999993
 31
0.0
  0
LINE
  5
131
  8
DETAIL
  6
CONTINUOUS
 62
     5
 10
43.961570999999992
 20
-50.405022999999993
 30
0.0
 11
44.0
 21
-50.175596999999989
 31
0.0
  0
LINE
  5
132
  8
DETAIL
  6
CONTINUOUS
 62
     5
 10
44.0
 20
-50.175596999999989
 30
0.0
 11
44.0
 21
-51.955433999999997
 31
0.0
  0
LINE
  5
133
  8
DETAIL
  6
CONTINUOUS
 62
     5
 10
15.0
 20
-53.786726000000002
 30
0.0
 11
42.0
 21
-53.131433999999999
 31
0.0
  0
LINE
  5
134
  8
DETAIL
  6
CONTINUOUS
 62
     5
 10
15.0
 20
-50.831232
 30
0.0
 11
44.0
 21
-50.127400999999999
 31
0.0
  0
LINE
  5
135
  8
DETAIL
  6
CONTINUOUS
 62
     5
 10
15.0
 20
-52.006889000000001
 30
0.0
 11
42.0
 21
-51.351596999999991
 31
0.0
  0
LINE
  5
136
  8
DETAIL
  6
CONTINUOUS
 62
     5
 10
42.0
 20
-37.155073000000002
 30
0.0
 11
42.390180999999998
 21
-37.139432999999997
 31
0.0
  0
LINE
  5
137
  8
DETAIL
  6
CONTINUOUS
 62
     5
 10
42.390180999999998
 20
-37.139432999999997
 30
0.0
 11
42.765366999999998
 21
-37.093111
 31
0.0
  0
LINE
  5
138
  8
DETAIL
  6
CONTINUOUS
 62
     5
 10
42.765366999999998
 20
-37.093111
 30
0.0
 11
43.111139999999992
 21
-37.017890000000001
 31
0.0
  0
LINE
  5
139
  8
DETAIL
  6
CONTINUOUS
 62
     5
 10
43.111139999999992
 20
-37.017890000000001
 30
0.0
 11
43.414214000000001
 21
-36.916657999999998
 31
0.0
  0
LINE
  5
13A
  8
DETAIL
  6
CONTINUOUS
 62
     5
 10
43.414214000000001
 20
-36.916657999999998
 30
0.0
 11
43.662939000000001
 21
-36.79330800000001
 31
0.0
  0
LINE
  5
13B
  8
DETAIL
  6
CONTINUOUS
 62
     5
 10
43.662939000000001
 20
-36.79330800000001
 30
0.0
 11
43.847759000000003
 21
-36.652578000000013
 31
0.0
  0
LINE
  5
13C
  8
DETAIL
  6
CONTINUOUS
 62
     5
 10
43.847759000000003
 20
-36.652578000000013
 30
0.0
 11
43.961570999999992
 21
-36.499876999999998
 31
0.0
  0
LINE
  5
13D
  8
DETAIL
  6
CONTINUOUS
 62
     5
 10
43.961570999999992
 20
-36.499876999999998
 30
0.0
 11
44.0
 21
-36.341073000000002
 31
0.0
  0
LINE
  5
13E
  8
DETAIL
  6
CONTINUOUS
 62
     5
 10
42.0
 20
-35.145273000000003
 30
0.0
 11
42.390180999999998
 21
-35.129632999999998
 31
0.0
  0
LINE
  5
13F
  8
DETAIL
  6
CONTINUOUS
 62
     5
 10
42.390180999999998
 20
-35.129632999999998
 30
0.0
 11
42.765366999999998
 21
-35.083311000000002
 31
0.0
  0
LINE
  5
140
  8
DETAIL
  6
CONTINUOUS
 62
     5
 10
42.765366999999998
 20
-35.083311000000002
 30
0.0
 11
43.111139999999992
 21
-35.008090000000003
 31
0.0
  0
LINE
  5
141
  8
DETAIL
  6
CONTINUOUS
 62
     5
 10
43.111139999999992
 20
-35.008090000000003
 30
0.0
 11
43.414214000000001
 21
-34.906858
 31
0.0
  0
LINE
  5
142
  8
DETAIL
  6
CONTINUOUS
 62
     5
 10
43.414214000000001
 20
-34.906858
 30
0.0
 11
43.662939000000001
 21
-34.783508000000012
 31
0.0
  0
LINE
  5
143
  8
DETAIL
  6
CONTINUOUS
 62
     5
 10
43.662939000000001
 20
-34.783508000000012
 30
0.0
 11
43.847759000000003
 21
-34.642778
 31
0.0
  0
LINE
  5
144
  8
DETAIL
  6
CONTINUOUS
 62
     5
 10
43.847759000000003
 20
-34.642778
 30
0.0
 11
43.961570999999992
 21
-34.490076999999999
 31
0.0
  0
LINE
  5
145
  8
DETAIL
  6
CONTINUOUS
 62
     5
 10
43.961570999999992
 20
-34.490076999999999
 30
0.0
 11
44.0
 21
-34.331273000000003
 31
0.0
  0
LINE
  5
146
  8
DETAIL
  6
CONTINUOUS
 62
     5
 10
44.0
 20
-34.331273000000003
 30
0.0
 11
44.0
 21
-36.341073000000002
 31
0.0
  0
LINE
  5
147
  8
DETAIL
  6
CONTINUOUS
 62
     5
 10
42.0
 20
-37.155073000000002
 30
0.0
 11
15.0
 21
-37.608522999999998
 31
0.0
  0
LINE
  5
148
  8
DETAIL
  6
CONTINUOUS
 62
     5
 10
15.0
 20
-34.78519
 30
0.0
 11
43.998346000000012
 21
-34.298180000000002
 31
0.0
  0
LINE
  5
149
  8
DETAIL
  6
CONTINUOUS
 62
     5
 10
42.0
 20
-35.145273000000003
 30
0.0
 11
15.0
 21
-35.598723
 31
0.0
  0
LINE
  5
14A
  8
DETAIL
  6
CONTINUOUS
 62
     5
 10
42.0
 20
-19.578703999999998
 30
0.0
 11
42.390180999999998
 21
-19.570250000000001
 31
0.0
  0
LINE
  5
14B
  8
DETAIL
  6
CONTINUOUS
 62
     5
 10
42.390180999999998
 20
-19.570250000000001
 30
0.0
 11
42.765366999999998
 21
-19.545210999999998
 31
0.0
  0
LINE
  5
14C
  8
DETAIL
  6
CONTINUOUS
 62
     5
 10
42.765366999999998
 20
-19.545210999999998
 30
0.0
 11
43.111139999999992
 21
-19.504550999999999
 31
0.0
  0
LINE
  5
14D
  8
DETAIL
  6
CONTINUOUS
 62
     5
 10
43.111139999999992
 20
-19.504550999999999
 30
0.0
 11
43.414214000000001
 21
-19.449831
 31
0.0
  0
LINE
  5
14E
  8
DETAIL
  6
CONTINUOUS
 62
     5
 10
43.414214000000001
 20
-19.449831
 30
0.0
 11
43.662939000000001
 21
-19.383154999999999
 31
0.0
  0
LINE
  5
14F
  8
DETAIL
  6
CONTINUOUS
 62
     5
 10
43.662939000000001
 20
-19.383154999999999
 30
0.0
 11
43.847759000000003
 21
-19.307085000000001
 31
0.0
  0
LINE
  5
150
  8
DETAIL
  6
CONTINUOUS
 62
     5
 10
43.847759000000003
 20
-19.307085000000001
 30
0.0
 11
43.961570999999992
 21
-19.224544000000002
 31
0.0
  0
LINE
  5
151
  8
DETAIL
  6
CONTINUOUS
 62
     5
 10
43.961570999999992
 20
-19.224544000000002
 30
0.0
 11
44.0
 21
-19.138704000000001
 31
0.0
  0
LINE
  5
152
  8
DETAIL
  6
CONTINUOUS
 62
     5
 10
44.0
 20
-16.969877
 30
0.0
 11
44.0
 21
-19.138704000000001
 31
0.0
  0
LINE
  5
153
  8
DETAIL
  6
CONTINUOUS
 62
     5
 10
42.0
 20
-17.42677999999999
 30
0.0
 11
42.355696000000002
 21
-17.419764999999991
 31
0.0
  0
LINE
  5
154
  8
DETAIL
  6
CONTINUOUS
 62
     5
 10
42.355696000000002
 20
-17.419764999999991
 30
0.0
 11
42.700051000000002
 21
-17.398945000000001
 31
0.0
  0
LINE
  5
155
  8
DETAIL
  6
CONTINUOUS
 62
     5
 10
42.700051000000002
 20
-17.398945000000001
 30
0.0
 11
43.02208499999999
 21
-17.364984
 31
0.0
  0
LINE
  5
156
  8
DETAIL
  6
CONTINUOUS
 62
     5
 10
43.02208499999999
 20
-17.364984
 30
0.0
 11
43.311531000000002
 21
-17.318964000000001
 31
0.0
  0
LINE
  5
157
  8
DETAIL
  6
CONTINUOUS
 62
     5
 10
43.311531000000002
 20
-17.318964000000001
 30
0.0
 11
43.559159999999991
 21
-17.262353000000001
 31
0.0
  0
LINE
  5
158
  8
DETAIL
  6
CONTINUOUS
 62
     5
 10
43.559159999999991
 20
-17.262353000000001
 30
0.0
 11
43.757077000000002
 21
-17.196954999999999
 31
0.0
  0
LINE
  5
159
  8
DETAIL
  6
CONTINUOUS
 62
     5
 10
43.757077000000002
 20
-17.196954999999999
 30
0.0
 11
43.898972000000001
 21
-17.124856000000001
 31
0.0
  0
LINE
  5
15A
  8
DETAIL
  6
CONTINUOUS
 62
     5
 10
43.898972000000001
 20
-17.124856000000001
 30
0.0
 11
43.980319000000001
 21
-17.04835499999999
 31
0.0
  0
LINE
  5
15B
  8
DETAIL
  6
CONTINUOUS
 62
     5
 10
43.980319000000001
 20
-17.04835499999999
 30
0.0
 11
43.998525999999998
 21
-16.969889999999999
 31
0.0
  0
LINE
  5
15C
  8
DETAIL
  6
CONTINUOUS
 62
     5
 10
15.0
 20
-19.786646999999999
 30
0.0
 11
42.0
 21
-19.578703999999998
 31
0.0
  0
LINE
  5
15D
  8
DETAIL
  6
CONTINUOUS
 62
     5
 10
15.0
 20
-17.218837000000001
 30
0.0
 11
44.0
 21
-16.969877
 31
0.0
  0
LINE
  5
15E
  8
DETAIL
  6
CONTINUOUS
 62
     5
 10
15.0
 20
-17.634723000000001
 30
0.0
 11
42.0
 21
-17.42677999999999
 31
0.0
  0
LINE
  5
15F
  8
DETAIL
  6
CONTINUOUS
 62
     5
 10
44.0
 20
0.0
 30
0.0
 11
44.0
 21
-1.1000000000000001
 31
0.0
  0
LINE
  5
160
  8
DETAIL
  6
CONTINUOUS
 62
     5
 10
15.0
 20
-1.1000000000000001
 30
0.0
 11
44.0
 21
-1.1000000000000001
 31
0.0
  0
LINE
  5
161
  8
DETAIL
  6
CONTINUOUS
 62
     5
 10
42.0
 20
-66.785696999999999
 30
0.0
 11
42.0
 21
-74.688927000000007
 31
0.0
  0
LINE
  5
162
  8
DETAIL
  6
DASHED
 62
     5
 10
6.0
 20
-88.0
 30
0.0
 11
15.0
 21
-88.0
 31
0.0
  0
LINE
  5
163
  8
DETAIL
  6
CONTINUOUS
 62
     5
 10
42.065860999999991
 20
-88.954950999999994
 30
0.0
 11
15.421713
 21
-89.885384999999999
 31
0.0
  0
ARC
  5
164
  8
DETAIL
  6
CONTINUOUS
 62
     5
 10
41.996062000000002
 20
-86.95617
 30
0.0
 40
2.0
 50
272.0
 51
2.0
  0
LINE
  5
165
  8
DETAIL
  6
CONTINUOUS
 62
     5
 10
75.634047999999993
 20
-85.78150500000001
 30
0.0
 11
43.994844000000001
 21
-86.886370999999997
 31
0.0
  0
ARC
  5
166
  8
DETAIL
  6
CONTINUOUS
 62
     5
 10
93.0
 20
5.5
 30
0.0
 40
2.0
 50
90.0
 51
180.0
  0
LINE
  5
167
  8
DETAIL
  6
CONTINUOUS
 62
     5
 10
42.0
 20
-69.945669999999993
 30
0.0
 11
42.0
 21
-66.785696999999999
 31
0.0
  0
LINE
  5
168
  8
DETAIL
  6
CONTINUOUS
 62
     5
 10
6.0
 20
88.0
 30
0.0
 11
6.0
 21
-11.12205
 31
0.0
  0
LINE
  5
169
  8
DETAIL
  6
DASHED
 62
     5
 10
6.0
 20
-89.799777000000006
 30
0.0
 11
15.0
 21
-89.799777000000006
 31
0.0
  0
ARC
  5
16A
  8
DETAIL
  6
DASHED
 62
     5
 10
7.0
 20
-97.422650000000004
 30
0.0
 40
1.0
 50
180.0
 51
240.0
  0
LINE
  5
16B
  8
DETAIL
  6
CONTINUOUS
 62
     5
 10
15.0
 20
17.218837000000001
 30
0.0
 11
44.0
 21
16.969877
 31
0.0
  0
LINE
  5
16C
  8
DETAIL
  6
CONTINUOUS
 62
     5
 10
42.0
 20
17.42677999999999
 30
0.0
 11
42.355696000000002
 21
17.419764999999991
 31
0.0
  0
LINE
  5
16D
  8
DETAIL
  6
CONTINUOUS
 62
     5
 10
42.355696000000002
 20
17.419764999999991
 30
0.0
 11
42.700051000000002
 21
17.398945000000001
 31
0.0
  0
LINE
  5
16E
  8
DETAIL
  6
CONTINUOUS
 62
     5
 10
42.700051000000002
 20
17.398945000000001
 30
0.0
 11
43.02208499999999
 21
17.364984
 31
0.0
  0
LINE
  5
16F
  8
DETAIL
  6
CONTINUOUS
 62
     5
 10
43.02208499999999
 20
17.364984
 30
0.0
 11
43.311531000000002
 21
17.318964000000001
 31
0.0
  0
LINE
  5
170
  8
DETAIL
  6
CONTINUOUS
 62
     5
 10
43.311531000000002
 20
17.318964000000001
 30
0.0
 11
43.559159999999991
 21
17.262353000000001
 31
0.0
  0
LINE
  5
171
  8
DETAIL
  6
CONTINUOUS
 62
     5
 10
43.559159999999991
 20
17.262353000000001
 30
0.0
 11
43.757077000000002
 21
17.196954999999999
 31
0.0
  0
LINE
  5
172
  8
DETAIL
  6
CONTINUOUS
 62
     5
 10
43.757077000000002
 20
17.196954999999999
 30
0.0
 11
43.898972000000001
 21
17.124856000000001
 31
0.0
  0
LINE
  5
173
  8
DETAIL
  6
CONTINUOUS
 62
     5
 10
43.898972000000001
 20
17.124856000000001
 30
0.0
 11
43.980319000000001
 21
17.04835499999999
 31
0.0
  0
LINE
  5
174
  8
DETAIL
  6
CONTINUOUS
 62
     5
 10
43.980319000000001
 20
17.04835499999999
 30
0.0
 11
43.998525999999998
 21
16.969889999999999
 31
0.0
  0
LINE
  5
175
  8
DETAIL
  6
CONTINUOUS
 62
     5
 10
42.0
 20
19.578703999999998
 30
0.0
 11
42.390180999999998
 21
19.570250000000001
 31
0.0
  0
LINE
  5
176
  8
DETAIL
  6
CONTINUOUS
 62
     5
 10
42.390180999999998
 20
19.570250000000001
 30
0.0
 11
42.765366999999998
 21
19.545210999999998
 31
0.0
  0
LINE
  5
177
  8
DETAIL
  6
CONTINUOUS
 62
     5
 10
42.765366999999998
 20
19.545210999999998
 30
0.0
 11
43.111139999999992
 21
19.504550999999999
 31
0.0
  0
LINE
  5
178
  8
DETAIL
  6
CONTINUOUS
 62
     5
 10
43.111139999999992
 20
19.504550999999999
 30
0.0
 11
43.414214000000001
 21
19.449831
 31
0.0
  0
LINE
  5
179
  8
DETAIL
  6
CONTINUOUS
 62
     5
 10
43.414214000000001
 20
19.449831
 30
0.0
 11
43.662939000000001
 21
19.383154999999999
 31
0.0
  0
LINE
  5
17A
  8
DETAIL
  6
CONTINUOUS
 62
     5
 10
43.662939000000001
 20
19.383154999999999
 30
0.0
 11
43.847759000000003
 21
19.307085000000001
 31
0.0
  0
LINE
  5
17B
  8
DETAIL
  6
CONTINUOUS
 62
     5
 10
43.847759000000003
 20
19.307085000000001
 30
0.0
 11
43.961570999999992
 21
19.224544000000002
 31
0.0
  0
LINE
  5
17C
  8
DETAIL
  6
CONTINUOUS
 62
     5
 10
43.961570999999992
 20
19.224544000000002
 30
0.0
 11
44.0
 21
19.138704000000001
 31
0.0
  0
LINE
  5
17D
  8
DETAIL
  6
CONTINUOUS
 62
     5
 10
15.0
 20
17.634723000000001
 30
0.0
 11
42.0
 21
17.42677999999999
 31
0.0
  0
LINE
  5
17E
  8
DETAIL
  6
CONTINUOUS
 62
     5
 10
15.0
 20
19.786646999999999
 30
0.0
 11
42.0
 21
19.578703999999998
 31
0.0
  0
LINE
  5
17F
  8
DETAIL
  6
CONTINUOUS
 62
     5
 10
44.0
 20
16.969877
 30
0.0
 11
44.0
 21
19.138704000000001
 31
0.0
  0
LINE
  5
180
  8
DETAIL
  6
CONTINUOUS
 62
     5
 10
15.0
 20
34.78519
 30
0.0
 11
43.998346000000012
 21
34.298180000000002
 31
0.0
  0
LINE
  5
181
  8
DETAIL
  6
CONTINUOUS
 62
     5
 10
42.0
 20
35.145273000000003
 30
0.0
 11
42.390180999999998
 21
35.129632999999998
 31
0.0
  0
LINE
  5
182
  8
DETAIL
  6
CONTINUOUS
 62
     5
 10
42.390180999999998
 20
35.129632999999998
 30
0.0
 11
42.765366999999998
 21
35.083311000000002
 31
0.0
  0
LINE
  5
183
  8
DETAIL
  6
CONTINUOUS
 62
     5
 10
42.765366999999998
 20
35.083311000000002
 30
0.0
 11
43.111139999999992
 21
35.008090000000003
 31
0.0
  0
LINE
  5
184
  8
DETAIL
  6
CONTINUOUS
 62
     5
 10
43.111139999999992
 20
35.008090000000003
 30
0.0
 11
43.414214000000001
 21
34.906858
 31
0.0
  0
LINE
  5
185
  8
DETAIL
  6
CONTINUOUS
 62
     5
 10
43.414214000000001
 20
34.906858
 30
0.0
 11
43.662939000000001
 21
34.783508000000012
 31
0.0
  0
LINE
  5
186
  8
DETAIL
  6
CONTINUOUS
 62
     5
 10
43.662939000000001
 20
34.783508000000012
 30
0.0
 11
43.847759000000003
 21
34.642778
 31
0.0
  0
LINE
  5
187
  8
DETAIL
  6
CONTINUOUS
 62
     5
 10
43.847759000000003
 20
34.642778
 30
0.0
 11
43.961570999999992
 21
34.490076999999999
 31
0.0
  0
LINE
  5
188
  8
DETAIL
  6
CONTINUOUS
 62
     5
 10
43.961570999999992
 20
34.490076999999999
 30
0.0
 11
44.0
 21
34.331273000000003
 31
0.0
  0
LINE
  5
189
  8
DETAIL
  6
CONTINUOUS
 62
     5
 10
42.0
 20
37.155073000000002
 30
0.0
 11
42.390180999999998
 21
37.139432999999997
 31
0.0
  0
LINE
  5
18A
  8
DETAIL
  6
CONTINUOUS
 62
     5
 10
42.390180999999998
 20
37.139432999999997
 30
0.0
 11
42.765366999999998
 21
37.093111
 31
0.0
  0
LINE
  5
18B
  8
DETAIL
  6
CONTINUOUS
 62
     5
 10
42.765366999999998
 20
37.093111
 30
0.0
 11
43.111139999999992
 21
37.017890000000001
 31
0.0
  0
LINE
  5
18C
  8
DETAIL
  6
CONTINUOUS
 62
     5
 10
43.111139999999992
 20
37.017890000000001
 30
0.0
 11
43.414214000000001
 21
36.916657999999998
 31
0.0
  0
LINE
  5
18D
  8
DETAIL
  6
CONTINUOUS
 62
     5
 10
43.414214000000001
 20
36.916657999999998
 30
0.0
 11
43.662939000000001
 21
36.79330800000001
 31
0.0
  0
LINE
  5
18E
  8
DETAIL
  6
CONTINUOUS
 62
     5
 10
43.662939000000001
 20
36.79330800000001
 30
0.0
 11
43.847759000000003
 21
36.652578000000013
 31
0.0
  0
LINE
  5
18F
  8
DETAIL
  6
CONTINUOUS
 62
     5
 10
43.847759000000003
 20
36.652578000000013
 30
0.0
 11
43.961570999999992
 21
36.499876999999998
 31
0.0
  0
LINE
  5
190
  8
DETAIL
  6
CONTINUOUS
 62
     5
 10
43.961570999999992
 20
36.499876999999998
 30
0.0
 11
44.0
 21
36.341073000000002
 31
0.0
  0
LINE
  5
191
  8
DETAIL
  6
CONTINUOUS
 62
     5
 10
15.0
 20
50.831232
 30
0.0
 11
44.0
 21
50.127400999999999
 31
0.0
  0
LINE
  5
192
  8
DETAIL
  6
CONTINUOUS
 62
     5
 10
42.0
 20
51.351596999999991
 30
0.0
 11
42.390180999999998
 21
51.329000999999998
 31
0.0
  0
LINE
  5
193
  8
DETAIL
  6
CONTINUOUS
 62
     5
 10
42.390180999999998
 20
51.329000999999998
 30
0.0
 11
42.765366999999998
 21
51.262079
 31
0.0
  0
LINE
  5
194
  8
DETAIL
  6
CONTINUOUS
 62
     5
 10
42.765366999999998
 20
51.262079
 30
0.0
 11
43.111139999999992
 21
51.153404999999999
 31
0.0
  0
LINE
  5
195
  8
DETAIL
  6
CONTINUOUS
 62
     5
 10
43.111139999999992
 20
51.153404999999999
 30
0.0
 11
43.414214000000001
 21
51.00715499999999
 31
0.0
  0
LINE
  5
196
  8
DETAIL
  6
CONTINUOUS
 62
     5
 10
43.414214000000001
 20
51.00715499999999
 30
0.0
 11
43.662939000000001
 21
50.828947999999997
 31
0.0
  0
LINE
  5
197
  8
DETAIL
  6
CONTINUOUS
 62
     5
 10
43.662939000000001
 20
50.828947999999997
 30
0.0
 11
43.847759000000003
 21
50.625633000000001
 31
0.0
  0
LINE
  5
198
  8
DETAIL
  6
CONTINUOUS
 62
     5
 10
43.847759000000003
 20
50.625633000000001
 30
0.0
 11
43.961570999999992
 21
50.405022999999993
 31
0.0
  0
LINE
  5
199
  8
DETAIL
  6
CONTINUOUS
 62
     5
 10
43.961570999999992
 20
50.405022999999993
 30
0.0
 11
44.0
 21
50.175596999999989
 31
0.0
  0
LINE
  5
19A
  8
DETAIL
  6
CONTINUOUS
 62
     5
 10
42.0
 20
53.131433999999999
 30
0.0
 11
42.347296
 21
53.113568000000008
 31
0.0
  0
LINE
  5
19B
  8
DETAIL
  6
CONTINUOUS
 62
     5
 10
42.347296
 20
53.113568000000008
 30
0.0
 11
42.684040000000003
 21
53.060513
 31
0.0
  0
LINE
  5
19C
  8
DETAIL
  6
CONTINUOUS
 62
     5
 10
42.684040000000003
 20
53.060513
 30
0.0
 11
43.0
 21
52.973880000000001
 31
0.0
  0
LINE
  5
19D
  8
DETAIL
  6
CONTINUOUS
 62
     5
 10
43.0
 20
52.973880000000001
 30
0.0
 11
43.285575000000001
 21
52.856303000000011
 31
0.0
  0
LINE
  5
19E
  8
DETAIL
  6
CONTINUOUS
 62
     5
 10
43.285575000000001
 20
52.856303000000011
 30
0.0
 11
43.532088999999999
 21
52.711353000000003
 31
0.0
  0
LINE
  5
19F
  8
DETAIL
  6
CONTINUOUS
 62
     5
 10
43.532088999999999
 20
52.711353000000003
 30
0.0
 11
43.732050999999991
 21
52.543433999999991
 31
0.0
  0
LINE
  5
1A0
  8
DETAIL
  6
CONTINUOUS
 62
     5
 10
43.732050999999991
 20
52.543433999999991
 30
0.0
 11
43.879384999999992
 21
52.35765
 31
0.0
  0
LINE
  5
1A1
  8
DETAIL
  6
CONTINUOUS
 62
     5
 10
43.879384999999992
 20
52.35765
 30
0.0
 11
43.969616000000002
 21
52.159645000000012
 31
0.0
  0
LINE
  5
1A2
  8
DETAIL
  6
CONTINUOUS
 62
     5
 10
43.969616000000002
 20
52.159645000000012
 30
0.0
 11
44.0
 21
51.955433999999997
 31
0.0
  0
LINE
  5
1A3
  8
DETAIL
  6
CONTINUOUS
 62
     5
 10
42.0
 20
35.145273000000003
 30
0.0
 11
15.0
 21
35.598723
 31
0.0
  0
LINE
  5
1A4
  8
DETAIL
  6
CONTINUOUS
 62
     5
 10
42.0
 20
37.155073000000002
 30
0.0
 11
15.0
 21
37.608522999999998
 31
0.0
  0
LINE
  5
1A5
  8
DETAIL
  6
CONTINUOUS
 62
     5
 10
15.0
 20
52.006889000000001
 30
0.0
 11
42.0
 21
51.351596999999991
 31
0.0
  0
LINE
  5
1A6
  8
DETAIL
  6
CONTINUOUS
 62
     5
 10
15.0
 20
53.786726000000002
 30
0.0
 11
42.0
 21
53.131433999999999
 31
0.0
  0
LINE
  5
1A7
  8
DETAIL
  6
CONTINUOUS
 62
     5
 10
44.0
 20
34.331273000000003
 30
0.0
 11
44.0
 21
36.341073000000002
 31
0.0
  0
LINE
  5
1A8
  8
DETAIL
  6
CONTINUOUS
 62
     5
 10
44.0
 20
50.175596999999989
 30
0.0
 11
44.0
 21
51.955433999999997
 31
0.0
  0
LINE
  5
1A9
  8
DETAIL
  6
CONTINUOUS
 62
     5
 10
15.0
 20
64.655705000000012
 30
0.0
 11
44.0
 21
63.765841000000002
 31
0.0
  0
LINE
  5
1AA
  8
DETAIL
  6
CONTINUOUS
 62
     5
 10
42.0
 20
65.313609999999997
 30
0.0
 11
42.356383999999998
 21
65.289827000000002
 31
0.0
  0
LINE
  5
1AB
  8
DETAIL
  6
CONTINUOUS
 62
     5
 10
42.356383999999998
 20
65.289827000000002
 30
0.0
 11
42.701360999999999
 21
65.219240999999997
 31
0.0
  0
LINE
  5
1AC
  8
DETAIL
  6
CONTINUOUS
 62
     5
 10
42.701360999999999
 20
65.219240999999997
 30
0.0
 11
43.023887999999999
 21
65.104111000000003
 31
0.0
  0
LINE
  5
1AD
  8
DETAIL
  6
CONTINUOUS
 62
     5
 10
43.023887999999999
 20
65.104111000000003
 30
0.0
 11
43.313642000000002
 21
64.948122999999995
 31
0.0
  0
LINE
  5
1AE
  8
DETAIL
  6
CONTINUOUS
 62
     5
 10
43.313642000000002
 20
64.948122999999995
 30
0.0
 11
43.561348999999993
 21
64.756268000000006
 31
0.0
  0
LINE
  5
1AF
  8
DETAIL
  6
CONTINUOUS
 62
     5
 10
43.561348999999993
 20
64.756268000000006
 30
0.0
 11
43.759078000000002
 21
64.534688000000003
 31
0.0
  0
LINE
  5
1B0
  8
DETAIL
  6
CONTINUOUS
 62
     5
 10
43.759078000000002
 20
64.534688000000003
 30
0.0
 11
43.900503
 21
64.290475000000001
 31
0.0
  0
LINE
  5
1B1
  8
DETAIL
  6
CONTINUOUS
 62
     5
 10
43.900503
 20
64.290475000000001
 30
0.0
 11
43.981095000000003
 21
64.031447
 31
0.0
  0
LINE
  5
1B2
  8
DETAIL
  6
CONTINUOUS
 62
     5
 10
43.981095000000003
 20
64.031447
 30
0.0
 11
43.998274000000002
 21
63.765894000000003
 31
0.0
  0
LINE
  5
1B3
  8
DETAIL
  6
CONTINUOUS
 62
     5
 10
42.0
 20
66.785696999999999
 30
0.0
 11
42.347296
 21
66.763120999999998
 31
0.0
  0
LINE
  5
1B4
  8
DETAIL
  6
CONTINUOUS
 62
     5
 10
42.347296
 20
66.763120999999998
 30
0.0
 11
42.684040000000003
 21
66.696080000000009
 31
0.0
  0
LINE
  5
1B5
  8
DETAIL
  6
CONTINUOUS
 62
     5
 10
42.684040000000003
 20
66.696080000000009
 30
0.0
 11
43.0
 21
66.586611000000005
 31
0.0
  0
LINE
  5
1B6
  8
DETAIL
  6
CONTINUOUS
 62
     5
 10
43.0
 20
66.586611000000005
 30
0.0
 11
43.285575000000001
 21
66.438039000000003
 31
0.0
  0
LINE
  5
1B7
  8
DETAIL
  6
CONTINUOUS
 62
     5
 10
43.285575000000001
 20
66.438039000000003
 30
0.0
 11
43.532088999999999
 21
66.254879000000003
 31
0.0
  0
LINE
  5
1B8
  8
DETAIL
  6
CONTINUOUS
 62
     5
 10
43.532088999999999
 20
66.254879000000003
 30
0.0
 11
43.732050999999991
 21
66.042697000000004
 31
0.0
  0
LINE
  5
1B9
  8
DETAIL
  6
CONTINUOUS
 62
     5
 10
43.732050999999991
 20
66.042697000000004
 30
0.0
 11
43.879384999999992
 21
65.807938000000007
 31
0.0
  0
LINE
  5
1BA
  8
DETAIL
  6
CONTINUOUS
 62
     5
 10
43.879384999999992
 20
65.807938000000007
 30
0.0
 11
43.969616000000002
 21
65.557738000000001
 31
0.0
  0
LINE
  5
1BB
  8
DETAIL
  6
CONTINUOUS
 62
     5
 10
43.969616000000002
 20
65.557738000000001
 30
0.0
 11
44.0
 21
65.299695999999997
 31
0.0
  0
LINE
  5
1BC
  8
DETAIL
  6
CONTINUOUS
 62
     5
 10
43.998289
 20
74.617469999999983
 30
0.0
 11
42.0
 21
74.688927000000007
 31
0.0
  0
LINE
  5
1BD
  8
DETAIL
  6
CONTINUOUS
 62
     5
 10
42.0
 20
69.945669999999993
 30
0.0
 11
42.0
 21
66.785696999999999
 31
0.0
  0
LINE
  5
1BE
  8
DETAIL
  6
CONTINUOUS
 62
     5
 10
42.0
 20
66.785696999999999
 30
0.0
 11
42.0
 21
74.688927000000007
 31
0.0
  0
LINE
  5
1BF
  8
DETAIL
  6
CONTINUOUS
 62
     5
 10
42.0
 20
65.313609999999997
 30
0.0
 11
15.0
 21
66.142103000000006
 31
0.0
  0
LINE
  5
1C0
  8
DETAIL
  6
CONTINUOUS
 62
     5
 10
42.0
 20
66.785696999999999
 30
0.0
 11
15.0
 21
67.614191000000005
 31
0.0
  0
LINE
  5
1C1
  8
DETAIL
  6
CONTINUOUS
 62
     5
 10
15.0
 20
73.922092000000006
 30
0.0
 11
42.0
 21
72.95660500000001
 31
0.0
  0
LINE
  5
1C2
  8
DETAIL
  6
CONTINUOUS
 62
     5
 10
44.0
 20
63.765841000000002
 30
0.0
 11
44.0
 21
65.299696999999995
 31
0.0
  0
LINE
  5
1C3
  8
DETAIL
  6
CONTINUOUS
 62
     5
 10
44.0
 20
74.689104
 30
0.0
 11
44.0
 21
75.789104000000009
 31
0.0
  0
ARC
  5
1C4
  8
DETAIL
  6
CONTINUOUS
 62
     5
 10
41.996062000000002
 20
86.95617
 30
0.0
 40
2.0
 50
358.0
 51
88.0
  0
LINE
  5
1C5
  8
DETAIL
  6
CONTINUOUS
 62
     5
 10
43.998289
 20
74.617469999999983
 30
0.0
 11
42.0
 21
74.688927000000007
 31
0.0
  0
LINE
  5
1C6
  8
DETAIL
  6
CONTINUOUS
 62
     5
 10
42.0
 20
76.421103999999985
 30
0.0
 11
42.390180999999998
 21
76.387823999999995
 31
0.0
  0
LINE
  5
1C7
  8
DETAIL
  6
CONTINUOUS
 62
     5
 10
42.390180999999998
 20
76.387823999999995
 30
0.0
 11
42.765366999999998
 21
76.289263000000005
 31
0.0
  0
LINE
  5
1C8
  8
DETAIL
  6
CONTINUOUS
 62
     5
 10
42.765366999999998
 20
76.289263000000005
 30
0.0
 11
43.111139999999992
 21
76.129209000000003
 31
0.0
  0
LINE
  5
1C9
  8
DETAIL
  6
CONTINUOUS
 62
     5
 10
43.111139999999992
 20
76.129209000000003
 30
0.0
 11
43.414214000000001
 21
75.913813000000005
 31
0.0
  0
LINE
  5
1CA
  8
DETAIL
  6
CONTINUOUS
 62
     5
 10
43.414214000000001
 20
75.913813000000005
 30
0.0
 11
43.662939000000001
 21
75.651352000000003
 31
0.0
  0
LINE
  5
1CB
  8
DETAIL
  6
CONTINUOUS
 62
     5
 10
43.662939000000001
 20
75.651352000000003
 30
0.0
 11
43.847759000000003
 21
75.351911999999984
 31
0.0
  0
LINE
  5
1CC
  8
DETAIL
  6
CONTINUOUS
 62
     5
 10
43.847759000000003
 20
75.351911999999984
 30
0.0
 11
43.961570999999992
 21
75.027000000000001
 31
0.0
  0
LINE
  5
1CD
  8
DETAIL
  6
CONTINUOUS
 62
     5
 10
43.961570999999992
 20
75.027000000000001
 30
0.0
 11
44.0
 21
74.689104
 31
0.0
  0
LINE
  5
1CE
  8
DETAIL
  6
CONTINUOUS
 62
     5
 10
42.0
 20
77.521104000000008
 30
0.0
 11
42.390180999999998
 21
77.487824000000003
 31
0.0
  0
LINE
  5
1CF
  8
DETAIL
  6
CONTINUOUS
 62
     5
 10
42.390180999999998
 20
77.487824000000003
 30
0.0
 11
42.765366999999998
 21
77.389263
 31
0.0
  0
LINE
  5
1D0
  8
DETAIL
  6
CONTINUOUS
 62
     5
 10
42.765366999999998
 20
77.389263
 30
0.0
 11
43.111139999999992
 21
77.229208999999997
 31
0.0
  0
LINE
  5
1D1
  8
DETAIL
  6
CONTINUOUS
 62
     5
 10
43.111139999999992
 20
77.229208999999997
 30
0.0
 11
43.414214000000001
 21
77.013812999999999
 31
0.0
  0
LINE
  5
1D2
  8
DETAIL
  6
CONTINUOUS
 62
     5
 10
43.414214000000001
 20
77.013812999999999
 30
0.0
 11
43.662939000000001
 21
76.751351999999983
 31
0.0
  0
LINE
  5
1D3
  8
DETAIL
  6
CONTINUOUS
 62
     5
 10
43.662939000000001
 20
76.751351999999983
 30
0.0
 11
43.847759000000003
 21
76.451911999999993
 31
0.0
  0
LINE
  5
1D4
  8
DETAIL
  6
CONTINUOUS
 62
     5
 10
43.847759000000003
 20
76.451911999999993
 30
0.0
 11
43.961570999999992
 21
76.126999999999995
 31
0.0
  0
LINE
  5
1D5
  8
DETAIL
  6
CONTINUOUS
 62
     5
 10
43.961570999999992
 20
76.126999999999995
 30
0.0
 11
44.0
 21
75.789104000000009
 31
0.0
  0
LINE
  5
1D6
  8
DETAIL
  6
CONTINUOUS
 62
     5
 10
42.0
 20
82.286377000000002
 30
0.0
 11
44.0
 21
82.207837999999995
 31
0.0
  0
LINE
  5
1D7
  8
DETAIL
  6
CONTINUOUS
 62
     5
 10
42.0
 20
84.188629000000006
 30
0.0
 11
42.390180999999998
 21
84.15208299999999
 31
0.0
  0
LINE
  5
1D8
  8
DETAIL
  6
CONTINUOUS
 62
     5
 10
42.390180999999998
 20
84.15208299999999
 30
0.0
 11
42.765366999999998
 21
84.043847999999997
 31
0.0
  0
LINE
  5
1D9
  8
DETAIL
  6
CONTINUOUS
 62
     5
 10
42.765366999999998
 20
84.043847999999997
 30
0.0
 11
43.111139999999992
 21
83.868084999999994
 31
0.0
  0
LINE
  5
1DA
  8
DETAIL
  6
CONTINUOUS
 62
     5
 10
43.111139999999992
 20
83.868084999999994
 30
0.0
 11
43.414214000000001
 21
83.631546999999998
 31
0.0
  0
LINE
  5
1DB
  8
DETAIL
  6
CONTINUOUS
 62
     5
 10
43.414214000000001
 20
83.631546999999998
 30
0.0
 11
43.662939000000001
 21
83.343323999999996
 31
0.0
  0
LINE
  5
1DC
  8
DETAIL
  6
CONTINUOUS
 62
     5
 10
43.662939000000001
 20
83.343323999999996
 30
0.0
 11
43.847759000000003
 21
83.014492999999987
 31
0.0
  0
LINE
  5
1DD
  8
DETAIL
  6
CONTINUOUS
 62
     5
 10
43.847759000000003
 20
83.014492999999987
 30
0.0
 11
43.961570999999992
 21
82.657690999999986
 31
0.0
  0
LINE
  5
1DE
  8
DETAIL
  6
CONTINUOUS
 62
     5
 10
43.961570999999992
 20
82.657690999999986
 30
0.0
 11
44.0
 21
82.286629000000005
 31
0.0
  0
LINE
  5
1DF
  8
DETAIL
  6
CONTINUOUS
 62
     5
 10
42.0
 20
84.837389999999985
 30
0.0
 11
42.390180999999998
 21
84.800843999999998
 31
0.0
  0
LINE
  5
1E0
  8
DETAIL
  6
CONTINUOUS
 62
     5
 10
42.390180999999998
 20
84.800843999999998
 30
0.0
 11
42.765366999999998
 21
84.692609000000004
 31
0.0
  0
LINE
  5
1E1
  8
DETAIL
  6
CONTINUOUS
 62
     5
 10
42.765366999999998
 20
84.692609000000004
 30
0.0
 11
43.111139999999992
 21
84.516844999999975
 31
0.0
  0
LINE
  5
1E2
  8
DETAIL
  6
CONTINUOUS
 62
     5
 10
43.111139999999992
 20
84.516844999999975
 30
0.0
 11
43.414214000000001
 21
84.280306999999979
 31
0.0
  0
LINE
  5
1E3
  8
DETAIL
  6
CONTINUOUS
 62
     5
 10
43.414214000000001
 20
84.280306999999979
 30
0.0
 11
43.662939000000001
 21
83.992085000000003
 31
0.0
  0
LINE
  5
1E4
  8
DETAIL
  6
CONTINUOUS
 62
     5
 10
43.662939000000001
 20
83.992085000000003
 30
0.0
 11
43.847759000000003
 21
83.663253999999995
 31
0.0
  0
LINE
  5
1E5
  8
DETAIL
  6
CONTINUOUS
 62
     5
 10
43.847759000000003
 20
83.663253999999995
 30
0.0
 11
43.961570999999992
 21
83.306452000000007
 31
0.0
  0
LINE
  5
1E6
  8
DETAIL
  6
CONTINUOUS
 62
     5
 10
43.961570999999992
 20
83.306452000000007
 30
0.0
 11
44.0
 21
82.935389999999998
 31
0.0
  0
LINE
  5
1E7
  8
DETAIL
  6
CONTINUOUS
 62
     5
 10
42.0
 20
86.287518999999989
 30
0.0
 11
44.0
 21
86.205389999999994
 31
0.0
  0
LINE
  5
1E8
  8
DETAIL
  6
CONTINUOUS
 62
     5
 10
42.0
 20
88.276707999999985
 30
0.0
 11
42.356344999999997
 21
88.24488199999999
 31
0.0
  0
LINE
  5
1E9
  8
DETAIL
  6
CONTINUOUS
 62
     5
 10
42.356344999999997
 20
88.24488199999999
 30
0.0
 11
42.701285999999989
 21
88.150424999999998
 31
0.0
  0
LINE
  5
1EA
  8
DETAIL
  6
CONTINUOUS
 62
     5
 10
42.701285999999989
 20
88.150424999999998
 30
0.0
 11
43.02378499999999
 21
87.996356999999989
 31
0.0
  0
LINE
  5
1EB
  8
DETAIL
  6
CONTINUOUS
 62
     5
 10
43.02378499999999
 20
87.996356999999989
 30
0.0
 11
43.313521999999999
 21
87.787610999999998
 31
0.0
  0
LINE
  5
1EC
  8
DETAIL
  6
CONTINUOUS
 62
     5
 10
43.313521999999999
 20
87.787610999999998
 30
0.0
 11
43.561223999999989
 21
87.530865000000006
 31
0.0
  0
LINE
  5
1ED
  8
DETAIL
  6
CONTINUOUS
 62
     5
 10
43.561223999999989
 20
87.530865000000006
 30
0.0
 11
43.758963999999999
 21
87.234335999999985
 31
0.0
  0
LINE
  5
1EE
  8
DETAIL
  6
CONTINUOUS
 62
     5
 10
43.758963999999999
 20
87.234335999999985
 30
0.0
 11
43.900415000000002
 21
86.907514000000006
 31
0.0
  0
LINE
  5
1EF
  8
DETAIL
  6
CONTINUOUS
 62
     5
 10
43.900415000000002
 20
86.907514000000006
 30
0.0
 11
43.981051000000001
 21
86.560857999999996
 31
0.0
  0
LINE
  5
1F0
  8
DETAIL
  6
CONTINUOUS
 62
     5
 10
43.981051000000001
 20
86.560857999999996
 30
0.0
 11
43.998289
 21
86.205460000000002
 31
0.0
  0
LINE
  5
1F1
  8
DETAIL
  6
CONTINUOUS
 62
     5
 10
42.0
 20
88.506669999999986
 30
0.0
 11
42.347296
 21
88.476453000000006
 31
0.0
  0
LINE
  5
1F2
  8
DETAIL
  6
CONTINUOUS
 62
     5
 10
42.347296
 20
88.476453000000006
 30
0.0
 11
42.684040000000003
 21
88.386718999999985
 31
0.0
  0
LINE
  5
1F3
  8
DETAIL
  6
CONTINUOUS
 62
     5
 10
42.684040000000003
 20
88.386718999999985
 30
0.0
 11
43.0
 21
88.240195
 31
0.0
  0
LINE
  5
1F4
  8
DETAIL
  6
CONTINUOUS
 62
     5
 10
43.0
 20
88.240195
 30
0.0
 11
43.285575000000001
 21
88.041332999999995
 31
0.0
  0
LINE
  5
1F5
  8
DETAIL
  6
CONTINUOUS
 62
     5
 10
43.285575000000001
 20
88.041332999999995
 30
0.0
 11
43.532088999999999
 21
87.796175000000005
 31
0.0
  0
LINE
  5
1F6
  8
DETAIL
  6
CONTINUOUS
 62
     5
 10
43.532088999999999
 20
87.796175000000005
 30
0.0
 11
43.732050999999991
 21
87.512169999999998
 31
0.0
  0
LINE
  5
1F7
  8
DETAIL
  6
CONTINUOUS
 62
     5
 10
43.732050999999991
 20
87.512169999999998
 30
0.0
 11
43.879384999999992
 21
87.197947999999997
 31
0.0
  0
LINE
  5
1F8
  8
DETAIL
  6
CONTINUOUS
 62
     5
 10
43.879384999999992
 20
87.197947999999997
 30
0.0
 11
43.969616000000002
 21
86.863056
 31
0.0
  0
LINE
  5
1F9
  8
DETAIL
  6
CONTINUOUS
 62
     5
 10
43.969616000000002
 20
86.863056
 30
0.0
 11
44.0
 21
86.517669999999995
 31
0.0
  0
LINE
  5
1FA
  8
DETAIL
  6
CONTINUOUS
 62
     5
 10
42.065860999999991
 20
88.954950999999994
 30
0.0
 11
15.0
 21
89.900111999999993
 31
0.0
  0
LINE
  5
1FB
  8
DETAIL
  6
CONTINUOUS
 62
     5
 10
15.0
 20
77.38659100000001
 30
0.0
 11
42.0
 21
76.421103999999985
 31
0.0
  0
LINE
  5
1FC
  8
DETAIL
  6
CONTINUOUS
 62
     5
 10
15.0
 20
78.486591000000004
 30
0.0
 11
42.0
 21
77.521104000000008
 31
0.0
  0
LINE
  5
1FD
  8
DETAIL
  6
CONTINUOUS
 62
     5
 10
42.0
 20
77.521104000000008
 30
0.0
 11
42.0
 21
82.286377000000002
 31
0.0
  0
LINE
  5
1FE
  8
DETAIL
  6
CONTINUOUS
 62
     5
 10
15.0
 20
73.922092000000006
 30
0.0
 11
42.0
 21
72.95660500000001
 31
0.0
  0
LINE
  5
1FF
  8
DETAIL
  6
CONTINUOUS
 62
     5
 10
15.0
 20
85.248913000000002
 30
0.0
 11
42.0
 21
84.188629000000006
 31
0.0
  0
LINE
  5
200
  8
DETAIL
  6
CONTINUOUS
 62
     5
 10
15.0
 20
85.897673999999995
 30
0.0
 11
42.0
 21
84.837389999999985
 31
0.0
  0
LINE
  5
201
  8
DETAIL
  6
CONTINUOUS
 62
     5
 10
15.0
 20
81.444250999999994
 30
0.0
 11
42.0
 21
80.383966999999984
 31
0.0
  0
LINE
  5
202
  8
DETAIL
  6
CONTINUOUS
 62
     5
 10
42.0
 20
88.276707999999985
 30
0.0
 11
15.0
 21
89.385448999999994
 31
0.0
  0
LINE
  5
203
  8
DETAIL
  6
CONTINUOUS
 62
     5
 10
42.0
 20
88.506669999999986
 30
0.0
 11
15.0
 21
89.615412000000006
 31
0.0
  0
LINE
  5
204
  8
DETAIL
  6
CONTINUOUS
 62
     5
 10
42.0
 20
86.287518999999989
 30
0.0
 11
42.0
 21
84.837389999999985
 31
0.0
  0
LINE
  5
205
  8
DETAIL
  6
DASHED
 62
     5
 10
42.0
 20
84.954812999999987
 30
0.0
 11
42.0
 21
81.952984000000001
 31
0.0
  0
LINE
  5
206
  8
DETAIL
  6
CONTINUOUS
 62
     5
 10
44.0
 20
74.689104
 30
0.0
 11
44.0
 21
75.789104000000009
 31
0.0
  0
LINE
  5
207
  8
DETAIL
  6
CONTINUOUS
 62
     5
 10
44.0
 20
82.935389999999998
 30
0.0
 11
44.0
 21
82.207837999999995
 31
0.0
  0
LINE
  5
208
  8
DETAIL
  6
CONTINUOUS
 62
     5
 10
44.0
 20
86.517669999999995
 30
0.0
 11
44.0
 21
86.205389999999994
 31
0.0
  0
LINE
  5
209
  8
DETAIL
  6
CONTINUOUS
 62
     5
 10
75.634047999999993
 20
85.78150500000001
 30
0.0
 11
43.994844000000001
 21
86.886370999999997
 31
0.0
  0
LINE
  5
20A
  8
DETAIL
  6
CONTINUOUS
 62
     5
 10
0.0
 20
88.0
 30
0.0
 11
15.0
 21
88.0
 31
0.0
  0
LINE
  5
20B
  8
DETAIL
  6
DASHED
 62
     5
 10
6.5
 20
-98.288675000000012
 30
0.0
 11
19.803847999999999
 21
-106.154701
 31
0.0
  0
CIRCLE
  5
20C
  8
FIX
  6
CONTINUOUS
 62
    11
 39
50.0
 10
0.0
 20
69.281999999999996
 30
0.0
 40
2.5
  0
CIRCLE
  5
20D
  8
FIX
  6
CONTINUOUS
 62
    11
 39
50.0
 10
0.0
 20
-40.0
 30
0.0
 40
2.5
  0
CIRCLE
  5
20E
  8
FIX
  6
CONTINUOUS
 62
    11
 39
50.0
 10
0.0
 20
55.154328999999997
 30
0.0
 40
4.25
  0
CIRCLE
  5
20F
  8
FIX
  6
CONTINUOUS
 62
    11
 39
50.0
 10
0.0
 20
-55.154328999999997
 30
0.0
 40
4.25
  0
CIRCLE
  5
210
  8
FIX
  6
CONTINUOUS
 62
    11
 39
50.0
 10
0.0
 20
39.999980999999998
 30
0.0
 40
2.5
  0
CIRCLE
  5
211
  8
FIX
  6
CONTINUOUS
 62
    11
 39
50.0
 10
0.0
 20
-69.282032000000001
 30
0.0
 40
2.5
  0
LINE
  5
212
  8
NOTE
  6
CONTINUOUS
 62
     4
 10
0.0
 20
49.281999999999996
 30
0.0
 11
0.0
 21
89.282000000000025
 31
0.0
  0
LINE
  5
213
  8
NOTE
  6
CONTINUOUS
 62
     4
 10
-20.0
 20
69.281999999999996
 30
0.0
 11
20.0
 21
69.281999999999996
 31
0.0
  0
LINE
  5
214
  8
NOTE
  6
CONTINUOUS
 62
     4
 10
0.0
 20
35.154328999999997
 30
0.0
 11
0.0
 21
75.154329000000004
 31
0.0
  0
LINE
  5
215
  8
NOTE
  6
CONTINUOUS
 62
     4
 10
-20.0
 20
55.154328999999997
 30
0.0
 11
20.0
 21
55.154328999999997
 31
0.0
  0
LINE
  5
216
  8
NOTE
  6
CONTINUOUS
 62
     4
 10
0.0
 20
19.999980999999998
 30
0.0
 11
0.0
 21
59.999980999999998
 31
0.0
  0
LINE
  5
217
  8
NOTE
  6
CONTINUOUS
 62
     4
 10
-20.0
 20
39.999980999999998
 30
0.0
 11
20.0
 21
39.999980999999998
 31
0.0
  0
LINE
  5
218
  8
NOTE
  6
CONTINUOUS
 62
     4
 10
0.0
 20
-60.0
 30
0.0
 11
0.0
 21
-20.0
 31
0.0
  0
LINE
  5
219
  8
NOTE
  6
CONTINUOUS
 62
     4
 10
-20.0
 20
-40.0
 30
0.0
 11
20.0
 21
-40.0
 31
0.0
  0
LINE
  5
21A
  8
NOTE
  6
CONTINUOUS
 62
     4
 10
0.0
 20
-75.154329000000004
 30
0.0
 11
0.0
 21
-35.154328999999997
 31
0.0
  0
LINE
  5
21B
  8
NOTE
  6
CONTINUOUS
 62
     4
 10
-20.0
 20
-55.154328999999997
 30
0.0
 11
20.0
 21
-55.154328999999997
 31
0.0
  0
LINE
  5
21C
  8
NOTE
  6
CONTINUOUS
 62
     4
 10
0.0
 20
-89.282032000000001
 30
0.0
 11
0.0
 21
-49.282032000000001
 31
0.0
  0
LINE
  5
21D
  8
NOTE
  6
CONTINUOUS
 62
     4
 10
-20.0
 20
-69.282032000000001
 30
0.0
 11
20.0
 21
-69.282032000000001
 31
0.0
  0
LINE
  5
21E
  8
SIZE
  6
CONTINUOUS
 62
    30
 10
-20.0
 20
0.0
 30
0.0
 11
-121.12542000000001
 21
0.0
 31
0.0
  0
LINE
  5
21F
  8
SIZE
  6
CONTINUOUS
 62
    30
 10
-1.0
 20
-108.0
 30
0.0
 11
-121.12542000000001
 21
-108.0
 31
0.0
  0
LINE
  5
220
  8
SIZE
  6
CONTINUOUS
 62
    30
 10
-101.12542000000001
 20
12.0
 30
0.0
 11
-101.12542000000001
 21
24.0
 31
0.0
  0
LINE
  5
221
  8
SIZE
  6
CONTINUOUS
 62
    30
 10
-101.12542000000001
 20
-120.0
 30
0.0
 11
-101.12542000000001
 21
-132.0
 31
0.0
  0
LINE
  5
222
  8
SIZE
  6
CONTINUOUS
 62
    30
 10
-101.12542000000001
 20
0.0
 30
0.0
 11
-101.12542000000001
 21
-108.0
 31
0.0
  0
CIRCLE
  5
223
  8
SIZE
  6
CONTINUOUS
 62
    30
 10
-101.12542000000001
 20
0.0
 30
0.0
 40
6.0
  0
LINE
  5
224
  8
SIZE
  6
CONTINUOUS
 62
    30
 10
-101.12542000000001
 20
0.0
 30
0.0
 11
-101.12542000000001
 21
12.0
 31
0.0
  0
CIRCLE
  5
225
  8
SIZE
  6
CONTINUOUS
 62
    30
 10
-101.12542000000001
 20
-108.0
 30
0.0
 40
6.0
  0
LINE
  5
226
  8
SIZE
  6
CONTINUOUS
 62
    30
 10
-101.12542000000001
 20
-108.0
 30
0.0
 11
-101.12542000000001
 21
-120.0
 31
0.0
  0
TEXT
  5
227
  8
SIZE
  6
CONTINUOUS
 62
    30
 10
-126.12542000000001
 20
-122.5714285714285
 30
0.0
 40
64.0
  1
108
 50
90.0
 41
0.9
 72
     1
 11
-126.12542000000001
 21
-54.0
 31
0.0
  0
POINT
  5
228
  8
DEFPOINTS
  6
CONTINUOUS
 62
    30
 10
0.0
 20
0.0
 30
0.0
  0
POINT
  5
229
  8
DEFPOINTS
  6
CONTINUOUS
 62
    30
 10
19.0
 20
-108.0
 30
0.0
  0
POINT
  5
22A
  8
DEFPOINTS
  6
CONTINUOUS
 62
    30
 10
-101.12542000000001
 20
-108.0
 30
0.0
  0
LINE
  5
22B
  8
DETAIL
  6
CONTINUOUS
 62
     5
 10
0.0
 20
90.0
 30
0.0
 11
15.0
 21
90.0
 31
0.0
  0
LINE
  5
22C
  8
SIZE
  6
CONTINUOUS
 62
    30
 10
20.0
 20
90.0
 30
0.0
 11
287.31840899999997
 21
90.0
 31
0.0
  0
LINE
  5
22D
  8
SIZE
  6
CONTINUOUS
 62
    30
 10
26.0
 20
-90.0
 30
0.0
 11
287.31840899999997
 21
-90.0
 31
0.0
  0
LINE
  5
22E
  8
SIZE
  6
CONTINUOUS
 62
    30
 10
267.31840899999997
 20
102.0
 30
0.0
 11
267.31840899999997
 21
114.0
 31
0.0
  0
LINE
  5
22F
  8
SIZE
  6
CONTINUOUS
 62
    30
 10
267.31840899999997
 20
-102.0
 30
0.0
 11
267.31840899999997
 21
-114.0
 31
0.0
  0
LINE
  5
230
  8
SIZE
  6
CONTINUOUS
 62
    30
 10
267.31840899999997
 20
90.0
 30
0.0
 11
267.31840899999997
 21
-90.0
 31
0.0
  0
CIRCLE
  5
231
  8
SIZE
  6
CONTINUOUS
 62
    30
 10
267.31840899999997
 20
90.0
 30
0.0
 40
6.0
  0
LINE
  5
232
  8
SIZE
  6
CONTINUOUS
 62
    30
 10
267.31840899999997
 20
90.0
 30
0.0
 11
267.31840899999997
 21
102.0
 31
0.0
  0
CIRCLE
  5
233
  8
SIZE
  6
CONTINUOUS
 62
    30
 10
267.31840899999997
 20
-90.0
 30
0.0
 40
6.0
  0
LINE
  5
234
  8
SIZE
  6
CONTINUOUS
 62
    30
 10
267.31840899999997
 20
-90.0
 30
0.0
 11
267.31840899999997
 21
-102.0
 31
0.0
  0
TEXT
  5
235
  8
SIZE
  6
CONTINUOUS
 62
    30
 10
242.318409
 20
-108.89142857142851
 30
0.0
 40
64.0
  1
φ180
 50
90.0
 41
0.9
 72
     1
 11
242.318409
 21
0.0
 31
0.0
  0
POINT
  5
236
  8
DEFPOINTS
  6
CONTINUOUS
 62
    30
 10
0.0
 20
90.0
 30
0.0
  0
POINT
  5
237
  8
DEFPOINTS
  6
CONTINUOUS
 62
    30
 10
6.0
 20
-90.0
 30
0.0
  0
POINT
  5
238
  8
DEFPOINTS
  6
CONTINUOUS
 62
    30
 10
267.31840899999997
 20
-90.0
 30
0.0
  0
LINE
  5
239
  8
SIZE
  6
CONTINUOUS
 62
    30
 10
0.0
 20
-120.0
 30
0.0
 11
0.0
 21
-564.52483700000005
 31
0.0
  0
LINE
  5
23A
  8
SIZE
  6
CONTINUOUS
 62
    30
 10
109.0
 20
-20.0
 30
0.0
 11
109.0
 21
-564.52483700000005
 31
0.0
  0
LINE
  5
23B
  8
SIZE
  6
CONTINUOUS
 62
    30
 10
12.0
 20
-544.52483700000005
 30
0.0
 11
97.0
 21
-544.52483700000005
 31
0.0
  0
LINE
  5
23C
  8
SIZE
  6
CONTINUOUS
 62
    30
 10
312.06444299999998
 20
-544.52483700000005
 30
0.0
 11
109.0
 21
-544.52483700000005
 31
0.0
  0
TEXT
  5
23D
  8
SIZE
  6
CONTINUOUS
 62
    30
 10
152.66444300000001
 20
-519.52483700000005
 30
0.0
 40
64.0
  1
109
 41
0.9
 72
     1
 11
219.86444299999999
 21
-519.52483700000005
 31
0.0
  0
CIRCLE
  5
23E
  8
SIZE
  6
CONTINUOUS
 62
    30
 10
0.0
 20
-544.52483700000005
 30
0.0
 40
6.0
  0
LINE
  5
23F
  8
SIZE
  6
CONTINUOUS
 62
    30
 10
0.0
 20
-544.52483700000005
 30
0.0
 11
12.0
 21
-544.52483700000005
 31
0.0
  0
CIRCLE
  5
240
  8
SIZE
  6
CONTINUOUS
 62
    30
 10
109.0
 20
-544.52483700000005
 30
0.0
 40
6.0
  0
LINE
  5
241
  8
SIZE
  6
CONTINUOUS
 62
    30
 10
109.0
 20
-544.52483700000005
 30
0.0
 11
97.0
 21
-544.52483700000005
 31
0.0
  0
POINT
  5
242
  8
DEFPOINTS
  6
CONTINUOUS
 62
    30
 10
0.0
 20
-100.0
 30
0.0
  0
POINT
  5
243
  8
DEFPOINTS
  6
CONTINUOUS
 62
    30
 10
109.0
 20
0.0
 30
0.0
  0
POINT
  5
244
  8
DEFPOINTS
  6
CONTINUOUS
 62
    30
 10
109.0
 20
-544.52483700000005
 30
0.0
  0
LINE
  5
245
  8
DETAIL
  6
DASHED
 62
     5
 39
50.0
 10
6.0
 20
-11.12205
 30
0.0
 11
6.0
 21
-97.422650000000004
 31
0.0
  0
LINE
  5
246
  8
DETAIL
  6
CONTINUOUS
 62
     5
 10
15.0
 20
-78.486591000000004
 30
0.0
 11
15.0
 21
-89.799777000000006
 31
0.0
  0
LINE
  5
247
  8
DETAIL
  6
CONTINUOUS
 62
     5
 10
15.0
 20
-67.614191000000005
 30
0.0
 11
15.0
 21
-77.38659100000001
 31
0.0
  0
LINE
  5
248
  8
DETAIL
  6
CONTINUOUS
 62
     5
 10
15.0
 20
-53.786726000000002
 30
0.0
 11
15.0
 21
-66.142103000000006
 31
0.0
  0
LINE
  5
249
  8
DETAIL
  6
CONTINUOUS
 62
     5
 10
15.0
 20
-37.608522999999998
 30
0.0
 11
15.0
 21
-52.006889000000001
 31
0.0
  0
LINE
  5
24A
  8
DETAIL
  6
CONTINUOUS
 62
     5
 10
15.0
 20
-19.786646999999999
 30
0.0
 11
15.0
 21
-35.598723
 31
0.0
  0
LINE
  5
24B
  8
DETAIL
  6
CONTINUOUS
 62
     5
 10
15.0
 20
-1.1000000000000001
 30
0.0
 11
15.0
 21
-17.634723000000001
 31
0.0
  0
LINE
  5
24C
  8
DETAIL
  6
CONTINUOUS
 62
     5
 10
15.0
 20
17.634723000000001
 30
0.0
 11
15.0
 21
1.1000000000000001
 31
0.0
  0
LINE
  5
24D
  8
DETAIL
  6
CONTINUOUS
 62
     5
 10
15.0
 20
35.598723
 30
0.0
 11
15.0
 21
19.786646999999999
 31
0.0
  0
LINE
  5
24E
  8
DETAIL
  6
CONTINUOUS
 62
     5
 10
15.0
 20
37.608522999999998
 30
0.0
 11
15.0
 21
52.006889000000001
 31
0.0
  0
LINE
  5
24F
  8
DETAIL
  6
CONTINUOUS
 62
     5
 10
15.0
 20
53.786726000000002
 30
0.0
 11
15.0
 21
66.142103000000006
 31
0.0
  0
LINE
  5
250
  8
DETAIL
  6
CONTINUOUS
 62
     5
 10
15.0
 20
67.614191000000005
 30
0.0
 11
15.0
 21
77.38659100000001
 31
0.0
  0
LINE
  5
251
  8
DETAIL
  6
CONTINUOUS
 62
     5
 10
15.0
 20
78.486591000000004
 30
0.0
 11
15.0
 21
90.0
 31
0.0
  0
LINE
  5
252
  8
SIZE
  6
CONTINUOUS
 62
    30
 10
6.0
 20
-117.42265
 30
0.0
 11
6.0
 21
-306.45424500000001
 31
0.0
  0
LINE
  5
253
  8
SIZE
  6
CONTINUOUS
 62
    30
 10
15.0
 20
-101.44425099999999
 30
0.0
 11
15.0
 21
-306.45424500000001
 31
0.0
  0
LINE
  5
254
  8
SIZE
  6
CONTINUOUS
 62
    30
 10
-6.0
 20
-286.45424500000001
 30
0.0
 11
-18.0
 21
-286.45424500000001
 31
0.0
  0
LINE
  5
255
  8
SIZE
  6
CONTINUOUS
 62
    30
 10
27.0
 20
-286.45424500000001
 30
0.0
 11
39.0
 21
-286.45424500000001
 31
0.0
  0
LINE
  5
256
  8
SIZE
  6
CONTINUOUS
 62
    30
 10
-122.975376
 20
-286.45424500000001
 30
0.0
 11
6.0
 21
-286.45424500000001
 31
0.0
  0
TEXT
  5
257
  8
SIZE
  6
CONTINUOUS
 62
    30
 10
-97.975375428571425
 20
-261.45424500000001
 30
0.0
 40
64.0
  1
9
 41
0.9
 72
     1
 11
-80.146804000000003
 21
-261.45424500000001
 31
0.0
  0
LINE
  5
258
  8
SIZE
  6
CONTINUOUS
 62
    30
 10
6.0
 20
-286.45424500000001
 30
0.0
 11
15.0
 21
-286.45424500000001
 31
0.0
  0
LINE
  5
259
  8
SIZE
  6
CONTINUOUS
 62
    30
 10
6.0
 20
-286.45424500000001
 30
0.0
 11
15.0
 21
-286.45424500000001
 31
0.0
  0
CIRCLE
  5
25A
  8
SIZE
  6
CONTINUOUS
 62
    30
 10
6.0
 20
-286.45424500000001
 30
0.0
 40
6.0
  0
LINE
  5
25B
  8
SIZE
  6
CONTINUOUS
 62
    30
 10
6.0
 20
-286.45424500000001
 30
0.0
 11
-6.0
 21
-286.45424500000001
 31
0.0
  0
CIRCLE
  5
25C
  8
SIZE
  6
CONTINUOUS
 62
    30
 10
15.0
 20
-286.45424500000001
 30
0.0
 40
6.0
  0
LINE
  5
25D
  8
SIZE
  6
CONTINUOUS
 62
    30
 10
15.0
 20
-286.45424500000001
 30
0.0
 11
27.0
 21
-286.45424500000001
 31
0.0
  0
POINT
  5
25E
  8
DEFPOINTS
  6
CONTINUOUS
 62
    30
 10
6.0
 20
-97.422650000000004
 30
0.0
  0
POINT
  5
25F
  8
DEFPOINTS
  6
CONTINUOUS
 62
    30
 10
15.0
 20
-81.444250999999994
 30
0.0
  0
POINT
  5
260
  8
DEFPOINTS
  6
CONTINUOUS
 62
    30
 10
15.0
 20
-286.45424500000001
 30
0.0
  0
LINE
  5
261
  8
SIZE
  6
CONTINUOUS
 62
    30
 10
15.0
 20
-101.44425099999999
 30
0.0
 11
15.0
 21
-306.45424500000001
 31
0.0
  0
LINE
  5
262
  8
SIZE
  6
CONTINUOUS
 62
    30
 10
42.0
 20
-92.956605000000025
 30
0.0
 11
42.0
 21
-306.45424500000001
 31
0.0
  0
LINE
  5
263
  8
SIZE
  6
CONTINUOUS
 62
    30
 10
3.0
 20
-286.45424500000001
 30
0.0
 11
-9.0
 21
-286.45424500000001
 31
0.0
  0
LINE
  5
264
  8
SIZE
  6
CONTINUOUS
 62
    30
 10
54.0
 20
-286.45424500000001
 30
0.0
 11
66.0
 21
-286.45424500000001
 31
0.0
  0
LINE
  5
265
  8
SIZE
  6
CONTINUOUS
 62
    30
 10
250.64380700000001
 20
-286.45424500000001
 30
0.0
 11
42.0
 21
-286.45424500000001
 31
0.0
  0
TEXT
  5
266
  8
SIZE
  6
CONTINUOUS
 62
    30
 10
132.38666457142861
 20
-261.45424500000001
 30
0.0
 40
64.0
  1
27
 41
0.9
 72
     1
 11
179.01523599999999
 21
-261.45424500000001
 31
0.0
  0
LINE
  5
267
  8
SIZE
  6
CONTINUOUS
 62
    30
 10
15.0
 20
-286.45424500000001
 30
0.0
 11
42.0
 21
-286.45424500000001
 31
0.0
  0
LINE
  5
268
  8
SIZE
  6
CONTINUOUS
 62
    30
 10
15.0
 20
-286.45424500000001
 30
0.0
 11
42.0
 21
-286.45424500000001
 31
0.0
  0
CIRCLE
  5
269
  8
SIZE
  6
CONTINUOUS
 62
    30
 10
15.0
 20
-286.45424500000001
 30
0.0
 40
6.0
  0
LINE
  5
26A
  8
SIZE
  6
CONTINUOUS
 62
    30
 10
15.0
 20
-286.45424500000001
 30
0.0
 11
3.0
 21
-286.45424500000001
 31
0.0
  0
CIRCLE
  5
26B
  8
SIZE
  6
CONTINUOUS
 62
    30
 10
42.0
 20
-286.45424500000001
 30
0.0
 40
6.0
  0
LINE
  5
26C
  8
SIZE
  6
CONTINUOUS
 62
    30
 10
42.0
 20
-286.45424500000001
 30
0.0
 11
54.0
 21
-286.45424500000001
 31
0.0
  0
POINT
  5
26D
  8
DEFPOINTS
  6
CONTINUOUS
 62
    30
 10
15.0
 20
-81.444250999999994
 30
0.0
  0
POINT
  5
26E
  8
DEFPOINTS
  6
CONTINUOUS
 62
    30
 10
42.0
 20
-72.95660500000001
 30
0.0
  0
POINT
  5
26F
  8
DEFPOINTS
  6
CONTINUOUS
 62
    30
 10
42.0
 20
-286.45424500000001
 30
0.0
  0
LINE
  5
270
  8
SIZE
  6
CONTINUOUS
 62
    30
 10
6.0
 20
-117.42265
 30
0.0
 11
6.0
 21
-449.55478900000003
 31
0.0
  0
LINE
  5
271
  8
SIZE
  6
CONTINUOUS
 62
    30
 10
109.0
 20
-20.0
 30
0.0
 11
109.0
 21
-449.55478900000003
 31
0.0
  0
LINE
  5
272
  8
SIZE
  6
CONTINUOUS
 62
    30
 10
18.0
 20
-429.55478899999991
 30
0.0
 11
97.0
 21
-429.55478899999991
 31
0.0
  0
LINE
  5
273
  8
SIZE
  6
CONTINUOUS
 62
    30
 10
313.43587200000002
 20
-429.55478899999991
 30
0.0
 11
109.0
 21
-429.55478899999991
 31
0.0
  0
TEXT
  5
274
  8
SIZE
  6
CONTINUOUS
 62
    30
 10
151.29301442857141
 20
-404.55478899999991
 30
0.0
 40
64.0
  1
103
 41
0.9
 72
     1
 11
219.86444299999999
 21
-404.55478899999991
 31
0.0
  0
CIRCLE
  5
275
  8
SIZE
  6
CONTINUOUS
 62
    30
 10
6.0
 20
-429.55478899999991
 30
0.0
 40
6.0
  0
LINE
  5
276
  8
SIZE
  6
CONTINUOUS
 62
    30
 10
6.0
 20
-429.55478899999991
 30
0.0
 11
18.0
 21
-429.55478899999991
 31
0.0
  0
CIRCLE
  5
277
  8
SIZE
  6
CONTINUOUS
 62
    30
 10
109.0
 20
-429.55478899999991
 30
0.0
 40
6.0
  0
LINE
  5
278
  8
SIZE
  6
CONTINUOUS
 62
    30
 10
109.0
 20
-429.55478899999991
 30
0.0
 11
97.0
 21
-429.55478899999991
 31
0.0
  0
POINT
  5
279
  8
DEFPOINTS
  6
CONTINUOUS
 62
    30
 10
6.0
 20
-97.422650000000004
 30
0.0
  0
POINT
  5
27A
  8
DEFPOINTS
  6
CONTINUOUS
 62
    30
 10
109.0
 20
0.0
 30
0.0
  0
POINT
  5
27B
  8
DEFPOINTS
  6
CONTINUOUS
 62
    30
 10
109.0
 20
-429.55478899999991
 30
0.0
  0
TEXT
  5
27C
  8
NOTE
  6
CONTINUOUS
 62
     4
 10
-494.43666200000001
 20
148.31263100000001
 30
0.0
 40
64.0
  1
4-φ8.5
 41
0.9
  0
LINE
  5
27D
  8
NOTE
  6
CONTINUOUS
 62
     4
 10
-159.221262
 20
118.14235600000001
 30
0.0
 11
-517.43755799999985
 21
118.14235600000001
 31
0.0
  0
LINE
  5
27E
  8
NOTE
  6
CONTINUOUS
 62
     4
 39
50.0
 10
0.0
 20
55.154328999999997
 30
0.0
 11
-159.221262
 21
118.14235600000001
 31
0.0
  0
LINE
  5
27F
  8
NOTE
  6
CONTINUOUS
 62
     4
 10
-32.558216999999999
 20
78.391423000000003
 30
0.0
 11
0.0
 21
55.154328999999997
 31
0.0
  0
LINE
  5
280
  8
NOTE
  6
CONTINUOUS
 62
     4
 10
0.0
 20
55.154328999999997
 30
0.0
 11
-39.814790000000002
 21
58.999133999999991
 31
0.0
  0
TEXT
  5
281
  8
NOTE
  6
CONTINUOUS
 62
     4
 10
-400.189526
 20
290.10233099999999
 30
0.0
 40
64.0
  1
4-φ5
 41
0.9
  0
LINE
  5
282
  8
NOTE
  6
CONTINUOUS
 62
     4
 10
-419.42778299999998
 20
259.93205499999999
 30
0.0
 11
-146.02573599999999
 21
259.93205499999999
 31
0.0
  0
LINE
  5
283
  8
NOTE
  6
CONTINUOUS
 62
     4
 10
0.0
 20
69.281999999999996
 30
0.0
 11
-142.83416800000001
 21
258.34325699999999
 31
0.0
  0
LINE
  5
284
  8
NOTE
  6
CONTINUOUS
 62
     4
 10
-31.445222000000001
 20
94.004418999999999
 30
0.0
 11
0.0
 21
69.281999999999996
 31
0.0
  0
LINE
  5
285
  8
NOTE
  6
CONTINUOUS
 62
     4
 10
0.0
 20
69.281999999999996
 30
0.0
 11
-14.871150999999999
 21
106.41485400000001
 31
0.0
  0
ARC
  5
286
  8
NOTE
  6
CONTINUOUS
 62
     4
 10
-146.02573599999999
 20
255.93205499999999
 30
0.0
 40
4.0
 50
37.070735999999997
 51
90.0
  0
LINE
  5
287
  8
OUTLINE
  6
CONTINUOUS
 62
     3
 10
0.0
 20
90.0
 30
0.0
 11
15.0
 21
90.0
 31
0.0
  0
LINE
  5
288
  8
OUTLINE
  6
CONTINUOUS
 62
     3
 10
0.0
 20
88.0
 30
0.0
 11
15.0
 21
88.0
 31
0.0
  0
LINE
  5
289
  8
OUTLINE
  6
CONTINUOUS
 62
     3
 10
5.1961519999999988
 20
-100.0
 30
0.0
 11
0.0
 21
-100.0
 31
0.0
  0
LINE
  5
28A
  8
OUTLINE
  6
CONTINUOUS
 62
     3
 10
0.0
 20
0.0
 30
0.0
 11
3.3012699999999988
 21
-5.7179679999999991
 31
0.0
  0
LINE
  5
28B
  8
OUTLINE
  6
CONTINUOUS
 62
     3
 10
0.0
 20
13.383217999999999
 30
0.0
 11
0.0
 21
-100.0
 31
0.0
  0
LINE
  5
28C
  8
OUTLINE
  6
CONTINUOUS
 62
     3
 10
0.0
 20
90.0
 30
0.0
 11
0.0
 21
13.383217999999999
 31
0.0
  0
LINE
  5
28D
  8
OUTLINE
  6
CONTINUOUS
 62
     3
 10
6.0
 20
88.0
 30
0.0
 11
6.0
 21
-11.12205
 31
0.0
  0
ARC
  5
28E
  8
OUTLINE
  6
CONTINUOUS
 62
     3
 10
-56.0
 20
0.0
 30
0.0
 40
165.0
 50
332.30208199999998
 51
27.697375000000001
  0
LINE
  5
28F
  8
OUTLINE
  6
CONTINUOUS
 62
     3
 10
44.0
 20
0.0
 30
0.0
 11
44.0
 21
1.1000000000000001
 31
0.0
  0
LINE
  5
290
  8
OUTLINE
  6
CONTINUOUS
 62
     3
 10
15.0
 20
-78.486591000000004
 30
0.0
 11
15.0
 21
-89.799777000000006
 31
0.0
  0
LINE
  5
291
  8
OUTLINE
  6
CONTINUOUS
 62
     3
 10
42.0
 20
-77.521104000000008
 30
0.0
 11
42.0
 21
-82.286377000000002
 31
0.0
  0
ARC
  5
292
  8
OUTLINE
  6
CONTINUOUS
 62
     3
 10
75.040756000000002
 20
-68.791860999999997
 30
0.0
 40
17.0
 50
272.0
 51
332.30208199999998
  0
LINE
  5
293
  8
OUTLINE
  6
DASHED
 62
     3
 10
42.0
 20
-84.954812999999987
 30
0.0
 11
42.0
 21
-81.952984000000001
 31
0.0
  0
ARC
  5
294
  8
OUTLINE
  6
CONTINUOUS
 62
     3
 10
211.15004099999999
 20
-43.634085999999989
 30
0.0
 40
201.15004099999999
 50
179.99966900000001
 51
198.14234400000001
  0
LINE
  5
295
  8
OUTLINE
  6
CONTINUOUS
 62
     3
 10
75.634047999999993
 20
-85.78150500000001
 30
0.0
 11
43.994844000000001
 21
-86.886370999999997
 31
0.0
  0
ARC
  5
296
  8
OUTLINE
  6
CONTINUOUS
 62
     3
 10
41.996062000000002
 20
-86.95617
 30
0.0
 40
2.0
 50
272.0
 51
2.0
  0
LINE
  5
297
  8
OUTLINE
  6
CONTINUOUS
 62
     3
 10
42.065860999999991
 20
-88.954950999999994
 30
0.0
 11
15.421713
 21
-89.885384999999999
 31
0.0
  0
LINE
  5
298
  8
OUTLINE
  6
CONTINUOUS
 62
     3
 10
15.0
 20
-85.248913000000002
 30
0.0
 11
42.0
 21
-84.188629000000006
 31
0.0
  0
LINE
  5
299
  8
OUTLINE
  6
CONTINUOUS
 62
     3
 10
42.0
 20
-82.286377000000002
 30
0.0
 11
44.0
 21
-82.207837999999995
 31
0.0
  0
LINE
  5
29A
  8
OUTLINE
  6
CONTINUOUS
 62
     3
 10
44.0
 20
-82.935389999999998
 30
0.0
 11
44.0
 21
-82.207837999999995
 31
0.0
  0
LINE
  5
29B
  8
OUTLINE
  6
CONTINUOUS
 62
     3
 10
42.0
 20
-84.188629000000006
 30
0.0
 11
42.390180999999998
 21
-84.15208299999999
 31
0.0
  0
LINE
  5
29C
  8
OUTLINE
  6
CONTINUOUS
 62
     3
 10
42.390180999999998
 20
-84.15208299999999
 30
0.0
 11
42.765366999999998
 21
-84.043847999999997
 31
0.0
  0
LINE
  5
29D
  8
OUTLINE
  6
CONTINUOUS
 62
     3
 10
42.765366999999998
 20
-84.043847999999997
 30
0.0
 11
43.111139999999992
 21
-83.868084999999994
 31
0.0
  0
LINE
  5
29E
  8
OUTLINE
  6
CONTINUOUS
 62
     3
 10
43.111139999999992
 20
-83.868084999999994
 30
0.0
 11
43.414214000000001
 21
-83.631546999999998
 31
0.0
  0
LINE
  5
29F
  8
OUTLINE
  6
CONTINUOUS
 62
     3
 10
43.414214000000001
 20
-83.631546999999998
 30
0.0
 11
43.662939000000001
 21
-83.343323999999996
 31
0.0
  0
LINE
  5
2A0
  8
OUTLINE
  6
CONTINUOUS
 62
     3
 10
43.662939000000001
 20
-83.343323999999996
 30
0.0
 11
43.847759000000003
 21
-83.014492999999987
 31
0.0
  0
LINE
  5
2A1
  8
OUTLINE
  6
CONTINUOUS
 62
     3
 10
43.847759000000003
 20
-83.014492999999987
 30
0.0
 11
43.961570999999992
 21
-82.657690999999986
 31
0.0
  0
LINE
  5
2A2
  8
OUTLINE
  6
CONTINUOUS
 62
     3
 10
43.961570999999992
 20
-82.657690999999986
 30
0.0
 11
44.0
 21
-82.286629000000005
 31
0.0
  0
LINE
  5
2A3
  8
OUTLINE
  6
CONTINUOUS
 62
     3
 10
15.0
 20
-85.897673999999995
 30
0.0
 11
42.0
 21
-84.837389999999985
 31
0.0
  0
LINE
  5
2A4
  8
OUTLINE
  6
CONTINUOUS
 62
     3
 10
42.0
 20
-84.837389999999985
 30
0.0
 11
42.390180999999998
 21
-84.800843999999998
 31
0.0
  0
LINE
  5
2A5
  8
OUTLINE
  6
CONTINUOUS
 62
     3
 10
42.390180999999998
 20
-84.800843999999998
 30
0.0
 11
42.765366999999998
 21
-84.692609000000004
 31
0.0
  0
LINE
  5
2A6
  8
OUTLINE
  6
CONTINUOUS
 62
     3
 10
42.765366999999998
 20
-84.692609000000004
 30
0.0
 11
43.111139999999992
 21
-84.516844999999975
 31
0.0
  0
LINE
  5
2A7
  8
OUTLINE
  6
CONTINUOUS
 62
     3
 10
43.111139999999992
 20
-84.516844999999975
 30
0.0
 11
43.414214000000001
 21
-84.280306999999979
 31
0.0
  0
LINE
  5
2A8
  8
OUTLINE
  6
CONTINUOUS
 62
     3
 10
43.414214000000001
 20
-84.280306999999979
 30
0.0
 11
43.662939000000001
 21
-83.992085000000003
 31
0.0
  0
LINE
  5
2A9
  8
OUTLINE
  6
CONTINUOUS
 62
     3
 10
43.662939000000001
 20
-83.992085000000003
 30
0.0
 11
43.847759000000003
 21
-83.663253999999995
 31
0.0
  0
LINE
  5
2AA
  8
OUTLINE
  6
CONTINUOUS
 62
     3
 10
43.847759000000003
 20
-83.663253999999995
 30
0.0
 11
43.961570999999992
 21
-83.306452000000007
 31
0.0
  0
LINE
  5
2AB
  8
OUTLINE
  6
CONTINUOUS
 62
     3
 10
43.961570999999992
 20
-83.306452000000007
 30
0.0
 11
44.0
 21
-82.935389999999998
 31
0.0
  0
LINE
  5
2AC
  8
OUTLINE
  6
CONTINUOUS
 62
     3
 10
42.0
 20
-88.276707999999985
 30
0.0
 11
15.0
 21
-89.385448999999994
 31
0.0
  0
LINE
  5
2AD
  8
OUTLINE
  6
CONTINUOUS
 62
     3
 10
42.0
 20
-86.287518999999989
 30
0.0
 11
44.0
 21
-86.205389999999994
 31
0.0
  0
LINE
  5
2AE
  8
OUTLINE
  6
CONTINUOUS
 62
     3
 10
42.0
 20
-88.506669999999986
 30
0.0
 11
15.0
 21
-89.615412000000006
 31
0.0
  0
LINE
  5
2AF
  8
OUTLINE
  6
CONTINUOUS
 62
     3
 10
44.0
 20
-86.517669999999995
 30
0.0
 11
44.0
 21
-86.205389999999994
 31
0.0
  0
LINE
  5
2B0
  8
OUTLINE
  6
CONTINUOUS
 62
     3
 10
42.0
 20
-88.276707999999985
 30
0.0
 11
42.356344999999997
 21
-88.24488199999999
 31
0.0
  0
LINE
  5
2B1
  8
OUTLINE
  6
CONTINUOUS
 62
     3
 10
42.356344999999997
 20
-88.24488199999999
 30
0.0
 11
42.701285999999989
 21
-88.150424999999998
 31
0.0
  0
LINE
  5
2B2
  8
OUTLINE
  6
CONTINUOUS
 62
     3
 10
42.701285999999989
 20
-88.150424999999998
 30
0.0
 11
43.02378499999999
 21
-87.996356999999989
 31
0.0
  0
LINE
  5
2B3
  8
OUTLINE
  6
CONTINUOUS
 62
     3
 10
43.02378499999999
 20
-87.996356999999989
 30
0.0
 11
43.313521999999999
 21
-87.787610999999998
 31
0.0
  0
LINE
  5
2B4
  8
OUTLINE
  6
CONTINUOUS
 62
     3
 10
43.313521999999999
 20
-87.787610999999998
 30
0.0
 11
43.561223999999989
 21
-87.530865000000006
 31
0.0
  0
LINE
  5
2B5
  8
OUTLINE
  6
CONTINUOUS
 62
     3
 10
43.561223999999989
 20
-87.530865000000006
 30
0.0
 11
43.758963999999999
 21
-87.234335999999985
 31
0.0
  0
LINE
  5
2B6
  8
OUTLINE
  6
CONTINUOUS
 62
     3
 10
43.758963999999999
 20
-87.234335999999985
 30
0.0
 11
43.900415000000002
 21
-86.907514000000006
 31
0.0
  0
LINE
  5
2B7
  8
OUTLINE
  6
CONTINUOUS
 62
     3
 10
43.900415000000002
 20
-86.907514000000006
 30
0.0
 11
43.981051000000001
 21
-86.560857999999996
 31
0.0
  0
LINE
  5
2B8
  8
OUTLINE
  6
CONTINUOUS
 62
     3
 10
43.981051000000001
 20
-86.560857999999996
 30
0.0
 11
43.998289
 21
-86.205460000000002
 31
0.0
  0
LINE
  5
2B9
  8
OUTLINE
  6
CONTINUOUS
 62
     3
 10
42.0
 20
-88.506669999999986
 30
0.0
 11
42.347296
 21
-88.476453000000006
 31
0.0
  0
LINE
  5
2BA
  8
OUTLINE
  6
CONTINUOUS
 62
     3
 10
42.347296
 20
-88.476453000000006
 30
0.0
 11
42.684040000000003
 21
-88.386718999999985
 31
0.0
  0
LINE
  5
2BB
  8
OUTLINE
  6
CONTINUOUS
 62
     3
 10
42.684040000000003
 20
-88.386718999999985
 30
0.0
 11
43.0
 21
-88.240195
 31
0.0
  0
LINE
  5
2BC
  8
OUTLINE
  6
CONTINUOUS
 62
     3
 10
43.0
 20
-88.240195
 30
0.0
 11
43.285575000000001
 21
-88.041332999999995
 31
0.0
  0
LINE
  5
2BD
  8
OUTLINE
  6
CONTINUOUS
 62
     3
 10
43.285575000000001
 20
-88.041332999999995
 30
0.0
 11
43.532088999999999
 21
-87.796175000000005
 31
0.0
  0
LINE
  5
2BE
  8
OUTLINE
  6
CONTINUOUS
 62
     3
 10
43.532088999999999
 20
-87.796175000000005
 30
0.0
 11
43.732050999999991
 21
-87.512169999999998
 31
0.0
  0
LINE
  5
2BF
  8
OUTLINE
  6
CONTINUOUS
 62
     3
 10
43.732050999999991
 20
-87.512169999999998
 30
0.0
 11
43.879384999999992
 21
-87.197947999999997
 31
0.0
  0
LINE
  5
2C0
  8
OUTLINE
  6
CONTINUOUS
 62
     3
 10
43.879384999999992
 20
-87.197947999999997
 30
0.0
 11
43.969616000000002
 21
-86.863056
 31
0.0
  0
LINE
  5
2C1
  8
OUTLINE
  6
CONTINUOUS
 62
     3
 10
43.969616000000002
 20
-86.863056
 30
0.0
 11
44.0
 21
-86.517669999999995
 31
0.0
  0
LINE
  5
2C2
  8
OUTLINE
  6
CONTINUOUS
 62
     3
 10
42.0
 20
-86.287518999999989
 30
0.0
 11
42.0
 21
-84.837389999999985
 31
0.0
  0
LINE
  5
2C3
  8
OUTLINE
  6
CONTINUOUS
 62
     3
 10
20.0
 20
-106.267949
 30
0.0
 11
19.0
 21
-108.0
 31
0.0
  0
ARC
  5
2C4
  8
OUTLINE
  6
CONTINUOUS
 62
     3
 10
5.1961519999999988
 20
-101.0
 30
0.0
 40
1.0
 50
60.0
 51
90.0
  0
LINE
  5
2C5
  8
OUTLINE
  6
CONTINUOUS
 62
     3
 10
5.6961519999999988
 20
-100.13397500000001
 30
0.0
 11
19.0
 21
-108.0
 31
0.0
  0
LINE
  5
2C6
  8
OUTLINE
  6
CONTINUOUS
 62
     3
 10
15.0
 20
-1.1000000000000001
 30
0.0
 11
15.0
 21
-17.634723000000001
 31
0.0
  0
LINE
  5
2C7
  8
OUTLINE
  6
CONTINUOUS
 62
     3
 10
15.0
 20
-19.786646999999999
 30
0.0
 11
15.0
 21
-35.598723
 31
0.0
  0
LINE
  5
2C8
  8
OUTLINE
  6
CONTINUOUS
 62
     3
 10
15.0
 20
-37.608522999999998
 30
0.0
 11
15.0
 21
-52.006889000000001
 31
0.0
  0
LINE
  5
2C9
  8
OUTLINE
  6
CONTINUOUS
 62
     3
 10
15.0
 20
-53.786726000000002
 30
0.0
 11
15.0
 21
-66.142103000000006
 31
0.0
  0
LINE
  5
2CA
  8
OUTLINE
  6
CONTINUOUS
 62
     3
 10
15.0
 20
-67.614191000000005
 30
0.0
 11
15.0
 21
-77.38659100000001
 31
0.0
  0
LINE
  5
2CB
  8
OUTLINE
  6
CONTINUOUS
 62
     3
 10
42.0
 20
-69.945669999999993
 30
0.0
 11
42.0
 21
-66.785696999999999
 31
0.0
  0
LINE
  5
2CC
  8
OUTLINE
  6
CONTINUOUS
 62
     3
 10
42.0
 20
-66.785696999999999
 30
0.0
 11
42.0
 21
-74.688927000000007
 31
0.0
  0
LINE
  5
2CD
  8
OUTLINE
  6
CONTINUOUS
 62
     3
 10
15.0
 20
-1.1000000000000001
 30
0.0
 11
44.0
 21
-1.1000000000000001
 31
0.0
  0
LINE
  5
2CE
  8
OUTLINE
  6
CONTINUOUS
 62
     3
 10
44.0
 20
0.0
 30
0.0
 11
44.0
 21
-1.1000000000000001
 31
0.0
  0
LINE
  5
2CF
  8
OUTLINE
  6
CONTINUOUS
 62
     3
 10
15.0
 20
-17.634723000000001
 30
0.0
 11
42.0
 21
-17.42677999999999
 31
0.0
  0
LINE
  5
2D0
  8
OUTLINE
  6
CONTINUOUS
 62
     3
 10
15.0
 20
-17.218837000000001
 30
0.0
 11
44.0
 21
-16.969877
 31
0.0
  0
LINE
  5
2D1
  8
OUTLINE
  6
CONTINUOUS
 62
     3
 10
15.0
 20
-19.786646999999999
 30
0.0
 11
42.0
 21
-19.578703999999998
 31
0.0
  0
LINE
  5
2D2
  8
OUTLINE
  6
CONTINUOUS
 62
     3
 10
42.0
 20
-17.42677999999999
 30
0.0
 11
42.355696000000002
 21
-17.419764999999991
 31
0.0
  0
LINE
  5
2D3
  8
OUTLINE
  6
CONTINUOUS
 62
     3
 10
42.355696000000002
 20
-17.419764999999991
 30
0.0
 11
42.700051000000002
 21
-17.398945000000001
 31
0.0
  0
LINE
  5
2D4
  8
OUTLINE
  6
CONTINUOUS
 62
     3
 10
42.700051000000002
 20
-17.398945000000001
 30
0.0
 11
43.02208499999999
 21
-17.364984
 31
0.0
  0
LINE
  5
2D5
  8
OUTLINE
  6
CONTINUOUS
 62
     3
 10
43.02208499999999
 20
-17.364984
 30
0.0
 11
43.311531000000002
 21
-17.318964000000001
 31
0.0
  0
LINE
  5
2D6
  8
OUTLINE
  6
CONTINUOUS
 62
     3
 10
43.311531000000002
 20
-17.318964000000001
 30
0.0
 11
43.559159999999991
 21
-17.262353000000001
 31
0.0
  0
LINE
  5
2D7
  8
OUTLINE
  6
CONTINUOUS
 62
     3
 10
43.559159999999991
 20
-17.262353000000001
 30
0.0
 11
43.757077000000002
 21
-17.196954999999999
 31
0.0
  0
LINE
  5
2D8
  8
OUTLINE
  6
CONTINUOUS
 62
     3
 10
43.757077000000002
 20
-17.196954999999999
 30
0.0
 11
43.898972000000001
 21
-17.124856000000001
 31
0.0
  0
LINE
  5
2D9
  8
OUTLINE
  6
CONTINUOUS
 62
     3
 10
43.898972000000001
 20
-17.124856000000001
 30
0.0
 11
43.980319000000001
 21
-17.04835499999999
 31
0.0
  0
LINE
  5
2DA
  8
OUTLINE
  6
CONTINUOUS
 62
     3
 10
43.980319000000001
 20
-17.04835499999999
 30
0.0
 11
43.998525999999998
 21
-16.969889999999999
 31
0.0
  0
LINE
  5
2DB
  8
OUTLINE
  6
CONTINUOUS
 62
     3
 10
44.0
 20
-16.969877
 30
0.0
 11
44.0
 21
-19.138704000000001
 31
0.0
  0
LINE
  5
2DC
  8
OUTLINE
  6
CONTINUOUS
 62
     3
 10
42.0
 20
-19.578703999999998
 30
0.0
 11
42.390180999999998
 21
-19.570250000000001
 31
0.0
  0
LINE
  5
2DD
  8
OUTLINE
  6
CONTINUOUS
 62
     3
 10
42.390180999999998
 20
-19.570250000000001
 30
0.0
 11
42.765366999999998
 21
-19.545210999999998
 31
0.0
  0
LINE
  5
2DE
  8
OUTLINE
  6
CONTINUOUS
 62
     3
 10
42.765366999999998
 20
-19.545210999999998
 30
0.0
 11
43.111139999999992
 21
-19.504550999999999
 31
0.0
  0
LINE
  5
2DF
  8
OUTLINE
  6
CONTINUOUS
 62
     3
 10
43.111139999999992
 20
-19.504550999999999
 30
0.0
 11
43.414214000000001
 21
-19.449831
 31
0.0
  0
LINE
  5
2E0
  8
OUTLINE
  6
CONTINUOUS
 62
     3
 10
43.414214000000001
 20
-19.449831
 30
0.0
 11
43.662939000000001
 21
-19.383154999999999
 31
0.0
  0
LINE
  5
2E1
  8
OUTLINE
  6
CONTINUOUS
 62
     3
 10
43.662939000000001
 20
-19.383154999999999
 30
0.0
 11
43.847759000000003
 21
-19.307085000000001
 31
0.0
  0
LINE
  5
2E2
  8
OUTLINE
  6
CONTINUOUS
 62
     3
 10
43.847759000000003
 20
-19.307085000000001
 30
0.0
 11
43.961570999999992
 21
-19.224544000000002
 31
0.0
  0
LINE
  5
2E3
  8
OUTLINE
  6
CONTINUOUS
 62
     3
 10
43.961570999999992
 20
-19.224544000000002
 30
0.0
 11
44.0
 21
-19.138704000000001
 31
0.0
  0
LINE
  5
2E4
  8
OUTLINE
  6
CONTINUOUS
 62
     3
 10
42.0
 20
-35.145273000000003
 30
0.0
 11
15.0
 21
-35.598723
 31
0.0
  0
LINE
  5
2E5
  8
OUTLINE
  6
CONTINUOUS
 62
     3
 10
15.0
 20
-34.78519
 30
0.0
 11
43.998346000000012
 21
-34.298180000000002
 31
0.0
  0
LINE
  5
2E6
  8
OUTLINE
  6
CONTINUOUS
 62
     3
 10
42.0
 20
-37.155073000000002
 30
0.0
 11
15.0
 21
-37.608522999999998
 31
0.0
  0
LINE
  5
2E7
  8
OUTLINE
  6
CONTINUOUS
 62
     3
 10
44.0
 20
-34.331273000000003
 30
0.0
 11
44.0
 21
-36.341073000000002
 31
0.0
  0
LINE
  5
2E8
  8
OUTLINE
  6
CONTINUOUS
 62
     3
 10
42.0
 20
-35.145273000000003
 30
0.0
 11
42.390180999999998
 21
-35.129632999999998
 31
0.0
  0
LINE
  5
2E9
  8
OUTLINE
  6
CONTINUOUS
 62
     3
 10
42.390180999999998
 20
-35.129632999999998
 30
0.0
 11
42.765366999999998
 21
-35.083311000000002
 31
0.0
  0
LINE
  5
2EA
  8
OUTLINE
  6
CONTINUOUS
 62
     3
 10
42.765366999999998
 20
-35.083311000000002
 30
0.0
 11
43.111139999999992
 21
-35.008090000000003
 31
0.0
  0
LINE
  5
2EB
  8
OUTLINE
  6
CONTINUOUS
 62
     3
 10
43.111139999999992
 20
-35.008090000000003
 30
0.0
 11
43.414214000000001
 21
-34.906858
 31
0.0
  0
LINE
  5
2EC
  8
OUTLINE
  6
CONTINUOUS
 62
     3
 10
43.414214000000001
 20
-34.906858
 30
0.0
 11
43.662939000000001
 21
-34.783508000000012
 31
0.0
  0
LINE
  5
2ED
  8
OUTLINE
  6
CONTINUOUS
 62
     3
 10
43.662939000000001
 20
-34.783508000000012
 30
0.0
 11
43.847759000000003
 21
-34.642778
 31
0.0
  0
LINE
  5
2EE
  8
OUTLINE
  6
CONTINUOUS
 62
     3
 10
43.847759000000003
 20
-34.642778
 30
0.0
 11
43.961570999999992
 21
-34.490076999999999
 31
0.0
  0
LINE
  5
2EF
  8
OUTLINE
  6
CONTINUOUS
 62
     3
 10
43.961570999999992
 20
-34.490076999999999
 30
0.0
 11
44.0
 21
-34.331273000000003
 31
0.0
  0
LINE
  5
2F0
  8
OUTLINE
  6
CONTINUOUS
 62
     3
 10
42.0
 20
-37.155073000000002
 30
0.0
 11
42.390180999999998
 21
-37.139432999999997
 31
0.0
  0
LINE
  5
2F1
  8
OUTLINE
  6
CONTINUOUS
 62
     3
 10
42.390180999999998
 20
-37.139432999999997
 30
0.0
 11
42.765366999999998
 21
-37.093111
 31
0.0
  0
LINE
  5
2F2
  8
OUTLINE
  6
CONTINUOUS
 62
     3
 10
42.765366999999998
 20
-37.093111
 30
0.0
 11
43.111139999999992
 21
-37.017890000000001
 31
0.0
  0
LINE
  5
2F3
  8
OUTLINE
  6
CONTINUOUS
 62
     3
 10
43.111139999999992
 20
-37.017890000000001
 30
0.0
 11
43.414214000000001
 21
-36.916657999999998
 31
0.0
  0
LINE
  5
2F4
  8
OUTLINE
  6
CONTINUOUS
 62
     3
 10
43.414214000000001
 20
-36.916657999999998
 30
0.0
 11
43.662939000000001
 21
-36.79330800000001
 31
0.0
  0
LINE
  5
2F5
  8
OUTLINE
  6
CONTINUOUS
 62
     3
 10
43.662939000000001
 20
-36.79330800000001
 30
0.0
 11
43.847759000000003
 21
-36.652578000000013
 31
0.0
  0
LINE
  5
2F6
  8
OUTLINE
  6
CONTINUOUS
 62
     3
 10
43.847759000000003
 20
-36.652578000000013
 30
0.0
 11
43.961570999999992
 21
-36.499876999999998
 31
0.0
  0
LINE
  5
2F7
  8
OUTLINE
  6
CONTINUOUS
 62
     3
 10
43.961570999999992
 20
-36.499876999999998
 30
0.0
 11
44.0
 21
-36.341073000000002
 31
0.0
  0
LINE
  5
2F8
  8
OUTLINE
  6
CONTINUOUS
 62
     3
 10
15.0
 20
-52.006889000000001
 30
0.0
 11
42.0
 21
-51.351596999999991
 31
0.0
  0
LINE
  5
2F9
  8
OUTLINE
  6
CONTINUOUS
 62
     3
 10
15.0
 20
-50.831232
 30
0.0
 11
44.0
 21
-50.127400999999999
 31
0.0
  0
LINE
  5
2FA
  8
OUTLINE
  6
CONTINUOUS
 62
     3
 10
15.0
 20
-53.786726000000002
 30
0.0
 11
42.0
 21
-53.131433999999999
 31
0.0
  0
LINE
  5
2FB
  8
OUTLINE
  6
CONTINUOUS
 62
     3
 10
44.0
 20
-50.175596999999989
 30
0.0
 11
44.0
 21
-51.955433999999997
 31
0.0
  0
LINE
  5
2FC
  8
OUTLINE
  6
CONTINUOUS
 62
     3
 10
42.0
 20
-51.351596999999991
 30
0.0
 11
42.390180999999998
 21
-51.329000999999998
 31
0.0
  0
LINE
  5
2FD
  8
OUTLINE
  6
CONTINUOUS
 62
     3
 10
42.390180999999998
 20
-51.329000999999998
 30
0.0
 11
42.765366999999998
 21
-51.262079
 31
0.0
  0
LINE
  5
2FE
  8
OUTLINE
  6
CONTINUOUS
 62
     3
 10
42.765366999999998
 20
-51.262079
 30
0.0
 11
43.111139999999992
 21
-51.153404999999999
 31
0.0
  0
LINE
  5
2FF
  8
OUTLINE
  6
CONTINUOUS
 62
     3
 10
43.111139999999992
 20
-51.153404999999999
 30
0.0
 11
43.414214000000001
 21
-51.00715499999999
 31
0.0
  0
LINE
  5
300
  8
OUTLINE
  6
CONTINUOUS
 62
     3
 10
43.414214000000001
 20
-51.00715499999999
 30
0.0
 11
43.662939000000001
 21
-50.828947999999997
 31
0.0
  0
LINE
  5
301
  8
OUTLINE
  6
CONTINUOUS
 62
     3
 10
43.662939000000001
 20
-50.828947999999997
 30
0.0
 11
43.847759000000003
 21
-50.625633000000001
 31
0.0
  0
LINE
  5
302
  8
OUTLINE
  6
CONTINUOUS
 62
     3
 10
43.847759000000003
 20
-50.625633000000001
 30
0.0
 11
43.961570999999992
 21
-50.405022999999993
 31
0.0
  0
LINE
  5
303
  8
OUTLINE
  6
CONTINUOUS
 62
     3
 10
43.961570999999992
 20
-50.405022999999993
 30
0.0
 11
44.0
 21
-50.175596999999989
 31
0.0
  0
LINE
  5
304
  8
OUTLINE
  6
CONTINUOUS
 62
     3
 10
42.0
 20
-53.131433999999999
 30
0.0
 11
42.347296
 21
-53.113568000000008
 31
0.0
  0
LINE
  5
305
  8
OUTLINE
  6
CONTINUOUS
 62
     3
 10
42.347296
 20
-53.113568000000008
 30
0.0
 11
42.684040000000003
 21
-53.060513
 31
0.0
  0
LINE
  5
306
  8
OUTLINE
  6
CONTINUOUS
 62
     3
 10
42.684040000000003
 20
-53.060513
 30
0.0
 11
43.0
 21
-52.973880000000001
 31
0.0
  0
LINE
  5
307
  8
OUTLINE
  6
CONTINUOUS
 62
     3
 10
43.0
 20
-52.973880000000001
 30
0.0
 11
43.285575000000001
 21
-52.856303000000011
 31
0.0
  0
LINE
  5
308
  8
OUTLINE
  6
CONTINUOUS
 62
     3
 10
43.285575000000001
 20
-52.856303000000011
 30
0.0
 11
43.532088999999999
 21
-52.711353000000003
 31
0.0
  0
LINE
  5
309
  8
OUTLINE
  6
CONTINUOUS
 62
     3
 10
43.532088999999999
 20
-52.711353000000003
 30
0.0
 11
43.732050999999991
 21
-52.543433999999991
 31
0.0
  0
LINE
  5
30A
  8
OUTLINE
  6
CONTINUOUS
 62
     3
 10
43.732050999999991
 20
-52.543433999999991
 30
0.0
 11
43.879384999999992
 21
-52.35765
 31
0.0
  0
LINE
  5
30B
  8
OUTLINE
  6
CONTINUOUS
 62
     3
 10
43.879384999999992
 20
-52.35765
 30
0.0
 11
43.969616000000002
 21
-52.159645000000012
 31
0.0
  0
LINE
  5
30C
  8
OUTLINE
  6
CONTINUOUS
 62
     3
 10
43.969616000000002
 20
-52.159645000000012
 30
0.0
 11
44.0
 21
-51.955433999999997
 31
0.0
  0
LINE
  5
30D
  8
OUTLINE
  6
CONTINUOUS
 62
     3
 10
42.0
 20
-65.313609999999997
 30
0.0
 11
15.0
 21
-66.142103000000006
 31
0.0
  0
LINE
  5
30E
  8
OUTLINE
  6
CONTINUOUS
 62
     3
 10
15.0
 20
-64.655705000000012
 30
0.0
 11
44.0
 21
-63.765841000000002
 31
0.0
  0
LINE
  5
30F
  8
OUTLINE
  6
CONTINUOUS
 62
     3
 10
42.0
 20
-66.785696999999999
 30
0.0
 11
15.0
 21
-67.614191000000005
 31
0.0
  0
LINE
  5
310
  8
OUTLINE
  6
CONTINUOUS
 62
     3
 10
44.0
 20
-63.765841000000002
 30
0.0
 11
44.0
 21
-65.299696999999995
 31
0.0
  0
LINE
  5
311
  8
OUTLINE
  6
CONTINUOUS
 62
     3
 10
42.0
 20
-65.313609999999997
 30
0.0
 11
42.356383999999998
 21
-65.289827000000002
 31
0.0
  0
LINE
  5
312
  8
OUTLINE
  6
CONTINUOUS
 62
     3
 10
42.356383999999998
 20
-65.289827000000002
 30
0.0
 11
42.701360999999999
 21
-65.219240999999997
 31
0.0
  0
LINE
  5
313
  8
OUTLINE
  6
CONTINUOUS
 62
     3
 10
42.701360999999999
 20
-65.219240999999997
 30
0.0
 11
43.023887999999999
 21
-65.104111000000003
 31
0.0
  0
LINE
  5
314
  8
OUTLINE
  6
CONTINUOUS
 62
     3
 10
43.023887999999999
 20
-65.104111000000003
 30
0.0
 11
43.313642000000002
 21
-64.948122999999995
 31
0.0
  0
LINE
  5
315
  8
OUTLINE
  6
CONTINUOUS
 62
     3
 10
43.313642000000002
 20
-64.948122999999995
 30
0.0
 11
43.561348999999993
 21
-64.756268000000006
 31
0.0
  0
LINE
  5
316
  8
OUTLINE
  6
CONTINUOUS
 62
     3
 10
43.561348999999993
 20
-64.756268000000006
 30
0.0
 11
43.759078000000002
 21
-64.534688000000003
 31
0.0
  0
LINE
  5
317
  8
OUTLINE
  6
CONTINUOUS
 62
     3
 10
43.759078000000002
 20
-64.534688000000003
 30
0.0
 11
43.900503
 21
-64.290475000000001
 31
0.0
  0
LINE
  5
318
  8
OUTLINE
  6
CONTINUOUS
 62
     3
 10
43.900503
 20
-64.290475000000001
 30
0.0
 11
43.981095000000003
 21
-64.031447
 31
0.0
  0
LINE
  5
319
  8
OUTLINE
  6
CONTINUOUS
 62
     3
 10
43.981095000000003
 20
-64.031447
 30
0.0
 11
43.998274000000002
 21
-63.765894000000003
 31
0.0
  0
LINE
  5
31A
  8
OUTLINE
  6
CONTINUOUS
 62
     3
 10
42.0
 20
-66.785696999999999
 30
0.0
 11
42.347296
 21
-66.763120999999998
 31
0.0
  0
LINE
  5
31B
  8
OUTLINE
  6
CONTINUOUS
 62
     3
 10
42.347296
 20
-66.763120999999998
 30
0.0
 11
42.684040000000003
 21
-66.696080000000009
 31
0.0
  0
LINE
  5
31C
  8
OUTLINE
  6
CONTINUOUS
 62
     3
 10
42.684040000000003
 20
-66.696080000000009
 30
0.0
 11
43.0
 21
-66.586611000000005
 31
0.0
  0
LINE
  5
31D
  8
OUTLINE
  6
CONTINUOUS
 62
     3
 10
43.0
 20
-66.586611000000005
 30
0.0
 11
43.285575000000001
 21
-66.438039000000003
 31
0.0
  0
LINE
  5
31E
  8
OUTLINE
  6
CONTINUOUS
 62
     3
 10
43.285575000000001
 20
-66.438039000000003
 30
0.0
 11
43.532088999999999
 21
-66.254879000000003
 31
0.0
  0
LINE
  5
31F
  8
OUTLINE
  6
CONTINUOUS
 62
     3
 10
43.532088999999999
 20
-66.254879000000003
 30
0.0
 11
43.732050999999991
 21
-66.042697000000004
 31
0.0
  0
LINE
  5
320
  8
OUTLINE
  6
CONTINUOUS
 62
     3
 10
43.732050999999991
 20
-66.042697000000004
 30
0.0
 11
43.879384999999992
 21
-65.807938000000007
 31
0.0
  0
LINE
  5
321
  8
OUTLINE
  6
CONTINUOUS
 62
     3
 10
43.879384999999992
 20
-65.807938000000007
 30
0.0
 11
43.969616000000002
 21
-65.557738000000001
 31
0.0
  0
LINE
  5
322
  8
OUTLINE
  6
CONTINUOUS
 62
     3
 10
43.969616000000002
 20
-65.557738000000001
 30
0.0
 11
44.0
 21
-65.299695999999997
 31
0.0
  0
LINE
  5
323
  8
OUTLINE
  6
CONTINUOUS
 62
     3
 10
15.0
 20
-77.38659100000001
 30
0.0
 11
42.0
 21
-76.421103999999985
 31
0.0
  0
LINE
  5
324
  8
OUTLINE
  6
CONTINUOUS
 62
     3
 10
43.998289
 20
-74.617469999999983
 30
0.0
 11
42.0
 21
-74.688927000000007
 31
0.0
  0
LINE
  5
325
  8
OUTLINE
  6
CONTINUOUS
 62
     3
 10
15.0
 20
-78.486591000000004
 30
0.0
 11
42.0
 21
-77.521104000000008
 31
0.0
  0
LINE
  5
326
  8
OUTLINE
  6
CONTINUOUS
 62
     3
 10
44.0
 20
-74.689104
 30
0.0
 11
44.0
 21
-75.789104000000009
 31
0.0
  0
LINE
  5
327
  8
OUTLINE
  6
CONTINUOUS
 62
     3
 10
42.0
 20
-76.421103999999985
 30
0.0
 11
42.390180999999998
 21
-76.387823999999995
 31
0.0
  0
LINE
  5
328
  8
OUTLINE
  6
CONTINUOUS
 62
     3
 10
42.390180999999998
 20
-76.387823999999995
 30
0.0
 11
42.765366999999998
 21
-76.289263000000005
 31
0.0
  0
LINE
  5
329
  8
OUTLINE
  6
CONTINUOUS
 62
     3
 10
42.765366999999998
 20
-76.289263000000005
 30
0.0
 11
43.111139999999992
 21
-76.129209000000003
 31
0.0
  0
LINE
  5
32A
  8
OUTLINE
  6
CONTINUOUS
 62
     3
 10
43.111139999999992
 20
-76.129209000000003
 30
0.0
 11
43.414214000000001
 21
-75.913813000000005
 31
0.0
  0
LINE
  5
32B
  8
OUTLINE
  6
CONTINUOUS
 62
     3
 10
43.414214000000001
 20
-75.913813000000005
 30
0.0
 11
43.662939000000001
 21
-75.651352000000003
 31
0.0
  0
LINE
  5
32C
  8
OUTLINE
  6
CONTINUOUS
 62
     3
 10
43.662939000000001
 20
-75.651352000000003
 30
0.0
 11
43.847759000000003
 21
-75.351911999999984
 31
0.0
  0
LINE
  5
32D
  8
OUTLINE
  6
CONTINUOUS
 62
     3
 10
43.847759000000003
 20
-75.351911999999984
 30
0.0
 11
43.961570999999992
 21
-75.027000000000001
 31
0.0
  0
LINE
  5
32E
  8
OUTLINE
  6
CONTINUOUS
 62
     3
 10
43.961570999999992
 20
-75.027000000000001
 30
0.0
 11
44.0
 21
-74.689104
 31
0.0
  0
LINE
  5
32F
  8
OUTLINE
  6
CONTINUOUS
 62
     3
 10
42.0
 20
-77.521104000000008
 30
0.0
 11
42.390180999999998
 21
-77.487824000000003
 31
0.0
  0
LINE
  5
330
  8
OUTLINE
  6
CONTINUOUS
 62
     3
 10
42.390180999999998
 20
-77.487824000000003
 30
0.0
 11
42.765366999999998
 21
-77.389263
 31
0.0
  0
LINE
  5
331
  8
OUTLINE
  6
CONTINUOUS
 62
     3
 10
42.765366999999998
 20
-77.389263
 30
0.0
 11
43.111139999999992
 21
-77.229208999999997
 31
0.0
  0
LINE
  5
332
  8
OUTLINE
  6
CONTINUOUS
 62
     3
 10
43.111139999999992
 20
-77.229208999999997
 30
0.0
 11
43.414214000000001
 21
-77.013812999999999
 31
0.0
  0
LINE
  5
333
  8
OUTLINE
  6
CONTINUOUS
 62
     3
 10
43.414214000000001
 20
-77.013812999999999
 30
0.0
 11
43.662939000000001
 21
-76.751351999999983
 31
0.0
  0
LINE
  5
334
  8
OUTLINE
  6
CONTINUOUS
 62
     3
 10
43.662939000000001
 20
-76.751351999999983
 30
0.0
 11
43.847759000000003
 21
-76.451911999999993
 31
0.0
  0
LINE
  5
335
  8
OUTLINE
  6
CONTINUOUS
 62
     3
 10
43.847759000000003
 20
-76.451911999999993
 30
0.0
 11
43.961570999999992
 21
-76.126999999999995
 31
0.0
  0
LINE
  5
336
  8
OUTLINE
  6
CONTINUOUS
 62
     3
 10
43.961570999999992
 20
-76.126999999999995
 30
0.0
 11
44.0
 21
-75.789104000000009
 31
0.0
  0
LINE
  5
337
  8
OUTLINE
  6
CONTINUOUS
 62
     3
 10
15.0
 20
-73.922092000000006
 30
0.0
 11
42.0
 21
-72.95660500000001
 31
0.0
  0
LINE
  5
338
  8
OUTLINE
  6
CONTINUOUS
 62
     3
 10
15.0
 20
-81.444250999999994
 30
0.0
 11
42.0
 21
-80.383966999999984
 31
0.0
  0
LINE
  5
339
  8
OUTLINE
  6
CONTINUOUS
 62
     3
 10
10.0
 20
-43.632923999999988
 30
0.0
 11
10.0
 21
-30.717967999999999
 31
0.0
  0
ARC
  5
33A
  8
OUTLINE
  6
CONTINUOUS
 62
     3
 10
-40.0
 20
-30.717967999999999
 30
0.0
 40
50.0
 50
0.0
 51
30.0
  0
LINE
  5
33B
  8
OUTLINE
  6
CONTINUOUS
 62
     3
 10
15.0
 20
78.486591000000004
 30
0.0
 11
15.0
 21
90.0
 31
0.0
  0
LINE
  5
33C
  8
OUTLINE
  6
DASHED
 62
     3
 10
42.0
 20
84.954812999999987
 30
0.0
 11
42.0
 21
81.952984000000001
 31
0.0
  0
LINE
  5
33D
  8
OUTLINE
  6
CONTINUOUS
 62
     3
 10
42.0
 20
77.521104000000008
 30
0.0
 11
42.0
 21
82.286377000000002
 31
0.0
  0
ARC
  5
33E
  8
OUTLINE
  6
CONTINUOUS
 62
     3
 10
75.04140799999999
 20
68.790618999999992
 30
0.0
 40
17.0
 50
27.697375000000001
 51
88.0
  0
LINE
  5
33F
  8
OUTLINE
  6
CONTINUOUS
 62
     3
 10
15.0
 20
67.614191000000005
 30
0.0
 11
15.0
 21
77.38659100000001
 31
0.0
  0
LINE
  5
340
  8
OUTLINE
  6
CONTINUOUS
 62
     3
 10
15.0
 20
53.786726000000002
 30
0.0
 11
15.0
 21
66.142103000000006
 31
0.0
  0
LINE
  5
341
  8
OUTLINE
  6
CONTINUOUS
 62
     3
 10
15.0
 20
37.608522999999998
 30
0.0
 11
15.0
 21
52.006889000000001
 31
0.0
  0
LINE
  5
342
  8
OUTLINE
  6
CONTINUOUS
 62
     3
 10
15.0
 20
35.598723
 30
0.0
 11
15.0
 21
19.786646999999999
 31
0.0
  0
LINE
  5
343
  8
OUTLINE
  6
CONTINUOUS
 62
     3
 10
15.0
 20
17.634723000000001
 30
0.0
 11
15.0
 21
1.1000000000000001
 31
0.0
  0
LINE
  5
344
  8
OUTLINE
  6
CONTINUOUS
 62
     3
 10
44.0
 20
74.689104
 30
0.0
 11
44.0
 21
75.789104000000009
 31
0.0
  0
LINE
  5
345
  8
OUTLINE
  6
CONTINUOUS
 62
     3
 10
15.0
 20
81.444250999999994
 30
0.0
 11
42.0
 21
80.383966999999984
 31
0.0
  0
LINE
  5
346
  8
OUTLINE
  6
CONTINUOUS
 62
     3
 10
15.0
 20
73.922092000000006
 30
0.0
 11
42.0
 21
72.95660500000001
 31
0.0
  0
LINE
  5
347
  8
OUTLINE
  6
CONTINUOUS
 62
     3
 10
15.0
 20
78.486591000000004
 30
0.0
 11
42.0
 21
77.521104000000008
 31
0.0
  0
LINE
  5
348
  8
OUTLINE
  6
CONTINUOUS
 62
     3
 10
15.0
 20
77.38659100000001
 30
0.0
 11
42.0
 21
76.421103999999985
 31
0.0
  0
LINE
  5
349
  8
OUTLINE
  6
CONTINUOUS
 62
     3
 10
42.0
 20
77.521104000000008
 30
0.0
 11
42.390180999999998
 21
77.487824000000003
 31
0.0
  0
LINE
  5
34A
  8
OUTLINE
  6
CONTINUOUS
 62
     3
 10
42.390180999999998
 20
77.487824000000003
 30
0.0
 11
42.765366999999998
 21
77.389263
 31
0.0
  0
LINE
  5
34B
  8
OUTLINE
  6
CONTINUOUS
 62
     3
 10
42.765366999999998
 20
77.389263
 30
0.0
 11
43.111139999999992
 21
77.229208999999997
 31
0.0
  0
LINE
  5
34C
  8
OUTLINE
  6
CONTINUOUS
 62
     3
 10
43.111139999999992
 20
77.229208999999997
 30
0.0
 11
43.414214000000001
 21
77.013812999999999
 31
0.0
  0
LINE
  5
34D
  8
OUTLINE
  6
CONTINUOUS
 62
     3
 10
43.414214000000001
 20
77.013812999999999
 30
0.0
 11
43.662939000000001
 21
76.751351999999983
 31
0.0
  0
LINE
  5
34E
  8
OUTLINE
  6
CONTINUOUS
 62
     3
 10
43.662939000000001
 20
76.751351999999983
 30
0.0
 11
43.847759000000003
 21
76.451911999999993
 31
0.0
  0
LINE
  5
34F
  8
OUTLINE
  6
CONTINUOUS
 62
     3
 10
43.847759000000003
 20
76.451911999999993
 30
0.0
 11
43.961570999999992
 21
76.126999999999995
 31
0.0
  0
LINE
  5
350
  8
OUTLINE
  6
CONTINUOUS
 62
     3
 10
43.961570999999992
 20
76.126999999999995
 30
0.0
 11
44.0
 21
75.789104000000009
 31
0.0
  0
LINE
  5
351
  8
OUTLINE
  6
CONTINUOUS
 62
     3
 10
42.0
 20
76.421103999999985
 30
0.0
 11
42.390180999999998
 21
76.387823999999995
 31
0.0
  0
LINE
  5
352
  8
OUTLINE
  6
CONTINUOUS
 62
     3
 10
42.390180999999998
 20
76.387823999999995
 30
0.0
 11
42.765366999999998
 21
76.289263000000005
 31
0.0
  0
LINE
  5
353
  8
OUTLINE
  6
CONTINUOUS
 62
     3
 10
42.765366999999998
 20
76.289263000000005
 30
0.0
 11
43.111139999999992
 21
76.129209000000003
 31
0.0
  0
LINE
  5
354
  8
OUTLINE
  6
CONTINUOUS
 62
     3
 10
43.111139999999992
 20
76.129209000000003
 30
0.0
 11
43.414214000000001
 21
75.913813000000005
 31
0.0
  0
LINE
  5
355
  8
OUTLINE
  6
CONTINUOUS
 62
     3
 10
43.414214000000001
 20
75.913813000000005
 30
0.0
 11
43.662939000000001
 21
75.651352000000003
 31
0.0
  0
LINE
  5
356
  8
OUTLINE
  6
CONTINUOUS
 62
     3
 10
43.662939000000001
 20
75.651352000000003
 30
0.0
 11
43.847759000000003
 21
75.351911999999984
 31
0.0
  0
LINE
  5
357
  8
OUTLINE
  6
CONTINUOUS
 62
     3
 10
43.847759000000003
 20
75.351911999999984
 30
0.0
 11
43.961570999999992
 21
75.027000000000001
 31
0.0
  0
LINE
  5
358
  8
OUTLINE
  6
CONTINUOUS
 62
     3
 10
43.961570999999992
 20
75.027000000000001
 30
0.0
 11
44.0
 21
74.689104
 31
0.0
  0
LINE
  5
359
  8
OUTLINE
  6
CONTINUOUS
 62
     3
 10
43.998289
 20
74.617469999999983
 30
0.0
 11
42.0
 21
74.688927000000007
 31
0.0
  0
LINE
  5
35A
  8
OUTLINE
  6
CONTINUOUS
 62
     3
 10
44.0
 20
74.689104
 30
0.0
 11
44.0
 21
75.789104000000009
 31
0.0
  0
LINE
  5
35B
  8
OUTLINE
  6
CONTINUOUS
 62
     3
 10
44.0
 20
63.765841000000002
 30
0.0
 11
44.0
 21
65.299696999999995
 31
0.0
  0
LINE
  5
35C
  8
OUTLINE
  6
CONTINUOUS
 62
     3
 10
15.0
 20
73.922092000000006
 30
0.0
 11
42.0
 21
72.95660500000001
 31
0.0
  0
LINE
  5
35D
  8
OUTLINE
  6
CONTINUOUS
 62
     3
 10
42.0
 20
66.785696999999999
 30
0.0
 11
15.0
 21
67.614191000000005
 31
0.0
  0
LINE
  5
35E
  8
OUTLINE
  6
CONTINUOUS
 62
     3
 10
42.0
 20
65.313609999999997
 30
0.0
 11
15.0
 21
66.142103000000006
 31
0.0
  0
LINE
  5
35F
  8
OUTLINE
  6
CONTINUOUS
 62
     3
 10
42.0
 20
66.785696999999999
 30
0.0
 11
42.0
 21
74.688927000000007
 31
0.0
  0
LINE
  5
360
  8
OUTLINE
  6
CONTINUOUS
 62
     3
 10
42.0
 20
69.945669999999993
 30
0.0
 11
42.0
 21
66.785696999999999
 31
0.0
  0
LINE
  5
361
  8
OUTLINE
  6
CONTINUOUS
 62
     3
 10
43.998289
 20
74.617469999999983
 30
0.0
 11
42.0
 21
74.688927000000007
 31
0.0
  0
LINE
  5
362
  8
OUTLINE
  6
CONTINUOUS
 62
     3
 10
42.0
 20
66.785696999999999
 30
0.0
 11
42.347296
 21
66.763120999999998
 31
0.0
  0
LINE
  5
363
  8
OUTLINE
  6
CONTINUOUS
 62
     3
 10
42.347296
 20
66.763120999999998
 30
0.0
 11
42.684040000000003
 21
66.696080000000009
 31
0.0
  0
LINE
  5
364
  8
OUTLINE
  6
CONTINUOUS
 62
     3
 10
42.684040000000003
 20
66.696080000000009
 30
0.0
 11
43.0
 21
66.586611000000005
 31
0.0
  0
LINE
  5
365
  8
OUTLINE
  6
CONTINUOUS
 62
     3
 10
43.0
 20
66.586611000000005
 30
0.0
 11
43.285575000000001
 21
66.438039000000003
 31
0.0
  0
LINE
  5
366
  8
OUTLINE
  6
CONTINUOUS
 62
     3
 10
43.285575000000001
 20
66.438039000000003
 30
0.0
 11
43.532088999999999
 21
66.254879000000003
 31
0.0
  0
LINE
  5
367
  8
OUTLINE
  6
CONTINUOUS
 62
     3
 10
43.532088999999999
 20
66.254879000000003
 30
0.0
 11
43.732050999999991
 21
66.042697000000004
 31
0.0
  0
LINE
  5
368
  8
OUTLINE
  6
CONTINUOUS
 62
     3
 10
43.732050999999991
 20
66.042697000000004
 30
0.0
 11
43.879384999999992
 21
65.807938000000007
 31
0.0
  0
LINE
  5
369
  8
OUTLINE
  6
CONTINUOUS
 62
     3
 10
43.879384999999992
 20
65.807938000000007
 30
0.0
 11
43.969616000000002
 21
65.557738000000001
 31
0.0
  0
LINE
  5
36A
  8
OUTLINE
  6
CONTINUOUS
 62
     3
 10
43.969616000000002
 20
65.557738000000001
 30
0.0
 11
44.0
 21
65.299695999999997
 31
0.0
  0
LINE
  5
36B
  8
OUTLINE
  6
CONTINUOUS
 62
     3
 10
42.0
 20
65.313609999999997
 30
0.0
 11
42.356383999999998
 21
65.289827000000002
 31
0.0
  0
LINE
  5
36C
  8
OUTLINE
  6
CONTINUOUS
 62
     3
 10
42.356383999999998
 20
65.289827000000002
 30
0.0
 11
42.701360999999999
 21
65.219240999999997
 31
0.0
  0
LINE
  5
36D
  8
OUTLINE
  6
CONTINUOUS
 62
     3
 10
42.701360999999999
 20
65.219240999999997
 30
0.0
 11
43.023887999999999
 21
65.104111000000003
 31
0.0
  0
LINE
  5
36E
  8
OUTLINE
  6
CONTINUOUS
 62
     3
 10
43.023887999999999
 20
65.104111000000003
 30
0.0
 11
43.313642000000002
 21
64.948122999999995
 31
0.0
  0
LINE
  5
36F
  8
OUTLINE
  6
CONTINUOUS
 62
     3
 10
43.313642000000002
 20
64.948122999999995
 30
0.0
 11
43.561348999999993
 21
64.756268000000006
 31
0.0
  0
LINE
  5
370
  8
OUTLINE
  6
CONTINUOUS
 62
     3
 10
43.561348999999993
 20
64.756268000000006
 30
0.0
 11
43.759078000000002
 21
64.534688000000003
 31
0.0
  0
LINE
  5
371
  8
OUTLINE
  6
CONTINUOUS
 62
     3
 10
43.759078000000002
 20
64.534688000000003
 30
0.0
 11
43.900503
 21
64.290475000000001
 31
0.0
  0
LINE
  5
372
  8
OUTLINE
  6
CONTINUOUS
 62
     3
 10
43.900503
 20
64.290475000000001
 30
0.0
 11
43.981095000000003
 21
64.031447
 31
0.0
  0
LINE
  5
373
  8
OUTLINE
  6
CONTINUOUS
 62
     3
 10
43.981095000000003
 20
64.031447
 30
0.0
 11
43.998274000000002
 21
63.765894000000003
 31
0.0
  0
LINE
  5
374
  8
OUTLINE
  6
CONTINUOUS
 62
     3
 10
15.0
 20
64.655705000000012
 30
0.0
 11
44.0
 21
63.765841000000002
 31
0.0
  0
LINE
  5
375
  8
OUTLINE
  6
CONTINUOUS
 62
     3
 10
44.0
 20
50.175596999999989
 30
0.0
 11
44.0
 21
51.955433999999997
 31
0.0
  0
LINE
  5
376
  8
OUTLINE
  6
CONTINUOUS
 62
     3
 10
44.0
 20
34.331273000000003
 30
0.0
 11
44.0
 21
36.341073000000002
 31
0.0
  0
LINE
  5
377
  8
OUTLINE
  6
CONTINUOUS
 62
     3
 10
15.0
 20
53.786726000000002
 30
0.0
 11
42.0
 21
53.131433999999999
 31
0.0
  0
LINE
  5
378
  8
OUTLINE
  6
CONTINUOUS
 62
     3
 10
15.0
 20
52.006889000000001
 30
0.0
 11
42.0
 21
51.351596999999991
 31
0.0
  0
LINE
  5
379
  8
OUTLINE
  6
CONTINUOUS
 62
     3
 10
42.0
 20
37.155073000000002
 30
0.0
 11
15.0
 21
37.608522999999998
 31
0.0
  0
LINE
  5
37A
  8
OUTLINE
  6
CONTINUOUS
 62
     3
 10
42.0
 20
35.145273000000003
 30
0.0
 11
15.0
 21
35.598723
 31
0.0
  0
LINE
  5
37B
  8
OUTLINE
  6
CONTINUOUS
 62
     3
 10
42.0
 20
53.131433999999999
 30
0.0
 11
42.347296
 21
53.113568000000008
 31
0.0
  0
LINE
  5
37C
  8
OUTLINE
  6
CONTINUOUS
 62
     3
 10
42.347296
 20
53.113568000000008
 30
0.0
 11
42.684040000000003
 21
53.060513
 31
0.0
  0
LINE
  5
37D
  8
OUTLINE
  6
CONTINUOUS
 62
     3
 10
42.684040000000003
 20
53.060513
 30
0.0
 11
43.0
 21
52.973880000000001
 31
0.0
  0
LINE
  5
37E
  8
OUTLINE
  6
CONTINUOUS
 62
     3
 10
43.0
 20
52.973880000000001
 30
0.0
 11
43.285575000000001
 21
52.856303000000011
 31
0.0
  0
LINE
  5
37F
  8
OUTLINE
  6
CONTINUOUS
 62
     3
 10
43.285575000000001
 20
52.856303000000011
 30
0.0
 11
43.532088999999999
 21
52.711353000000003
 31
0.0
  0
LINE
  5
380
  8
OUTLINE
  6
CONTINUOUS
 62
     3
 10
43.532088999999999
 20
52.711353000000003
 30
0.0
 11
43.732050999999991
 21
52.543433999999991
 31
0.0
  0
LINE
  5
381
  8
OUTLINE
  6
CONTINUOUS
 62
     3
 10
43.732050999999991
 20
52.543433999999991
 30
0.0
 11
43.879384999999992
 21
52.35765
 31
0.0
  0
LINE
  5
382
  8
OUTLINE
  6
CONTINUOUS
 62
     3
 10
43.879384999999992
 20
52.35765
 30
0.0
 11
43.969616000000002
 21
52.159645000000012
 31
0.0
  0
LINE
  5
383
  8
OUTLINE
  6
CONTINUOUS
 62
     3
 10
43.969616000000002
 20
52.159645000000012
 30
0.0
 11
44.0
 21
51.955433999999997
 31
0.0
  0
LINE
  5
384
  8
OUTLINE
  6
CONTINUOUS
 62
     3
 10
42.0
 20
51.351596999999991
 30
0.0
 11
42.390180999999998
 21
51.329000999999998
 31
0.0
  0
LINE
  5
385
  8
OUTLINE
  6
CONTINUOUS
 62
     3
 10
42.390180999999998
 20
51.329000999999998
 30
0.0
 11
42.765366999999998
 21
51.262079
 31
0.0
  0
LINE
  5
386
  8
OUTLINE
  6
CONTINUOUS
 62
     3
 10
42.765366999999998
 20
51.262079
 30
0.0
 11
43.111139999999992
 21
51.153404999999999
 31
0.0
  0
LINE
  5
387
  8
OUTLINE
  6
CONTINUOUS
 62
     3
 10
43.111139999999992
 20
51.153404999999999
 30
0.0
 11
43.414214000000001
 21
51.00715499999999
 31
0.0
  0
LINE
  5
388
  8
OUTLINE
  6
CONTINUOUS
 62
     3
 10
43.414214000000001
 20
51.00715499999999
 30
0.0
 11
43.662939000000001
 21
50.828947999999997
 31
0.0
  0
LINE
  5
389
  8
OUTLINE
  6
CONTINUOUS
 62
     3
 10
43.662939000000001
 20
50.828947999999997
 30
0.0
 11
43.847759000000003
 21
50.625633000000001
 31
0.0
  0
LINE
  5
38A
  8
OUTLINE
  6
CONTINUOUS
 62
     3
 10
43.847759000000003
 20
50.625633000000001
 30
0.0
 11
43.961570999999992
 21
50.405022999999993
 31
0.0
  0
LINE
  5
38B
  8
OUTLINE
  6
CONTINUOUS
 62
     3
 10
43.961570999999992
 20
50.405022999999993
 30
0.0
 11
44.0
 21
50.175596999999989
 31
0.0
  0
LINE
  5
38C
  8
OUTLINE
  6
CONTINUOUS
 62
     3
 10
15.0
 20
50.831232
 30
0.0
 11
44.0
 21
50.127400999999999
 31
0.0
  0
LINE
  5
38D
  8
OUTLINE
  6
CONTINUOUS
 62
     3
 10
42.0
 20
37.155073000000002
 30
0.0
 11
42.390180999999998
 21
37.139432999999997
 31
0.0
  0
LINE
  5
38E
  8
OUTLINE
  6
CONTINUOUS
 62
     3
 10
42.390180999999998
 20
37.139432999999997
 30
0.0
 11
42.765366999999998
 21
37.093111
 31
0.0
  0
LINE
  5
38F
  8
OUTLINE
  6
CONTINUOUS
 62
     3
 10
42.765366999999998
 20
37.093111
 30
0.0
 11
43.111139999999992
 21
37.017890000000001
 31
0.0
  0
LINE
  5
390
  8
OUTLINE
  6
CONTINUOUS
 62
     3
 10
43.111139999999992
 20
37.017890000000001
 30
0.0
 11
43.414214000000001
 21
36.916657999999998
 31
0.0
  0
LINE
  5
391
  8
OUTLINE
  6
CONTINUOUS
 62
     3
 10
43.414214000000001
 20
36.916657999999998
 30
0.0
 11
43.662939000000001
 21
36.79330800000001
 31
0.0
  0
LINE
  5
392
  8
OUTLINE
  6
CONTINUOUS
 62
     3
 10
43.662939000000001
 20
36.79330800000001
 30
0.0
 11
43.847759000000003
 21
36.652578000000013
 31
0.0
  0
LINE
  5
393
  8
OUTLINE
  6
CONTINUOUS
 62
     3
 10
43.847759000000003
 20
36.652578000000013
 30
0.0
 11
43.961570999999992
 21
36.499876999999998
 31
0.0
  0
LINE
  5
394
  8
OUTLINE
  6
CONTINUOUS
 62
     3
 10
43.961570999999992
 20
36.499876999999998
 30
0.0
 11
44.0
 21
36.341073000000002
 31
0.0
  0
LINE
  5
395
  8
OUTLINE
  6
CONTINUOUS
 62
     3
 10
42.0
 20
35.145273000000003
 30
0.0
 11
42.390180999999998
 21
35.129632999999998
 31
0.0
  0
LINE
  5
396
  8
OUTLINE
  6
CONTINUOUS
 62
     3
 10
42.390180999999998
 20
35.129632999999998
 30
0.0
 11
42.765366999999998
 21
35.083311000000002
 31
0.0
  0
LINE
  5
397
  8
OUTLINE
  6
CONTINUOUS
 62
     3
 10
42.765366999999998
 20
35.083311000000002
 30
0.0
 11
43.111139999999992
 21
35.008090000000003
 31
0.0
  0
LINE
  5
398
  8
OUTLINE
  6
CONTINUOUS
 62
     3
 10
43.111139999999992
 20
35.008090000000003
 30
0.0
 11
43.414214000000001
 21
34.906858
 31
0.0
  0
LINE
  5
399
  8
OUTLINE
  6
CONTINUOUS
 62
     3
 10
43.414214000000001
 20
34.906858
 30
0.0
 11
43.662939000000001
 21
34.783508000000012
 31
0.0
  0
LINE
  5
39A
  8
OUTLINE
  6
CONTINUOUS
 62
     3
 10
43.662939000000001
 20
34.783508000000012
 30
0.0
 11
43.847759000000003
 21
34.642778
 31
0.0
  0
LINE
  5
39B
  8
OUTLINE
  6
CONTINUOUS
 62
     3
 10
43.847759000000003
 20
34.642778
 30
0.0
 11
43.961570999999992
 21
34.490076999999999
 31
0.0
  0
LINE
  5
39C
  8
OUTLINE
  6
CONTINUOUS
 62
     3
 10
43.961570999999992
 20
34.490076999999999
 30
0.0
 11
44.0
 21
34.331273000000003
 31
0.0
  0
LINE
  5
39D
  8
OUTLINE
  6
CONTINUOUS
 62
     3
 10
15.0
 20
34.78519
 30
0.0
 11
43.998346000000012
 21
34.298180000000002
 31
0.0
  0
LINE
  5
39E
  8
OUTLINE
  6
CONTINUOUS
 62
     3
 10
44.0
 20
16.969877
 30
0.0
 11
44.0
 21
19.138704000000001
 31
0.0
  0
LINE
  5
39F
  8
OUTLINE
  6
CONTINUOUS
 62
     3
 10
15.0
 20
19.786646999999999
 30
0.0
 11
42.0
 21
19.578703999999998
 31
0.0
  0
LINE
  5
3A0
  8
OUTLINE
  6
CONTINUOUS
 62
     3
 10
15.0
 20
17.634723000000001
 30
0.0
 11
42.0
 21
17.42677999999999
 31
0.0
  0
LINE
  5
3A1
  8
OUTLINE
  6
CONTINUOUS
 62
     3
 10
42.0
 20
19.578703999999998
 30
0.0
 11
42.390180999999998
 21
19.570250000000001
 31
0.0
  0
LINE
  5
3A2
  8
OUTLINE
  6
CONTINUOUS
 62
     3
 10
42.390180999999998
 20
19.570250000000001
 30
0.0
 11
42.765366999999998
 21
19.545210999999998
 31
0.0
  0
LINE
  5
3A3
  8
OUTLINE
  6
CONTINUOUS
 62
     3
 10
42.765366999999998
 20
19.545210999999998
 30
0.0
 11
43.111139999999992
 21
19.504550999999999
 31
0.0
  0
LINE
  5
3A4
  8
OUTLINE
  6
CONTINUOUS
 62
     3
 10
43.111139999999992
 20
19.504550999999999
 30
0.0
 11
43.414214000000001
 21
19.449831
 31
0.0
  0
LINE
  5
3A5
  8
OUTLINE
  6
CONTINUOUS
 62
     3
 10
43.414214000000001
 20
19.449831
 30
0.0
 11
43.662939000000001
 21
19.383154999999999
 31
0.0
  0
LINE
  5
3A6
  8
OUTLINE
  6
CONTINUOUS
 62
     3
 10
43.662939000000001
 20
19.383154999999999
 30
0.0
 11
43.847759000000003
 21
19.307085000000001
 31
0.0
  0
LINE
  5
3A7
  8
OUTLINE
  6
CONTINUOUS
 62
     3
 10
43.847759000000003
 20
19.307085000000001
 30
0.0
 11
43.961570999999992
 21
19.224544000000002
 31
0.0
  0
LINE
  5
3A8
  8
OUTLINE
  6
CONTINUOUS
 62
     3
 10
43.961570999999992
 20
19.224544000000002
 30
0.0
 11
44.0
 21
19.138704000000001
 31
0.0
  0
LINE
  5
3A9
  8
OUTLINE
  6
CONTINUOUS
 62
     3
 10
42.0
 20
17.42677999999999
 30
0.0
 11
42.355696000000002
 21
17.419764999999991
 31
0.0
  0
LINE
  5
3AA
  8
OUTLINE
  6
CONTINUOUS
 62
     3
 10
42.355696000000002
 20
17.419764999999991
 30
0.0
 11
42.700051000000002
 21
17.398945000000001
 31
0.0
  0
LINE
  5
3AB
  8
OUTLINE
  6
CONTINUOUS
 62
     3
 10
42.700051000000002
 20
17.398945000000001
 30
0.0
 11
43.02208499999999
 21
17.364984
 31
0.0
  0
LINE
  5
3AC
  8
OUTLINE
  6
CONTINUOUS
 62
     3
 10
43.02208499999999
 20
17.364984
 30
0.0
 11
43.311531000000002
 21
17.318964000000001
 31
0.0
  0
LINE
  5
3AD
  8
OUTLINE
  6
CONTINUOUS
 62
     3
 10
43.311531000000002
 20
17.318964000000001
 30
0.0
 11
43.559159999999991
 21
17.262353000000001
 31
0.0
  0
LINE
  5
3AE
  8
OUTLINE
  6
CONTINUOUS
 62
     3
 10
43.559159999999991
 20
17.262353000000001
 30
0.0
 11
43.757077000000002
 21
17.196954999999999
 31
0.0
  0
LINE
  5
3AF
  8
OUTLINE
  6
CONTINUOUS
 62
     3
 10
43.757077000000002
 20
17.196954999999999
 30
0.0
 11
43.898972000000001
 21
17.124856000000001
 31
0.0
  0
LINE
  5
3B0
  8
OUTLINE
  6
CONTINUOUS
 62
     3
 10
43.898972000000001
 20
17.124856000000001
 30
0.0
 11
43.980319000000001
 21
17.04835499999999
 31
0.0
  0
LINE
  5
3B1
  8
OUTLINE
  6
CONTINUOUS
 62
     3
 10
43.980319000000001
 20
17.04835499999999
 30
0.0
 11
43.998525999999998
 21
16.969889999999999
 31
0.0
  0
LINE
  5
3B2
  8
OUTLINE
  6
CONTINUOUS
 62
     3
 10
15.0
 20
17.218837000000001
 30
0.0
 11
44.0
 21
16.969877
 31
0.0
  0
LINE
  5
3B3
  8
OUTLINE
  6
CONTINUOUS
 62
     3
 10
15.0
 20
1.1000000000000001
 30
0.0
 11
44.0
 21
1.1000000000000001
 31
0.0
  0
LINE
  5
3B4
  8
OUTLINE
  6
CONTINUOUS
 62
     3
 10
43.998525999999998
 20
16.969889999999999
 30
0.0
 11
43.980319000000001
 21
17.04835499999999
 31
0.0
  0
LINE
  5
3B5
  8
OUTLINE
  6
CONTINUOUS
 62
     3
 10
43.980319000000001
 20
17.04835499999999
 30
0.0
 11
43.898972000000001
 21
17.124856000000001
 31
0.0
  0
LINE
  5
3B6
  8
OUTLINE
  6
CONTINUOUS
 62
     3
 10
43.898972000000001
 20
17.124856000000001
 30
0.0
 11
43.757077000000002
 21
17.196954999999999
 31
0.0
  0
LINE
  5
3B7
  8
OUTLINE
  6
CONTINUOUS
 62
     3
 10
43.757077000000002
 20
17.196954999999999
 30
0.0
 11
43.559159999999991
 21
17.262353000000001
 31
0.0
  0
LINE
  5
3B8
  8
OUTLINE
  6
CONTINUOUS
 62
     3
 10
43.559159999999991
 20
17.262353000000001
 30
0.0
 11
43.311531000000002
 21
17.318964000000001
 31
0.0
  0
LINE
  5
3B9
  8
OUTLINE
  6
CONTINUOUS
 62
     3
 10
43.311531000000002
 20
17.318964000000001
 30
0.0
 11
43.02208499999999
 21
17.364984
 31
0.0
  0
LINE
  5
3BA
  8
OUTLINE
  6
CONTINUOUS
 62
     3
 10
43.02208499999999
 20
17.364984
 30
0.0
 11
42.700051000000002
 21
17.398945000000001
 31
0.0
  0
LINE
  5
3BB
  8
OUTLINE
  6
CONTINUOUS
 62
     3
 10
42.700051000000002
 20
17.398945000000001
 30
0.0
 11
42.355696000000002
 21
17.419764999999991
 31
0.0
  0
LINE
  5
3BC
  8
OUTLINE
  6
CONTINUOUS
 62
     3
 10
42.355696000000002
 20
17.419764999999991
 30
0.0
 11
42.0
 21
17.42677999999999
 31
0.0
  0
LINE
  5
3BD
  8
OUTLINE
  6
CONTINUOUS
 62
     3
 10
44.0
 20
16.969877
 30
0.0
 11
44.0
 21
19.138704000000001
 31
0.0
  0
LINE
  5
3BE
  8
OUTLINE
  6
CONTINUOUS
 62
     3
 10
44.0
 20
19.138704000000001
 30
0.0
 11
43.961570999999992
 21
19.224544000000002
 31
0.0
  0
LINE
  5
3BF
  8
OUTLINE
  6
CONTINUOUS
 62
     3
 10
43.961570999999992
 20
19.224544000000002
 30
0.0
 11
43.847759000000003
 21
19.307085000000001
 31
0.0
  0
LINE
  5
3C0
  8
OUTLINE
  6
CONTINUOUS
 62
     3
 10
43.847759000000003
 20
19.307085000000001
 30
0.0
 11
43.662939000000001
 21
19.383154999999999
 31
0.0
  0
LINE
  5
3C1
  8
OUTLINE
  6
CONTINUOUS
 62
     3
 10
43.662939000000001
 20
19.383154999999999
 30
0.0
 11
43.414214000000001
 21
19.449831
 31
0.0
  0
LINE
  5
3C2
  8
OUTLINE
  6
CONTINUOUS
 62
     3
 10
43.414214000000001
 20
19.449831
 30
0.0
 11
43.111139999999992
 21
19.504550999999999
 31
0.0
  0
LINE
  5
3C3
  8
OUTLINE
  6
CONTINUOUS
 62
     3
 10
43.111139999999992
 20
19.504550999999999
 30
0.0
 11
42.765366999999998
 21
19.545210999999998
 31
0.0
  0
LINE
  5
3C4
  8
OUTLINE
  6
CONTINUOUS
 62
     3
 10
42.765366999999998
 20
19.545210999999998
 30
0.0
 11
42.390180999999998
 21
19.570250000000001
 31
0.0
  0
LINE
  5
3C5
  8
OUTLINE
  6
CONTINUOUS
 62
     3
 10
42.390180999999998
 20
19.570250000000001
 30
0.0
 11
42.0
 21
19.578703999999998
 31
0.0
  0
LINE
  5
3C6
  8
OUTLINE
  6
CONTINUOUS
 62
     3
 10
15.0
 20
17.218837000000001
 30
0.0
 11
44.0
 21
16.969877
 31
0.0
  0
LINE
  5
3C7
  8
OUTLINE
  6
CONTINUOUS
 62
     3
 10
15.0
 20
17.634723000000001
 30
0.0
 11
42.0
 21
17.42677999999999
 31
0.0
  0
LINE
  5
3C8
  8
OUTLINE
  6
CONTINUOUS
 62
     3
 10
15.0
 20
19.786646999999999
 30
0.0
 11
42.0
 21
19.578703999999998
 31
0.0
  0
LINE
  5
3C9
  8
OUTLINE
  6
CONTINUOUS
 62
     3
 10
75.634047999999993
 20
85.78150500000001
 30
0.0
 11
43.994844000000001
 21
86.886370999999997
 31
0.0
  0
LINE
  5
3CA
  8
OUTLINE
  6
CONTINUOUS
 62
     3
 10
44.0
 20
86.517669999999995
 30
0.0
 11
44.0
 21
86.205389999999994
 31
0.0
  0
LINE
  5
3CB
  8
OUTLINE
  6
CONTINUOUS
 62
     3
 10
44.0
 20
82.935389999999998
 30
0.0
 11
44.0
 21
82.207837999999995
 31
0.0
  0
LINE
  5
3CC
  8
OUTLINE
  6
CONTINUOUS
 62
     3
 10
42.0
 20
86.287518999999989
 30
0.0
 11
42.0
 21
84.837389999999985
 31
0.0
  0
LINE
  5
3CD
  8
OUTLINE
  6
CONTINUOUS
 62
     3
 10
42.0
 20
88.506669999999986
 30
0.0
 11
15.0
 21
89.615412000000006
 31
0.0
  0
LINE
  5
3CE
  8
OUTLINE
  6
CONTINUOUS
 62
     3
 10
42.0
 20
88.276707999999985
 30
0.0
 11
15.0
 21
89.385448999999994
 31
0.0
  0
LINE
  5
3CF
  8
OUTLINE
  6
CONTINUOUS
 62
     3
 10
15.0
 20
85.897673999999995
 30
0.0
 11
42.0
 21
84.837389999999985
 31
0.0
  0
LINE
  5
3D0
  8
OUTLINE
  6
CONTINUOUS
 62
     3
 10
15.0
 20
85.248913000000002
 30
0.0
 11
42.0
 21
84.188629000000006
 31
0.0
  0
LINE
  5
3D1
  8
OUTLINE
  6
CONTINUOUS
 62
     3
 10
42.065860999999991
 20
88.954950999999994
 30
0.0
 11
15.0
 21
89.900111999999993
 31
0.0
  0
LINE
  5
3D2
  8
OUTLINE
  6
CONTINUOUS
 62
     3
 10
42.0
 20
88.506669999999986
 30
0.0
 11
42.347296
 21
88.476453000000006
 31
0.0
  0
LINE
  5
3D3
  8
OUTLINE
  6
CONTINUOUS
 62
     3
 10
42.347296
 20
88.476453000000006
 30
0.0
 11
42.684040000000003
 21
88.386718999999985
 31
0.0
  0
LINE
  5
3D4
  8
OUTLINE
  6
CONTINUOUS
 62
     3
 10
42.684040000000003
 20
88.386718999999985
 30
0.0
 11
43.0
 21
88.240195
 31
0.0
  0
LINE
  5
3D5
  8
OUTLINE
  6
CONTINUOUS
 62
     3
 10
43.0
 20
88.240195
 30
0.0
 11
43.285575000000001
 21
88.041332999999995
 31
0.0
  0
LINE
  5
3D6
  8
OUTLINE
  6
CONTINUOUS
 62
     3
 10
43.285575000000001
 20
88.041332999999995
 30
0.0
 11
43.532088999999999
 21
87.796175000000005
 31
0.0
  0
LINE
  5
3D7
  8
OUTLINE
  6
CONTINUOUS
 62
     3
 10
43.532088999999999
 20
87.796175000000005
 30
0.0
 11
43.732050999999991
 21
87.512169999999998
 31
0.0
  0
LINE
  5
3D8
  8
OUTLINE
  6
CONTINUOUS
 62
     3
 10
43.732050999999991
 20
87.512169999999998
 30
0.0
 11
43.879384999999992
 21
87.197947999999997
 31
0.0
  0
LINE
  5
3D9
  8
OUTLINE
  6
CONTINUOUS
 62
     3
 10
43.879384999999992
 20
87.197947999999997
 30
0.0
 11
43.969616000000002
 21
86.863056
 31
0.0
  0
LINE
  5
3DA
  8
OUTLINE
  6
CONTINUOUS
 62
     3
 10
43.969616000000002
 20
86.863056
 30
0.0
 11
44.0
 21
86.517669999999995
 31
0.0
  0
LINE
  5
3DB
  8
OUTLINE
  6
CONTINUOUS
 62
     3
 10
42.0
 20
88.276707999999985
 30
0.0
 11
42.356344999999997
 21
88.24488199999999
 31
0.0
  0
LINE
  5
3DC
  8
OUTLINE
  6
CONTINUOUS
 62
     3
 10
42.356344999999997
 20
88.24488199999999
 30
0.0
 11
42.701285999999989
 21
88.150424999999998
 31
0.0
  0
LINE
  5
3DD
  8
OUTLINE
  6
CONTINUOUS
 62
     3
 10
42.701285999999989
 20
88.150424999999998
 30
0.0
 11
43.02378499999999
 21
87.996356999999989
 31
0.0
  0
LINE
  5
3DE
  8
OUTLINE
  6
CONTINUOUS
 62
     3
 10
43.02378499999999
 20
87.996356999999989
 30
0.0
 11
43.313521999999999
 21
87.787610999999998
 31
0.0
  0
LINE
  5
3DF
  8
OUTLINE
  6
CONTINUOUS
 62
     3
 10
43.313521999999999
 20
87.787610999999998
 30
0.0
 11
43.561223999999989
 21
87.530865000000006
 31
0.0
  0
LINE
  5
3E0
  8
OUTLINE
  6
CONTINUOUS
 62
     3
 10
43.561223999999989
 20
87.530865000000006
 30
0.0
 11
43.758963999999999
 21
87.234335999999985
 31
0.0
  0
LINE
  5
3E1
  8
OUTLINE
  6
CONTINUOUS
 62
     3
 10
43.758963999999999
 20
87.234335999999985
 30
0.0
 11
43.900415000000002
 21
86.907514000000006
 31
0.0
  0
LINE
  5
3E2
  8
OUTLINE
  6
CONTINUOUS
 62
     3
 10
43.900415000000002
 20
86.907514000000006
 30
0.0
 11
43.981051000000001
 21
86.560857999999996
 31
0.0
  0
LINE
  5
3E3
  8
OUTLINE
  6
CONTINUOUS
 62
     3
 10
43.981051000000001
 20
86.560857999999996
 30
0.0
 11
43.998289
 21
86.205460000000002
 31
0.0
  0
LINE
  5
3E4
  8
OUTLINE
  6
CONTINUOUS
 62
     3
 10
42.0
 20
86.287518999999989
 30
0.0
 11
44.0
 21
86.205389999999994
 31
0.0
  0
LINE
  5
3E5
  8
OUTLINE
  6
CONTINUOUS
 62
     3
 10
42.0
 20
84.837389999999985
 30
0.0
 11
42.390180999999998
 21
84.800843999999998
 31
0.0
  0
LINE
  5
3E6
  8
OUTLINE
  6
CONTINUOUS
 62
     3
 10
42.390180999999998
 20
84.800843999999998
 30
0.0
 11
42.765366999999998
 21
84.692609000000004
 31
0.0
  0
LINE
  5
3E7
  8
OUTLINE
  6
CONTINUOUS
 62
     3
 10
42.765366999999998
 20
84.692609000000004
 30
0.0
 11
43.111139999999992
 21
84.516844999999975
 31
0.0
  0
LINE
  5
3E8
  8
OUTLINE
  6
CONTINUOUS
 62
     3
 10
43.111139999999992
 20
84.516844999999975
 30
0.0
 11
43.414214000000001
 21
84.280306999999979
 31
0.0
  0
LINE
  5
3E9
  8
OUTLINE
  6
CONTINUOUS
 62
     3
 10
43.414214000000001
 20
84.280306999999979
 30
0.0
 11
43.662939000000001
 21
83.992085000000003
 31
0.0
  0
LINE
  5
3EA
  8
OUTLINE
  6
CONTINUOUS
 62
     3
 10
43.662939000000001
 20
83.992085000000003
 30
0.0
 11
43.847759000000003
 21
83.663253999999995
 31
0.0
  0
LINE
  5
3EB
  8
OUTLINE
  6
CONTINUOUS
 62
     3
 10
43.847759000000003
 20
83.663253999999995
 30
0.0
 11
43.961570999999992
 21
83.306452000000007
 31
0.0
  0
LINE
  5
3EC
  8
OUTLINE
  6
CONTINUOUS
 62
     3
 10
43.961570999999992
 20
83.306452000000007
 30
0.0
 11
44.0
 21
82.935389999999998
 31
0.0
  0
LINE
  5
3ED
  8
OUTLINE
  6
CONTINUOUS
 62
     3
 10
42.0
 20
84.188629000000006
 30
0.0
 11
42.390180999999998
 21
84.15208299999999
 31
0.0
  0
LINE
  5
3EE
  8
OUTLINE
  6
CONTINUOUS
 62
     3
 10
42.390180999999998
 20
84.15208299999999
 30
0.0
 11
42.765366999999998
 21
84.043847999999997
 31
0.0
  0
LINE
  5
3EF
  8
OUTLINE
  6
CONTINUOUS
 62
     3
 10
42.765366999999998
 20
84.043847999999997
 30
0.0
 11
43.111139999999992
 21
83.868084999999994
 31
0.0
  0
LINE
  5
3F0
  8
OUTLINE
  6
CONTINUOUS
 62
     3
 10
43.111139999999992
 20
83.868084999999994
 30
0.0
 11
43.414214000000001
 21
83.631546999999998
 31
0.0
  0
LINE
  5
3F1
  8
OUTLINE
  6
CONTINUOUS
 62
     3
 10
43.414214000000001
 20
83.631546999999998
 30
0.0
 11
43.662939000000001
 21
83.343323999999996
 31
0.0
  0
LINE
  5
3F2
  8
OUTLINE
  6
CONTINUOUS
 62
     3
 10
43.662939000000001
 20
83.343323999999996
 30
0.0
 11
43.847759000000003
 21
83.014492999999987
 31
0.0
  0
LINE
  5
3F3
  8
OUTLINE
  6
CONTINUOUS
 62
     3
 10
43.847759000000003
 20
83.014492999999987
 30
0.0
 11
43.961570999999992
 21
82.657690999999986
 31
0.0
  0
LINE
  5
3F4
  8
OUTLINE
  6
CONTINUOUS
 62
     3
 10
43.961570999999992
 20
82.657690999999986
 30
0.0
 11
44.0
 21
82.286629000000005
 31
0.0
  0
LINE
  5
3F5
  8
OUTLINE
  6
CONTINUOUS
 62
     3
 10
42.0
 20
82.286377000000002
 30
0.0
 11
44.0
 21
82.207837999999995
 31
0.0
  0
ARC
  5
3F6
  8
OUTLINE
  6
CONTINUOUS
 62
     3
 10
41.996062000000002
 20
86.95617
 30
0.0
 40
2.0
 50
358.0
 51
88.0
  0
TEXT
  5
401
  8
ETC
  6
CONTINUOUS
 62
    61
 10
191.23883999641271
 20
365.11429974325978
 30
0.0
 40
50.0
  1
P-100BN3_5
 41
0.9
  0
TEXT
  5
402
  8
ETC
  6
CONTINUOUS
 62
    61
 10
177.6953399964128
 20
276.64485633571343
 30
0.0
 40
50.0
  1
システム部材
 41
0.9
  0
TEXT
  5
403
  8
ETC
  6
CONTINUOUS
 62
    61
 10
350.42328700509898
 20
212.07134784270721
 30
0.0
 40
50.0
  1
P-100BN3
 41
0.9
  0
ENDSEC
  0
EOF
