  0
SECTION
  2
HEADER
  9
$ACADVER
  1
AC1009
  9
$INSBASE
 10
0.0
 20
0.0
 30
0.0
  9
$EXTMIN
 10
-517.08524942757322
 20
-313.70543247753079
 30
-0.0015257624927045
  9
$EXTMAX
 10
866.03852456439915
 20
402.46582811519693
 30
50.001525995323327
  9
$LIMMIN
 10
-2970.0
 20
-2100.0
  9
$LIMMAX
 10
2970.0
 20
2100.0
  9
$ORTHOMODE
 70
     1
  9
$REGENMODE
 70
     0
  9
$FILLMODE
 70
     1
  9
$QTEXTMODE
 70
     0
  9
$MIRRTEXT
 70
     0
  9
$DRAGMODE
 70
     2
  9
$LTSCALE
 40
20.0
  9
$OSMODE
 70
    37
  9
$ATTMODE
 70
     1
  9
$TEXTSIZE
 40
64.0
  9
$TRACEWID
 40
0.05
  9
$TEXTSTYLE
  7
STANDARD
  9
$CLAYER
  8
OUTLINE
  9
$CELTYPE
  6
CONTINUOUS
  9
$CECOLOR
 62
     3
  9
$DIMSCALE
 40
1.0
  9
$DIMASZ
 40
12.0
  9
$DIMEXO
 40
20.0
  9
$DIMDLI
 40
200.0
  9
$DIMRND
 40
0.0
  9
$DIMDLE
 40
0.0
  9
$DIMEXE
 40
20.0
  9
$DIMTP
 40
0.0
  9
$DIMTM
 40
0.0
  9
$DIMTXT
 40
64.0
  9
$DIMCEN
 40
0.09
  9
$DIMTSZ
 40
0.0
  9
$DIMTOL
 70
     0
  9
$DIMLIM
 70
     0
  9
$DIMTIH
 70
     0
  9
$DIMTOH
 70
     0
  9
$DIMSE1
 70
     0
  9
$DIMSE2
 70
     0
  9
$DIMTAD
 70
     1
  9
$DIMZIN
 70
     8
  9
$DIMBLK
  1
DOT1
  9
$DIMASO
 70
     1
  9
$DIMSHO
 70
     0
  9
$DIMPOST
  1

  9
$DIMAPOST
  1

  9
$DIMALT
 70
     0
  9
$DIMALTD
 70
     2
  9
$DIMALTF
 40
25.399999999999999
  9
$DIMLFAC
 40
1.0
  9
$DIMTOFL
 70
     1
  9
$DIMTVP
 40
0.0
  9
$DIMTIX
 70
     1
  9
$DIMSOXD
 70
     0
  9
$DIMSAH
 70
     1
  9
$DIMBLK1
  1
ORIGIN
  9
$DIMBLK2
  1
ORIGIN
  9
$DIMSTYLE
  2
STANDARD
  9
$DIMCLRD
 70
     7
  9
$DIMCLRE
 70
     7
  9
$DIMCLRT
 70
     7
  9
$DIMTFAC
 40
1.0
  9
$DIMGAP
 40
25.0
  9
$LUNITS
 70
     2
  9
$LUPREC
 70
     4
  9
$SKETCHINC
 40
0.1
  9
$FILLETRAD
 40
4.0
  9
$AUNITS
 70
     1
  9
$AUPREC
 70
     3
  9
$MENU
  1
ACAD
  9
$ELEVATION
 40
0.0
  9
$PELEVATION
 40
0.0
  9
$THICKNESS
 40
50.0
  9
$LIMCHECK
 70
     0
  9
$BLIPMODE
 70
     0
  9
$CHAMFERA
 40
0.0
  9
$CHAMFERB
 40
0.0
  9
$SKPOLY
 70
     0
  9
$TDCREATE
 40
2453138.8258560649
  9
$TDUPDATE
 40
2455048.4178366442
  9
$TDINDWG
 40
0.0879507292
  9
$TDUSRTIMER
 40
0.0879503704
  9
$USRTIMER
 70
     1
  9
$ANGBASE
 50
0.0
  9
$ANGDIR
 70
     0
  9
$PDMODE
 70
     3
  9
$PDSIZE
 40
-2.0
  9
$PLINEWID
 40
0.0
  9
$COORDS
 70
     0
  9
$SPLFRAME
 70
     0
  9
$SPLINETYPE
 70
     6
  9
$SPLINESEGS
 70
     8
  9
$ATTDIA
 70
     0
  9
$ATTREQ
 70
     1
  9
$HANDLING
 70
     1
  9
$HANDSEED
  5
828
  9
$SURFTAB1
 70
     6
  9
$SURFTAB2
 70
     6
  9
$SURFTYPE
 70
     6
  9
$SURFU
 70
     6
  9
$SURFV
 70
     6
  9
$UCSNAME
  2

  9
$UCSORG
 10
0.0
 20
0.0
 30
0.0
  9
$UCSXDIR
 10
1.0
 20
0.0
 30
0.0
  9
$UCSYDIR
 10
0.0
 20
1.0
 30
0.0
  9
$PUCSNAME
  2

  9
$PUCSORG
 10
0.0
 20
0.0
 30
0.0
  9
$PUCSXDIR
 10
1.0
 20
0.0
 30
0.0
  9
$PUCSYDIR
 10
0.0
 20
1.0
 30
0.0
  9
$USERI1
 70
     0
  9
$USERI2
 70
     0
  9
$USERI3
 70
     0
  9
$USERI4
 70
     0
  9
$USERI5
 70
     0
  9
$USERR1
 40
20.0
  9
$USERR2
 40
0.0
  9
$USERR3
 40
0.0
  9
$USERR4
 40
0.0
  9
$USERR5
 40
0.0
  9
$WORLDVIEW
 70
     1
  9
$SHADEDGE
 70
     3
  9
$SHADEDIF
 70
    70
  9
$TILEMODE
 70
     1
  9
$MAXACTVP
 70
    48
  9
$PLIMCHECK
 70
     0
  9
$PEXTMIN
 10
-1.0000000000000000E+020
 20
-1.0000000000000000E+020
 30
-1.0000000000000000E+020
  9
$PEXTMAX
 10
1.0000000000000000E+020
 20
1.0000000000000000E+020
 30
1.0000000000000000E+020
  9
$PLIMMIN
 10
0.0
 20
0.0
  9
$PLIMMAX
 10
12.0
 20
9.0
  9
$UNITMODE
 70
     0
  9
$VISRETAIN
 70
     0
  9
$PLINEGEN
 70
     0
  9
$PSLTSCALE
 70
     0
  0
ENDSEC
  0
SECTION
  2
TABLES
  0
TABLE
  2
VPORT
 70
     1
  0
VPORT
  2
*ACTIVE
 70
     0
 10
0.0
 20
0.0
 11
1.0
 21
1.0
 12
216.96318861345489
 22
15.779696494444689
 13
0.0
 23
0.0
 14
1.0
 24
1.0
 15
0.0
 25
0.0
 16
0.0
 26
0.0
 36
1.0
 17
0.0
 27
0.0
 37
0.0
 40
1301.8840385847509
 41
1.198113207547169
 42
50.0
 43
0.0
 44
0.0
 50
0.0
 51
0.0
 71
     0
 72
  1000
 73
     1
 74
     0
 75
     0
 76
     0
 77
     0
 78
     0
  0
ENDTAB
  0
TABLE
  2
LTYPE
 70
     2
  0
LTYPE
  2
CONTINUOUS
 70
     0
  3
実線
 72
    65
 73
     0
 40
0.0
  0
LTYPE
  2
DASHDOT
 70
     0
  3
____ _ ____ _ ____ _ ____ _ ____ _ ____ _ ____
 72
    65
 73
     4
 40
5.5
 49
4.0
 49
-0.6
 49
0.3
 49
-0.6
  0
ENDTAB
  0
TABLE
  2
LAYER
 70
    12
  0
LAYER
  2
0
 70
     0
 62
     7
  6
CONTINUOUS
  0
LAYER
  2
OUTLINE
 70
     0
 62
     3
  6
CONTINUOUS
  0
LAYER
  2
SIZE
 70
     0
 62
    30
  6
CONTINUOUS
  0
LAYER
  2
BASIS
 70
     0
 62
     6
  6
DASHDOT
  0
LAYER
  2
DETAIL
 70
     0
 62
     5
  6
CONTINUOUS
  0
LAYER
  2
ARRANGE
 70
     0
 62
     1
  6
CONTINUOUS
  0
LAYER
  2
DEFPOINTS
 70
     0
 62
     7
  6
CONTINUOUS
  0
LAYER
  2
ETC
 70
     0
 62
    61
  6
CONTINUOUS
  0
LAYER
  2
FIX
 70
     0
 62
    11
  6
CONTINUOUS
  0
LAYER
  2
NOTE
 70
     0
 62
     4
  6
CONTINUOUS
  0
LAYER
  2
SERVICESPACE
 70
     0
 62
     2
  6
DASHDOT
  0
LAYER
  2
SYMBOLLINE
 70
     0
 62
    15
  6
CONTINUOUS
  0
ENDTAB
  0
TABLE
  2
STYLE
 70
     2
  0
STYLE
  2
STANDARD
 70
     0
 40
64.0
 41
0.9
 50
0.0
 71
     0
 42
64.0
  3
SIMPLEX.shx
  4
BIGFONT.shx
  0
STYLE
  2
ANNOTATIVE
 70
     0
 40
0.0
 41
1.0
 50
0.0
 71
     0
 42
0.2
  3
txt
  4

  0
ENDTAB
  0
TABLE
  2
VIEW
 70
     1
  0
VIEW
  2
ALL
 70
     0
 40
4282.6198079999967
 10
0.0
 20
41.309903999999989
 41
5940.0
 11
0.0
 21
0.0
 31
1.0
 12
0.0
 22
0.0
 32
0.0
 42
50.0
 43
0.0
 44
0.0
 50
0.0
 71
     0
  0
ENDTAB
  0
TABLE
  2
UCS
 70
     0
  0
ENDTAB
  0
TABLE
  2
APPID
 70
     4
  0
APPID
  2
ACAD
 70
     0
  0
APPID
  2
ACADANNOTATIVE
 70
     0
  0
APPID
  2
ACAD_MLEADERVER
 70
     0
  0
APPID
  2
AUTOCAD_POSTSCRIPT_FIGURE
 70
     0
  0
ENDTAB
  0
TABLE
  2
DIMSTYLE
 70
     2
  0
DIMSTYLE
  2
STANDARD
 70
     0
  3

  4

  5

  6

  7

 40
1.0
 41
0.18
 42
0.0625
 43
0.38
 44
0.18
 45
0.0
 46
0.0
 47
0.0
 48
0.0
140
0.18
141
0.09
142
0.0
143
25.399999999999999
144
1.0
145
0.0
146
1.0
147
0.09
 71
     0
 72
     0
 73
     1
 74
     1
 75
     0
 76
     0
 77
     0
 78
     0
170
     0
171
     2
172
     0
173
     0
174
     0
175
     0
176
     7
177
     7
178
     7
  0
DIMSTYLE
  2
ANNOTATIVE
 70
     0
  3

  4

  5

  6

  7

 40
1.0
 41
0.18
 42
0.0625
 43
0.38
 44
0.18
 45
0.0
 46
0.0
 47
0.0
 48
0.0
140
0.18
141
0.09
142
0.0
143
25.399999999999999
144
1.0
145
0.0
146
1.0
147
0.09
 71
     0
 72
     0
 73
     1
 74
     1
 75
     0
 76
     0
 77
     0
 78
     0
170
     0
171
     2
172
     0
173
     0
174
     0
175
     0
176
     0
177
     0
178
     0
  0
ENDTAB
  0
ENDSEC
  0
SECTION
  2
BLOCKS
  0
BLOCK
  8
0
  2
$MODEL_SPACE
 70
     0
 10
0.0
 20
0.0
 30
0.0
  3
$MODEL_SPACE
  1

  0
ENDBLK
  5
7D4
  8
0
  0
BLOCK
 67
     1
  8
0
  2
$PAPER_SPACE
 70
     0
 10
0.0
 20
0.0
 30
0.0
  3
$PAPER_SPACE
  1

  0
ENDBLK
  5
7D0
 67
     1
  8
0
  0
BLOCK
  8
0
  2
DOT1
 70
     0
 10
0.0
 20
0.0
 30
0.0
  3
DOT1
  1

  0
CIRCLE
  5
3F4
  8
SIZE
  6
CONTINUOUS
 62
     7
 10
0.0
 20
0.0
 30
0.0
 40
3.0
  0
ENDBLK
  5
3F5
  8
0
  0
BLOCK
  8
0
  2
_ORIGIN
 70
     0
 10
0.0
 20
0.0
 30
0.0
  3
_ORIGIN
  1

  0
CIRCLE
  5
3F8
  8
0
  6
CONTINUOUS
 62
     7
 10
0.0
 20
0.0
 30
0.0
 40
0.5
  0
LINE
  5
3F9
  8
0
  6
CONTINUOUS
 62
     7
 10
0.0
 20
0.0
 30
0.0
 11
-1.0
 21
0.0
 31
0.0
  0
ENDBLK
  5
3FA
  8
0
  0
ENDSEC
  0
SECTION
  2
ENTITIES
  0
LINE
  5
3FB
  8
BASIS
  6
DASHDOT
 62
     6
 39
50.0
 10
0.0
 20
49.299501999999968
 30
0.0
 11
0.0
 21
-137.30851299999989
 31
0.0
  0
CIRCLE
  5
3FC
  8
ARRANGE
  6
CONTINUOUS
 62
     1
 39
50.0
 10
0.0
 20
0.0
 30
0.0
 40
40.0
  0
POINT
  5
3FD
  8
ARRANGE
  6
CONTINUOUS
 62
     1
 10
0.0
 20
0.0
 30
0.0
 39
50.0
  0
LINE
  5
3FE
  8
DETAIL
  6
CONTINUOUS
 62
     5
 10
100.0
 20
-5.196151999999997
 30
0.0
 11
100.0
 21
0.0
 31
0.0
  0
LINE
  5
3FF
  8
DETAIL
  6
CONTINUOUS
 62
     5
 10
100.13397500000001
 20
-5.6961519999999686
 30
0.0
 11
108.0
 21
-19.0
 31
0.0
  0
LINE
  5
400
  8
DETAIL
  6
CONTINUOUS
 62
     5
 10
106.267949
 20
-20.0
 30
0.0
 11
108.0
 21
-19.0
 31
0.0
  0
LINE
  5
401
  8
DETAIL
  6
CONTINUOUS
 62
     5
 10
-13.383217999999999
 20
0.0
 30
0.0
 11
100.0
 21
0.0
 31
0.0
  0
LINE
  5
402
  8
DETAIL
  6
CONTINUOUS
 62
     5
 10
-100.0
 20
0.0
 30
0.0
 11
-13.383217999999999
 21
0.0
 31
0.0
  0
LINE
  5
403
  8
DETAIL
  6
CONTINUOUS
 62
     5
 10
-19.786646999999991
 20
-14.99999999999998
 30
0.0
 11
-19.578703999999998
 21
-41.999999999999979
 31
0.0
  0
LINE
  5
404
  8
DETAIL
  6
CONTINUOUS
 62
     5
 10
-17.634723000000001
 20
-14.99999999999998
 30
0.0
 11
-17.42677999999999
 21
-41.999999999999979
 31
0.0
  0
LINE
  5
405
  8
DETAIL
  6
CONTINUOUS
 62
     5
 10
-17.218837000000001
 20
-14.99999999999998
 30
0.0
 11
-16.969877
 21
-43.999999999999979
 31
0.0
  0
LINE
  5
406
  8
DETAIL
  6
CONTINUOUS
 62
     5
 10
-19.138704000000001
 20
-43.999999999999979
 30
0.0
 11
-19.224544000000002
 21
-43.961570999999992
 31
0.0
  0
LINE
  5
407
  8
DETAIL
  6
CONTINUOUS
 62
     5
 10
-19.224544000000002
 20
-43.961570999999992
 30
0.0
 11
-19.307085000000001
 21
-43.847758999999989
 31
0.0
  0
LINE
  5
408
  8
DETAIL
  6
CONTINUOUS
 62
     5
 10
-19.307085000000001
 20
-43.847758999999989
 30
0.0
 11
-19.383154999999991
 21
-43.66293899999998
 31
0.0
  0
LINE
  5
409
  8
DETAIL
  6
CONTINUOUS
 62
     5
 10
-19.383154999999991
 20
-43.66293899999998
 30
0.0
 11
-19.449830999999989
 21
-43.414214000000001
 31
0.0
  0
LINE
  5
40A
  8
DETAIL
  6
CONTINUOUS
 62
     5
 10
-19.449830999999989
 20
-43.414214000000001
 30
0.0
 11
-19.504550999999999
 21
-43.111139999999992
 31
0.0
  0
LINE
  5
40B
  8
DETAIL
  6
CONTINUOUS
 62
     5
 10
-19.504550999999999
 20
-43.111139999999992
 30
0.0
 11
-19.545210999999998
 21
-42.765366999999983
 31
0.0
  0
LINE
  5
40C
  8
DETAIL
  6
CONTINUOUS
 62
     5
 10
-19.545210999999998
 20
-42.765366999999983
 30
0.0
 11
-19.570250000000001
 21
-42.390180999999998
 31
0.0
  0
LINE
  5
40D
  8
DETAIL
  6
CONTINUOUS
 62
     5
 10
-19.570250000000001
 20
-42.390180999999998
 30
0.0
 11
-19.578703999999998
 21
-41.999999999999979
 31
0.0
  0
LINE
  5
40E
  8
DETAIL
  6
CONTINUOUS
 62
     5
 10
-16.969877
 20
-43.999999999999979
 30
0.0
 11
-19.138704000000001
 21
-43.999999999999979
 31
0.0
  0
LINE
  5
40F
  8
DETAIL
  6
CONTINUOUS
 62
     5
 10
-16.969889999999999
 20
-43.998525999999991
 30
0.0
 11
-17.04835499999999
 21
-43.98031899999998
 31
0.0
  0
LINE
  5
410
  8
DETAIL
  6
CONTINUOUS
 62
     5
 10
-17.04835499999999
 20
-43.98031899999998
 30
0.0
 11
-17.124856000000001
 21
-43.898971999999993
 31
0.0
  0
LINE
  5
411
  8
DETAIL
  6
CONTINUOUS
 62
     5
 10
-17.124856000000001
 20
-43.898971999999993
 30
0.0
 11
-17.196954999999999
 21
-43.757076999999981
 31
0.0
  0
LINE
  5
412
  8
DETAIL
  6
CONTINUOUS
 62
     5
 10
-17.196954999999999
 20
-43.757076999999981
 30
0.0
 11
-17.262353000000001
 21
-43.559159999999991
 31
0.0
  0
LINE
  5
413
  8
DETAIL
  6
CONTINUOUS
 62
     5
 10
-17.262353000000001
 20
-43.559159999999991
 30
0.0
 11
-17.318964000000001
 21
-43.311531000000002
 31
0.0
  0
LINE
  5
414
  8
DETAIL
  6
CONTINUOUS
 62
     5
 10
-17.318964000000001
 20
-43.311531000000002
 30
0.0
 11
-17.364984
 21
-43.02208499999999
 31
0.0
  0
LINE
  5
415
  8
DETAIL
  6
CONTINUOUS
 62
     5
 10
-17.364984
 20
-43.02208499999999
 30
0.0
 11
-17.398945000000001
 21
-42.700050999999981
 31
0.0
  0
LINE
  5
416
  8
DETAIL
  6
CONTINUOUS
 62
     5
 10
-17.398945000000001
 20
-42.700050999999981
 30
0.0
 11
-17.419764999999991
 21
-42.355695999999988
 31
0.0
  0
LINE
  5
417
  8
DETAIL
  6
CONTINUOUS
 62
     5
 10
-17.419764999999991
 20
-42.355695999999988
 30
0.0
 11
-17.42677999999999
 21
-41.999999999999979
 31
0.0
  0
LINE
  5
418
  8
DETAIL
  6
CONTINUOUS
 62
     5
 10
0.0
 20
-43.999999999999979
 30
0.0
 11
-1.1000000000000001
 21
-43.999999999999979
 31
0.0
  0
LINE
  5
419
  8
DETAIL
  6
CONTINUOUS
 62
     5
 10
-1.1000000000000001
 20
-14.99999999999998
 30
0.0
 11
-1.1000000000000001
 21
-43.999999999999979
 31
0.0
  0
ARC
  5
41A
  8
DETAIL
  6
CONTINUOUS
 62
     5
 10
-68.790618999999992
 20
-75.041407999999961
 30
0.0
 40
17.0
 50
182.0
 51
242.30262499999989
  0
ARC
  5
41B
  8
DETAIL
  6
CONTINUOUS
 62
     5
 10
68.791860999999997
 20
-75.040755999999988
 30
0.0
 40
17.0
 50
297.69791800000002
 51
358.0
  0
ARC
  5
41C
  8
DETAIL
  6
CONTINUOUS
 62
     5
 10
0.0
 20
55.999999999999901
 30
0.0
 40
165.0
 50
242.30262499999989
 51
297.69791800000002
  0
LINE
  5
41D
  8
DETAIL
  6
CONTINUOUS
 62
     5
 10
88.506669999999986
 20
-41.999999999999979
 30
0.0
 11
88.476453000000006
 21
-42.347295999999979
 31
0.0
  0
LINE
  5
41E
  8
DETAIL
  6
CONTINUOUS
 62
     5
 10
88.476453000000006
 20
-42.347295999999979
 30
0.0
 11
88.386718999999985
 21
-42.684039999999989
 31
0.0
  0
LINE
  5
41F
  8
DETAIL
  6
CONTINUOUS
 62
     5
 10
88.386718999999985
 20
-42.684039999999989
 30
0.0
 11
88.240195
 21
-42.999999999999979
 31
0.0
  0
LINE
  5
420
  8
DETAIL
  6
CONTINUOUS
 62
     5
 10
88.240195
 20
-42.999999999999979
 30
0.0
 11
88.04133299999998
 21
-43.28557499999998
 31
0.0
  0
LINE
  5
421
  8
DETAIL
  6
CONTINUOUS
 62
     5
 10
88.04133299999998
 20
-43.28557499999998
 30
0.0
 11
87.796175000000005
 21
-43.532088999999999
 31
0.0
  0
LINE
  5
422
  8
DETAIL
  6
CONTINUOUS
 62
     5
 10
87.796175000000005
 20
-43.532088999999999
 30
0.0
 11
87.512169999999998
 21
-43.732050999999977
 31
0.0
  0
LINE
  5
423
  8
DETAIL
  6
CONTINUOUS
 62
     5
 10
87.512169999999998
 20
-43.732050999999977
 30
0.0
 11
87.197947999999982
 21
-43.879384999999992
 31
0.0
  0
LINE
  5
424
  8
DETAIL
  6
CONTINUOUS
 62
     5
 10
87.197947999999982
 20
-43.879384999999992
 30
0.0
 11
86.863056
 21
-43.969615999999988
 31
0.0
  0
LINE
  5
425
  8
DETAIL
  6
CONTINUOUS
 62
     5
 10
86.863056
 20
-43.969615999999988
 30
0.0
 11
86.517669999999967
 21
-43.999999999999979
 31
0.0
  0
LINE
  5
426
  8
DETAIL
  6
CONTINUOUS
 62
     5
 10
88.276707999999985
 20
-41.999999999999979
 30
0.0
 11
88.244881999999947
 21
-42.35634499999999
 31
0.0
  0
LINE
  5
427
  8
DETAIL
  6
CONTINUOUS
 62
     5
 10
88.244881999999947
 20
-42.35634499999999
 30
0.0
 11
88.150424999999998
 21
-42.701285999999982
 31
0.0
  0
LINE
  5
428
  8
DETAIL
  6
CONTINUOUS
 62
     5
 10
88.150424999999998
 20
-42.701285999999982
 30
0.0
 11
87.996357000000003
 21
-43.023784999999982
 31
0.0
  0
LINE
  5
429
  8
DETAIL
  6
CONTINUOUS
 62
     5
 10
87.996357000000003
 20
-43.023784999999982
 30
0.0
 11
87.787610999999998
 21
-43.313521999999992
 31
0.0
  0
LINE
  5
42A
  8
DETAIL
  6
CONTINUOUS
 62
     5
 10
87.787610999999998
 20
-43.313521999999992
 30
0.0
 11
87.530865000000006
 21
-43.561223999999989
 31
0.0
  0
LINE
  5
42B
  8
DETAIL
  6
CONTINUOUS
 62
     5
 10
87.530865000000006
 20
-43.561223999999989
 30
0.0
 11
87.234335999999985
 21
-43.758963999999992
 31
0.0
  0
LINE
  5
42C
  8
DETAIL
  6
CONTINUOUS
 62
     5
 10
87.234335999999985
 20
-43.758963999999992
 30
0.0
 11
86.907514000000006
 21
-43.900414999999981
 31
0.0
  0
LINE
  5
42D
  8
DETAIL
  6
CONTINUOUS
 62
     5
 10
86.907514000000006
 20
-43.900414999999981
 30
0.0
 11
86.560857999999968
 21
-43.981050999999979
 31
0.0
  0
LINE
  5
42E
  8
DETAIL
  6
CONTINUOUS
 62
     5
 10
86.560857999999968
 20
-43.981050999999979
 30
0.0
 11
86.205460000000002
 21
-43.998288999999978
 31
0.0
  0
LINE
  5
42F
  8
DETAIL
  6
CONTINUOUS
 62
     5
 10
86.517669999999967
 20
-43.999999999999979
 30
0.0
 11
86.205389999999994
 21
-43.999999999999979
 31
0.0
  0
LINE
  5
430
  8
DETAIL
  6
CONTINUOUS
 62
     5
 10
88.506669999999986
 20
-41.999999999999979
 30
0.0
 11
89.615412000000006
 21
-14.99999999999998
 31
0.0
  0
LINE
  5
431
  8
DETAIL
  6
CONTINUOUS
 62
     5
 10
86.287519000000003
 20
-41.999999999999979
 30
0.0
 11
86.205389999999994
 21
-43.999999999999979
 31
0.0
  0
LINE
  5
432
  8
DETAIL
  6
CONTINUOUS
 62
     5
 10
88.276707999999985
 20
-41.999999999999979
 30
0.0
 11
89.38544899999998
 21
-14.99999999999998
 31
0.0
  0
LINE
  5
433
  8
DETAIL
  6
CONTINUOUS
 62
     5
 10
83.346660999999969
 20
-14.99999999999998
 30
0.0
 11
82.286377000000002
 21
-41.999999999999979
 31
0.0
  0
LINE
  5
434
  8
DETAIL
  6
CONTINUOUS
 62
     5
 10
84.837389999999985
 20
-41.999999999999979
 30
0.0
 11
84.800843999999998
 21
-42.390180999999998
 31
0.0
  0
LINE
  5
435
  8
DETAIL
  6
CONTINUOUS
 62
     5
 10
84.800843999999998
 20
-42.390180999999998
 30
0.0
 11
84.692609000000004
 21
-42.765366999999983
 31
0.0
  0
LINE
  5
436
  8
DETAIL
  6
CONTINUOUS
 62
     5
 10
84.692609000000004
 20
-42.765366999999983
 30
0.0
 11
84.516844999999975
 21
-43.111139999999992
 31
0.0
  0
LINE
  5
437
  8
DETAIL
  6
CONTINUOUS
 62
     5
 10
84.516844999999975
 20
-43.111139999999992
 30
0.0
 11
84.280306999999979
 21
-43.414214000000001
 31
0.0
  0
LINE
  5
438
  8
DETAIL
  6
CONTINUOUS
 62
     5
 10
84.280306999999979
 20
-43.414214000000001
 30
0.0
 11
83.992085000000003
 21
-43.66293899999998
 31
0.0
  0
LINE
  5
439
  8
DETAIL
  6
CONTINUOUS
 62
     5
 10
83.992085000000003
 20
-43.66293899999998
 30
0.0
 11
83.663253999999995
 21
-43.847758999999989
 31
0.0
  0
LINE
  5
43A
  8
DETAIL
  6
CONTINUOUS
 62
     5
 10
83.663253999999995
 20
-43.847758999999989
 30
0.0
 11
83.306451999999965
 21
-43.961570999999992
 31
0.0
  0
LINE
  5
43B
  8
DETAIL
  6
CONTINUOUS
 62
     5
 10
83.306451999999965
 20
-43.961570999999992
 30
0.0
 11
82.935389999999998
 21
-43.999999999999979
 31
0.0
  0
LINE
  5
43C
  8
DETAIL
  6
CONTINUOUS
 62
     5
 10
85.897673999999967
 20
-14.99999999999998
 30
0.0
 11
84.837389999999985
 21
-41.999999999999979
 31
0.0
  0
LINE
  5
43D
  8
DETAIL
  6
CONTINUOUS
 62
     5
 10
84.188629000000006
 20
-41.999999999999979
 30
0.0
 11
84.152082999999976
 21
-42.390180999999998
 31
0.0
  0
LINE
  5
43E
  8
DETAIL
  6
CONTINUOUS
 62
     5
 10
84.152082999999976
 20
-42.390180999999998
 30
0.0
 11
84.043847999999983
 21
-42.765366999999983
 31
0.0
  0
LINE
  5
43F
  8
DETAIL
  6
CONTINUOUS
 62
     5
 10
84.043847999999983
 20
-42.765366999999983
 30
0.0
 11
83.868084999999994
 21
-43.111139999999992
 31
0.0
  0
LINE
  5
440
  8
DETAIL
  6
CONTINUOUS
 62
     5
 10
83.868084999999994
 20
-43.111139999999992
 30
0.0
 11
83.631546999999998
 21
-43.414214000000001
 31
0.0
  0
LINE
  5
441
  8
DETAIL
  6
CONTINUOUS
 62
     5
 10
83.631546999999998
 20
-43.414214000000001
 30
0.0
 11
83.343323999999996
 21
-43.66293899999998
 31
0.0
  0
LINE
  5
442
  8
DETAIL
  6
CONTINUOUS
 62
     5
 10
83.343323999999996
 20
-43.66293899999998
 30
0.0
 11
83.014492999999987
 21
-43.847758999999989
 31
0.0
  0
LINE
  5
443
  8
DETAIL
  6
CONTINUOUS
 62
     5
 10
83.014492999999987
 20
-43.847758999999989
 30
0.0
 11
82.657690999999986
 21
-43.961570999999992
 31
0.0
  0
LINE
  5
444
  8
DETAIL
  6
CONTINUOUS
 62
     5
 10
82.657690999999986
 20
-43.961570999999992
 30
0.0
 11
82.286629000000005
 21
-43.999999999999979
 31
0.0
  0
LINE
  5
445
  8
DETAIL
  6
CONTINUOUS
 62
     5
 10
82.935389999999998
 20
-43.999999999999979
 30
0.0
 11
82.207837999999967
 21
-43.999999999999979
 31
0.0
  0
LINE
  5
446
  8
DETAIL
  6
CONTINUOUS
 62
     5
 10
82.286377000000002
 20
-41.999999999999979
 30
0.0
 11
82.207837999999967
 21
-43.999999999999979
 31
0.0
  0
LINE
  5
447
  8
DETAIL
  6
CONTINUOUS
 62
     5
 10
85.248913000000002
 20
-14.99999999999998
 30
0.0
 11
84.188629000000006
 21
-41.999999999999979
 31
0.0
  0
LINE
  5
448
  8
DETAIL
  6
CONTINUOUS
 62
     5
 10
75.654414000000003
 20
-14.99999999999998
 30
0.0
 11
74.688927000000007
 21
-41.999999999999979
 31
0.0
  0
LINE
  5
449
  8
DETAIL
  6
CONTINUOUS
 62
     5
 10
77.52110399999998
 20
-41.999999999999979
 30
0.0
 11
77.487824000000003
 21
-42.390180999999998
 31
0.0
  0
LINE
  5
44A
  8
DETAIL
  6
CONTINUOUS
 62
     5
 10
77.487824000000003
 20
-42.390180999999998
 30
0.0
 11
77.389263
 21
-42.765366999999983
 31
0.0
  0
LINE
  5
44B
  8
DETAIL
  6
CONTINUOUS
 62
     5
 10
77.389263
 20
-42.765366999999983
 30
0.0
 11
77.229208999999983
 21
-43.111139999999992
 31
0.0
  0
LINE
  5
44C
  8
DETAIL
  6
CONTINUOUS
 62
     5
 10
77.229208999999983
 20
-43.111139999999992
 30
0.0
 11
77.013812999999999
 21
-43.414214000000001
 31
0.0
  0
LINE
  5
44D
  8
DETAIL
  6
CONTINUOUS
 62
     5
 10
77.013812999999999
 20
-43.414214000000001
 30
0.0
 11
76.751351999999983
 21
-43.66293899999998
 31
0.0
  0
LINE
  5
44E
  8
DETAIL
  6
CONTINUOUS
 62
     5
 10
76.751351999999983
 20
-43.66293899999998
 30
0.0
 11
76.451911999999979
 21
-43.847758999999989
 31
0.0
  0
LINE
  5
44F
  8
DETAIL
  6
CONTINUOUS
 62
     5
 10
76.451911999999979
 20
-43.847758999999989
 30
0.0
 11
76.126999999999981
 21
-43.961570999999992
 31
0.0
  0
LINE
  5
450
  8
DETAIL
  6
CONTINUOUS
 62
     5
 10
76.126999999999981
 20
-43.961570999999992
 30
0.0
 11
75.789104000000023
 21
-43.999999999999979
 31
0.0
  0
LINE
  5
451
  8
DETAIL
  6
CONTINUOUS
 62
     5
 10
76.421103999999985
 20
-41.999999999999979
 30
0.0
 11
76.387823999999981
 21
-42.390180999999998
 31
0.0
  0
LINE
  5
452
  8
DETAIL
  6
CONTINUOUS
 62
     5
 10
76.387823999999981
 20
-42.390180999999998
 30
0.0
 11
76.289263000000005
 21
-42.765366999999983
 31
0.0
  0
LINE
  5
453
  8
DETAIL
  6
CONTINUOUS
 62
     5
 10
76.289263000000005
 20
-42.765366999999983
 30
0.0
 11
76.129209000000003
 21
-43.111139999999992
 31
0.0
  0
LINE
  5
454
  8
DETAIL
  6
CONTINUOUS
 62
     5
 10
76.129209000000003
 20
-43.111139999999992
 30
0.0
 11
75.913813000000005
 21
-43.414214000000001
 31
0.0
  0
LINE
  5
455
  8
DETAIL
  6
CONTINUOUS
 62
     5
 10
75.913813000000005
 20
-43.414214000000001
 30
0.0
 11
75.651352000000003
 21
-43.66293899999998
 31
0.0
  0
LINE
  5
456
  8
DETAIL
  6
CONTINUOUS
 62
     5
 10
75.651352000000003
 20
-43.66293899999998
 30
0.0
 11
75.351911999999984
 21
-43.847758999999989
 31
0.0
  0
LINE
  5
457
  8
DETAIL
  6
CONTINUOUS
 62
     5
 10
75.351911999999984
 20
-43.847758999999989
 30
0.0
 11
75.027000000000001
 21
-43.961570999999992
 31
0.0
  0
LINE
  5
458
  8
DETAIL
  6
CONTINUOUS
 62
     5
 10
75.027000000000001
 20
-43.961570999999992
 30
0.0
 11
74.689104
 21
-43.999999999999979
 31
0.0
  0
LINE
  5
459
  8
DETAIL
  6
CONTINUOUS
 62
     5
 10
74.689104
 20
-43.999999999999979
 30
0.0
 11
75.789104000000023
 21
-43.999999999999979
 31
0.0
  0
LINE
  5
45A
  8
DETAIL
  6
CONTINUOUS
 62
     5
 10
78.486591000000004
 20
-14.99999999999998
 30
0.0
 11
77.52110399999998
 21
-41.999999999999979
 31
0.0
  0
LINE
  5
45B
  8
DETAIL
  6
CONTINUOUS
 62
     5
 10
74.617469999999983
 20
-43.998288999999978
 30
0.0
 11
74.688927000000007
 21
-41.999999999999979
 31
0.0
  0
LINE
  5
45C
  8
DETAIL
  6
CONTINUOUS
 62
     5
 10
77.386591000000024
 20
-14.99999999999998
 30
0.0
 11
76.421103999999985
 21
-41.999999999999979
 31
0.0
  0
LINE
  5
45D
  8
DETAIL
  6
CONTINUOUS
 62
     5
 10
66.785696999999999
 20
-41.999999999999979
 30
0.0
 11
66.763120999999998
 21
-42.347295999999979
 31
0.0
  0
LINE
  5
45E
  8
DETAIL
  6
CONTINUOUS
 62
     5
 10
66.763120999999998
 20
-42.347295999999979
 30
0.0
 11
66.696080000000009
 21
-42.684039999999989
 31
0.0
  0
LINE
  5
45F
  8
DETAIL
  6
CONTINUOUS
 62
     5
 10
66.696080000000009
 20
-42.684039999999989
 30
0.0
 11
66.586611000000005
 21
-42.999999999999979
 31
0.0
  0
LINE
  5
460
  8
DETAIL
  6
CONTINUOUS
 62
     5
 10
66.586611000000005
 20
-42.999999999999979
 30
0.0
 11
66.438039000000003
 21
-43.28557499999998
 31
0.0
  0
LINE
  5
461
  8
DETAIL
  6
CONTINUOUS
 62
     5
 10
66.438039000000003
 20
-43.28557499999998
 30
0.0
 11
66.254879000000003
 21
-43.532088999999999
 31
0.0
  0
LINE
  5
462
  8
DETAIL
  6
CONTINUOUS
 62
     5
 10
66.254879000000003
 20
-43.532088999999999
 30
0.0
 11
66.042697000000004
 21
-43.732050999999977
 31
0.0
  0
LINE
  5
463
  8
DETAIL
  6
CONTINUOUS
 62
     5
 10
66.042697000000004
 20
-43.732050999999977
 30
0.0
 11
65.807938000000007
 21
-43.879384999999992
 31
0.0
  0
LINE
  5
464
  8
DETAIL
  6
CONTINUOUS
 62
     5
 10
65.807938000000007
 20
-43.879384999999992
 30
0.0
 11
65.557738000000001
 21
-43.969615999999988
 31
0.0
  0
LINE
  5
465
  8
DETAIL
  6
CONTINUOUS
 62
     5
 10
65.557738000000001
 20
-43.969615999999988
 30
0.0
 11
65.299695999999997
 21
-43.999999999999979
 31
0.0
  0
LINE
  5
466
  8
DETAIL
  6
CONTINUOUS
 62
     5
 10
65.313609999999997
 20
-41.999999999999979
 30
0.0
 11
65.289827000000002
 21
-42.356383999999998
 31
0.0
  0
LINE
  5
467
  8
DETAIL
  6
CONTINUOUS
 62
     5
 10
65.289827000000002
 20
-42.356383999999998
 30
0.0
 11
65.219240999999997
 21
-42.701360999999991
 31
0.0
  0
LINE
  5
468
  8
DETAIL
  6
CONTINUOUS
 62
     5
 10
65.219240999999997
 20
-42.701360999999991
 30
0.0
 11
65.104111000000003
 21
-43.023887999999978
 31
0.0
  0
LINE
  5
469
  8
DETAIL
  6
CONTINUOUS
 62
     5
 10
65.104111000000003
 20
-43.023887999999978
 30
0.0
 11
64.948122999999995
 21
-43.31364199999998
 31
0.0
  0
LINE
  5
46A
  8
DETAIL
  6
CONTINUOUS
 62
     5
 10
64.948122999999995
 20
-43.31364199999998
 30
0.0
 11
64.756268000000006
 21
-43.561348999999993
 31
0.0
  0
LINE
  5
46B
  8
DETAIL
  6
CONTINUOUS
 62
     5
 10
64.756268000000006
 20
-43.561348999999993
 30
0.0
 11
64.534688000000003
 21
-43.759077999999988
 31
0.0
  0
LINE
  5
46C
  8
DETAIL
  6
CONTINUOUS
 62
     5
 10
64.534688000000003
 20
-43.759077999999988
 30
0.0
 11
64.290475000000001
 21
-43.900502999999979
 31
0.0
  0
LINE
  5
46D
  8
DETAIL
  6
CONTINUOUS
 62
     5
 10
64.290475000000001
 20
-43.900502999999979
 30
0.0
 11
64.031447
 21
-43.981094999999989
 31
0.0
  0
LINE
  5
46E
  8
DETAIL
  6
CONTINUOUS
 62
     5
 10
64.031447
 20
-43.981094999999989
 30
0.0
 11
63.765894000000003
 21
-43.998273999999981
 31
0.0
  0
LINE
  5
46F
  8
DETAIL
  6
CONTINUOUS
 62
     5
 10
63.76584099999998
 20
-43.999999999999979
 30
0.0
 11
65.299696999999995
 21
-43.999999999999979
 31
0.0
  0
LINE
  5
470
  8
DETAIL
  6
CONTINUOUS
 62
     5
 10
66.785696999999999
 20
-41.999999999999979
 30
0.0
 11
67.614191000000005
 21
-14.99999999999998
 31
0.0
  0
LINE
  5
471
  8
DETAIL
  6
CONTINUOUS
 62
     5
 10
64.655705000000012
 20
-14.99999999999998
 30
0.0
 11
63.76584099999998
 21
-43.999999999999979
 31
0.0
  0
LINE
  5
472
  8
DETAIL
  6
CONTINUOUS
 62
     5
 10
65.313609999999997
 20
-41.999999999999979
 30
0.0
 11
66.142103000000006
 21
-14.99999999999998
 31
0.0
  0
LINE
  5
473
  8
DETAIL
  6
CONTINUOUS
 62
     5
 10
53.131433999999999
 20
-41.999999999999979
 30
0.0
 11
53.113568000000008
 21
-42.347295999999979
 31
0.0
  0
LINE
  5
474
  8
DETAIL
  6
CONTINUOUS
 62
     5
 10
53.113568000000008
 20
-42.347295999999979
 30
0.0
 11
53.060513
 21
-42.684039999999989
 31
0.0
  0
LINE
  5
475
  8
DETAIL
  6
CONTINUOUS
 62
     5
 10
53.060513
 20
-42.684039999999989
 30
0.0
 11
52.973880000000001
 21
-42.999999999999979
 31
0.0
  0
LINE
  5
476
  8
DETAIL
  6
CONTINUOUS
 62
     5
 10
52.973880000000001
 20
-42.999999999999979
 30
0.0
 11
52.856303000000011
 21
-43.28557499999998
 31
0.0
  0
LINE
  5
477
  8
DETAIL
  6
CONTINUOUS
 62
     5
 10
52.856303000000011
 20
-43.28557499999998
 30
0.0
 11
52.711353000000003
 21
-43.532088999999999
 31
0.0
  0
LINE
  5
478
  8
DETAIL
  6
CONTINUOUS
 62
     5
 10
52.711353000000003
 20
-43.532088999999999
 30
0.0
 11
52.543433999999991
 21
-43.732050999999977
 31
0.0
  0
LINE
  5
479
  8
DETAIL
  6
CONTINUOUS
 62
     5
 10
52.543433999999991
 20
-43.732050999999977
 30
0.0
 11
52.35765
 21
-43.879384999999992
 31
0.0
  0
LINE
  5
47A
  8
DETAIL
  6
CONTINUOUS
 62
     5
 10
52.35765
 20
-43.879384999999992
 30
0.0
 11
52.159645000000012
 21
-43.969615999999988
 31
0.0
  0
LINE
  5
47B
  8
DETAIL
  6
CONTINUOUS
 62
     5
 10
52.159645000000012
 20
-43.969615999999988
 30
0.0
 11
51.955433999999997
 21
-43.999999999999979
 31
0.0
  0
LINE
  5
47C
  8
DETAIL
  6
CONTINUOUS
 62
     5
 10
51.351596999999991
 20
-41.999999999999979
 30
0.0
 11
51.329000999999998
 21
-42.390180999999998
 31
0.0
  0
LINE
  5
47D
  8
DETAIL
  6
CONTINUOUS
 62
     5
 10
51.329000999999998
 20
-42.390180999999998
 30
0.0
 11
51.262079
 21
-42.765366999999983
 31
0.0
  0
LINE
  5
47E
  8
DETAIL
  6
CONTINUOUS
 62
     5
 10
51.262079
 20
-42.765366999999983
 30
0.0
 11
51.153404999999999
 21
-43.111139999999992
 31
0.0
  0
LINE
  5
47F
  8
DETAIL
  6
CONTINUOUS
 62
     5
 10
51.153404999999999
 20
-43.111139999999992
 30
0.0
 11
51.00715499999999
 21
-43.414214000000001
 31
0.0
  0
LINE
  5
480
  8
DETAIL
  6
CONTINUOUS
 62
     5
 10
51.00715499999999
 20
-43.414214000000001
 30
0.0
 11
50.828947999999997
 21
-43.66293899999998
 31
0.0
  0
LINE
  5
481
  8
DETAIL
  6
CONTINUOUS
 62
     5
 10
50.828947999999997
 20
-43.66293899999998
 30
0.0
 11
50.625633000000001
 21
-43.847758999999989
 31
0.0
  0
LINE
  5
482
  8
DETAIL
  6
CONTINUOUS
 62
     5
 10
50.625633000000001
 20
-43.847758999999989
 30
0.0
 11
50.405022999999993
 21
-43.961570999999992
 31
0.0
  0
LINE
  5
483
  8
DETAIL
  6
CONTINUOUS
 62
     5
 10
50.405022999999993
 20
-43.961570999999992
 30
0.0
 11
50.175596999999989
 21
-43.999999999999979
 31
0.0
  0
LINE
  5
484
  8
DETAIL
  6
CONTINUOUS
 62
     5
 10
50.175596999999989
 20
-43.999999999999979
 30
0.0
 11
51.955433999999997
 21
-43.999999999999979
 31
0.0
  0
LINE
  5
485
  8
DETAIL
  6
CONTINUOUS
 62
     5
 10
53.786726000000002
 20
-14.99999999999998
 30
0.0
 11
53.131433999999999
 21
-41.999999999999979
 31
0.0
  0
LINE
  5
486
  8
DETAIL
  6
CONTINUOUS
 62
     5
 10
50.831232
 20
-14.99999999999998
 30
0.0
 11
50.127400999999999
 21
-43.999999999999979
 31
0.0
  0
LINE
  5
487
  8
DETAIL
  6
CONTINUOUS
 62
     5
 10
52.006889000000001
 20
-14.99999999999998
 30
0.0
 11
51.351596999999991
 21
-41.999999999999979
 31
0.0
  0
LINE
  5
488
  8
DETAIL
  6
CONTINUOUS
 62
     5
 10
37.155073000000002
 20
-41.999999999999979
 30
0.0
 11
37.13943299999999
 21
-42.390180999999998
 31
0.0
  0
LINE
  5
489
  8
DETAIL
  6
CONTINUOUS
 62
     5
 10
37.13943299999999
 20
-42.390180999999998
 30
0.0
 11
37.093111
 21
-42.765366999999983
 31
0.0
  0
LINE
  5
48A
  8
DETAIL
  6
CONTINUOUS
 62
     5
 10
37.093111
 20
-42.765366999999983
 30
0.0
 11
37.017890000000001
 21
-43.111139999999992
 31
0.0
  0
LINE
  5
48B
  8
DETAIL
  6
CONTINUOUS
 62
     5
 10
37.017890000000001
 20
-43.111139999999992
 30
0.0
 11
36.916657999999991
 21
-43.414214000000001
 31
0.0
  0
LINE
  5
48C
  8
DETAIL
  6
CONTINUOUS
 62
     5
 10
36.916657999999991
 20
-43.414214000000001
 30
0.0
 11
36.79330800000001
 21
-43.66293899999998
 31
0.0
  0
LINE
  5
48D
  8
DETAIL
  6
CONTINUOUS
 62
     5
 10
36.79330800000001
 20
-43.66293899999998
 30
0.0
 11
36.652577999999998
 21
-43.847758999999989
 31
0.0
  0
LINE
  5
48E
  8
DETAIL
  6
CONTINUOUS
 62
     5
 10
36.652577999999998
 20
-43.847758999999989
 30
0.0
 11
36.499876999999998
 21
-43.961570999999992
 31
0.0
  0
LINE
  5
48F
  8
DETAIL
  6
CONTINUOUS
 62
     5
 10
36.499876999999998
 20
-43.961570999999992
 30
0.0
 11
36.341073000000002
 21
-43.999999999999979
 31
0.0
  0
LINE
  5
490
  8
DETAIL
  6
CONTINUOUS
 62
     5
 10
35.145272999999989
 20
-41.999999999999979
 30
0.0
 11
35.129632999999998
 21
-42.390180999999998
 31
0.0
  0
LINE
  5
491
  8
DETAIL
  6
CONTINUOUS
 62
     5
 10
35.129632999999998
 20
-42.390180999999998
 30
0.0
 11
35.083311000000002
 21
-42.765366999999983
 31
0.0
  0
LINE
  5
492
  8
DETAIL
  6
CONTINUOUS
 62
     5
 10
35.083311000000002
 20
-42.765366999999983
 30
0.0
 11
35.008090000000003
 21
-43.111139999999992
 31
0.0
  0
LINE
  5
493
  8
DETAIL
  6
CONTINUOUS
 62
     5
 10
35.008090000000003
 20
-43.111139999999992
 30
0.0
 11
34.906858
 21
-43.414214000000001
 31
0.0
  0
LINE
  5
494
  8
DETAIL
  6
CONTINUOUS
 62
     5
 10
34.906858
 20
-43.414214000000001
 30
0.0
 11
34.783507999999991
 21
-43.66293899999998
 31
0.0
  0
LINE
  5
495
  8
DETAIL
  6
CONTINUOUS
 62
     5
 10
34.783507999999991
 20
-43.66293899999998
 30
0.0
 11
34.642778
 21
-43.847758999999989
 31
0.0
  0
LINE
  5
496
  8
DETAIL
  6
CONTINUOUS
 62
     5
 10
34.642778
 20
-43.847758999999989
 30
0.0
 11
34.490076999999999
 21
-43.961570999999992
 31
0.0
  0
LINE
  5
497
  8
DETAIL
  6
CONTINUOUS
 62
     5
 10
34.490076999999999
 20
-43.961570999999992
 30
0.0
 11
34.331272999999989
 21
-43.999999999999979
 31
0.0
  0
LINE
  5
498
  8
DETAIL
  6
CONTINUOUS
 62
     5
 10
34.331272999999989
 20
-43.999999999999979
 30
0.0
 11
36.341073000000002
 21
-43.999999999999979
 31
0.0
  0
LINE
  5
499
  8
DETAIL
  6
CONTINUOUS
 62
     5
 10
37.155073000000002
 20
-41.999999999999979
 30
0.0
 11
37.608522999999991
 21
-14.99999999999998
 31
0.0
  0
LINE
  5
49A
  8
DETAIL
  6
CONTINUOUS
 62
     5
 10
34.78519
 20
-14.99999999999998
 30
0.0
 11
34.298180000000002
 21
-43.998345999999998
 31
0.0
  0
LINE
  5
49B
  8
DETAIL
  6
CONTINUOUS
 62
     5
 10
35.145272999999989
 20
-41.999999999999979
 30
0.0
 11
35.598723
 21
-14.99999999999998
 31
0.0
  0
LINE
  5
49C
  8
DETAIL
  6
CONTINUOUS
 62
     5
 10
19.578703999999998
 20
-41.999999999999979
 30
0.0
 11
19.570250000000001
 21
-42.390180999999998
 31
0.0
  0
LINE
  5
49D
  8
DETAIL
  6
CONTINUOUS
 62
     5
 10
19.570250000000001
 20
-42.390180999999998
 30
0.0
 11
19.545210999999998
 21
-42.765366999999983
 31
0.0
  0
LINE
  5
49E
  8
DETAIL
  6
CONTINUOUS
 62
     5
 10
19.545210999999998
 20
-42.765366999999983
 30
0.0
 11
19.504550999999999
 21
-43.111139999999992
 31
0.0
  0
LINE
  5
49F
  8
DETAIL
  6
CONTINUOUS
 62
     5
 10
19.504550999999999
 20
-43.111139999999992
 30
0.0
 11
19.449830999999989
 21
-43.414214000000001
 31
0.0
  0
LINE
  5
4A0
  8
DETAIL
  6
CONTINUOUS
 62
     5
 10
19.449830999999989
 20
-43.414214000000001
 30
0.0
 11
19.383154999999991
 21
-43.66293899999998
 31
0.0
  0
LINE
  5
4A1
  8
DETAIL
  6
CONTINUOUS
 62
     5
 10
19.383154999999991
 20
-43.66293899999998
 30
0.0
 11
19.307085000000001
 21
-43.847758999999989
 31
0.0
  0
LINE
  5
4A2
  8
DETAIL
  6
CONTINUOUS
 62
     5
 10
19.307085000000001
 20
-43.847758999999989
 30
0.0
 11
19.224544000000002
 21
-43.961570999999992
 31
0.0
  0
LINE
  5
4A3
  8
DETAIL
  6
CONTINUOUS
 62
     5
 10
19.224544000000002
 20
-43.961570999999992
 30
0.0
 11
19.138704000000001
 21
-43.999999999999979
 31
0.0
  0
LINE
  5
4A4
  8
DETAIL
  6
CONTINUOUS
 62
     5
 10
16.969877
 20
-43.999999999999979
 30
0.0
 11
19.138704000000001
 21
-43.999999999999979
 31
0.0
  0
LINE
  5
4A5
  8
DETAIL
  6
CONTINUOUS
 62
     5
 10
17.42677999999999
 20
-41.999999999999979
 30
0.0
 11
17.419764999999991
 21
-42.355695999999988
 31
0.0
  0
LINE
  5
4A6
  8
DETAIL
  6
CONTINUOUS
 62
     5
 10
17.419764999999991
 20
-42.355695999999988
 30
0.0
 11
17.398945000000001
 21
-42.700050999999981
 31
0.0
  0
LINE
  5
4A7
  8
DETAIL
  6
CONTINUOUS
 62
     5
 10
17.398945000000001
 20
-42.700050999999981
 30
0.0
 11
17.364984
 21
-43.02208499999999
 31
0.0
  0
LINE
  5
4A8
  8
DETAIL
  6
CONTINUOUS
 62
     5
 10
17.364984
 20
-43.02208499999999
 30
0.0
 11
17.318964000000001
 21
-43.311531000000002
 31
0.0
  0
LINE
  5
4A9
  8
DETAIL
  6
CONTINUOUS
 62
     5
 10
17.318964000000001
 20
-43.311531000000002
 30
0.0
 11
17.262353000000001
 21
-43.559159999999991
 31
0.0
  0
LINE
  5
4AA
  8
DETAIL
  6
CONTINUOUS
 62
     5
 10
17.262353000000001
 20
-43.559159999999991
 30
0.0
 11
17.196954999999999
 21
-43.757076999999981
 31
0.0
  0
LINE
  5
4AB
  8
DETAIL
  6
CONTINUOUS
 62
     5
 10
17.196954999999999
 20
-43.757076999999981
 30
0.0
 11
17.124856000000001
 21
-43.898971999999993
 31
0.0
  0
LINE
  5
4AC
  8
DETAIL
  6
CONTINUOUS
 62
     5
 10
17.124856000000001
 20
-43.898971999999993
 30
0.0
 11
17.04835499999999
 21
-43.98031899999998
 31
0.0
  0
LINE
  5
4AD
  8
DETAIL
  6
CONTINUOUS
 62
     5
 10
17.04835499999999
 20
-43.98031899999998
 30
0.0
 11
16.969889999999999
 21
-43.998525999999991
 31
0.0
  0
LINE
  5
4AE
  8
DETAIL
  6
CONTINUOUS
 62
     5
 10
19.786646999999991
 20
-14.99999999999998
 30
0.0
 11
19.578703999999998
 21
-41.999999999999979
 31
0.0
  0
LINE
  5
4AF
  8
DETAIL
  6
CONTINUOUS
 62
     5
 10
17.218837000000001
 20
-14.99999999999998
 30
0.0
 11
16.969877
 21
-43.999999999999979
 31
0.0
  0
LINE
  5
4B0
  8
DETAIL
  6
CONTINUOUS
 62
     5
 10
17.634723000000001
 20
-14.99999999999998
 30
0.0
 11
17.42677999999999
 21
-41.999999999999979
 31
0.0
  0
LINE
  5
4B1
  8
DETAIL
  6
CONTINUOUS
 62
     5
 10
0.0
 20
-43.999999999999979
 30
0.0
 11
1.0999999999999981
 21
-43.999999999999979
 31
0.0
  0
LINE
  5
4B2
  8
DETAIL
  6
CONTINUOUS
 62
     5
 10
1.0999999999999981
 20
-14.99999999999998
 30
0.0
 11
1.0999999999999981
 21
-43.999999999999979
 31
0.0
  0
LINE
  5
4B3
  8
DETAIL
  6
CONTINUOUS
 62
     5
 10
88.954950999999966
 20
-42.065860999999991
 30
0.0
 11
89.885384999999999
 21
-15.421713000000009
 31
0.0
  0
ARC
  5
4B4
  8
DETAIL
  6
CONTINUOUS
 62
     5
 10
86.95617
 20
-41.996061999999988
 30
0.0
 40
2.0
 50
268.0
 51
358.0
  0
LINE
  5
4B5
  8
DETAIL
  6
CONTINUOUS
 62
     5
 10
85.781505000000024
 20
-75.634047999999979
 30
0.0
 11
86.886370999999997
 21
-43.994843999999979
 31
0.0
  0
LINE
  5
4B6
  8
DETAIL
  6
CONTINUOUS
 62
     5
 10
-100.3136269999999
 20
-6.0
 30
0.0
 11
100.3136269999999
 21
-6.0
 31
0.0
  0
LINE
  5
4B7
  8
DETAIL
  6
CONTINUOUS
 62
     5
 10
-17.218837000000001
 20
-14.99999999999998
 30
0.0
 11
-16.969877
 21
-43.999999999999979
 31
0.0
  0
LINE
  5
4B8
  8
DETAIL
  6
CONTINUOUS
 62
     5
 10
-17.42677999999999
 20
-41.999999999999979
 30
0.0
 11
-17.419764999999991
 21
-42.355695999999988
 31
0.0
  0
LINE
  5
4B9
  8
DETAIL
  6
CONTINUOUS
 62
     5
 10
-17.419764999999991
 20
-42.355695999999988
 30
0.0
 11
-17.398945000000001
 21
-42.700050999999981
 31
0.0
  0
LINE
  5
4BA
  8
DETAIL
  6
CONTINUOUS
 62
     5
 10
-17.398945000000001
 20
-42.700050999999981
 30
0.0
 11
-17.364984
 21
-43.02208499999999
 31
0.0
  0
LINE
  5
4BB
  8
DETAIL
  6
CONTINUOUS
 62
     5
 10
-17.364984
 20
-43.02208499999999
 30
0.0
 11
-17.318964000000001
 21
-43.311531000000002
 31
0.0
  0
LINE
  5
4BC
  8
DETAIL
  6
CONTINUOUS
 62
     5
 10
-17.318964000000001
 20
-43.311531000000002
 30
0.0
 11
-17.262353000000001
 21
-43.559159999999991
 31
0.0
  0
LINE
  5
4BD
  8
DETAIL
  6
CONTINUOUS
 62
     5
 10
-17.262353000000001
 20
-43.559159999999991
 30
0.0
 11
-17.196954999999999
 21
-43.757076999999981
 31
0.0
  0
LINE
  5
4BE
  8
DETAIL
  6
CONTINUOUS
 62
     5
 10
-17.196954999999999
 20
-43.757076999999981
 30
0.0
 11
-17.124856000000001
 21
-43.898971999999993
 31
0.0
  0
LINE
  5
4BF
  8
DETAIL
  6
CONTINUOUS
 62
     5
 10
-17.124856000000001
 20
-43.898971999999993
 30
0.0
 11
-17.04835499999999
 21
-43.98031899999998
 31
0.0
  0
LINE
  5
4C0
  8
DETAIL
  6
CONTINUOUS
 62
     5
 10
-17.04835499999999
 20
-43.98031899999998
 30
0.0
 11
-16.969889999999999
 21
-43.998525999999991
 31
0.0
  0
LINE
  5
4C1
  8
DETAIL
  6
CONTINUOUS
 62
     5
 10
-19.578703999999998
 20
-41.999999999999979
 30
0.0
 11
-19.570250000000001
 21
-42.390180999999998
 31
0.0
  0
LINE
  5
4C2
  8
DETAIL
  6
CONTINUOUS
 62
     5
 10
-19.570250000000001
 20
-42.390180999999998
 30
0.0
 11
-19.545210999999998
 21
-42.765366999999983
 31
0.0
  0
LINE
  5
4C3
  8
DETAIL
  6
CONTINUOUS
 62
     5
 10
-19.545210999999998
 20
-42.765366999999983
 30
0.0
 11
-19.504550999999999
 21
-43.111139999999992
 31
0.0
  0
LINE
  5
4C4
  8
DETAIL
  6
CONTINUOUS
 62
     5
 10
-19.504550999999999
 20
-43.111139999999992
 30
0.0
 11
-19.449830999999989
 21
-43.414214000000001
 31
0.0
  0
LINE
  5
4C5
  8
DETAIL
  6
CONTINUOUS
 62
     5
 10
-19.449830999999989
 20
-43.414214000000001
 30
0.0
 11
-19.383154999999991
 21
-43.66293899999998
 31
0.0
  0
LINE
  5
4C6
  8
DETAIL
  6
CONTINUOUS
 62
     5
 10
-19.383154999999991
 20
-43.66293899999998
 30
0.0
 11
-19.307085000000001
 21
-43.847758999999989
 31
0.0
  0
LINE
  5
4C7
  8
DETAIL
  6
CONTINUOUS
 62
     5
 10
-19.307085000000001
 20
-43.847758999999989
 30
0.0
 11
-19.224544000000002
 21
-43.961570999999992
 31
0.0
  0
LINE
  5
4C8
  8
DETAIL
  6
CONTINUOUS
 62
     5
 10
-19.224544000000002
 20
-43.961570999999992
 30
0.0
 11
-19.138704000000001
 21
-43.999999999999979
 31
0.0
  0
LINE
  5
4C9
  8
DETAIL
  6
CONTINUOUS
 62
     5
 10
-17.634723000000001
 20
-14.99999999999998
 30
0.0
 11
-17.42677999999999
 21
-41.999999999999979
 31
0.0
  0
LINE
  5
4CA
  8
DETAIL
  6
CONTINUOUS
 62
     5
 10
-19.786646999999991
 20
-14.99999999999998
 30
0.0
 11
-19.578703999999998
 21
-41.999999999999979
 31
0.0
  0
LINE
  5
4CB
  8
DETAIL
  6
CONTINUOUS
 62
     5
 10
-16.969877
 20
-43.999999999999979
 30
0.0
 11
-19.138704000000001
 21
-43.999999999999979
 31
0.0
  0
LINE
  5
4CC
  8
DETAIL
  6
CONTINUOUS
 62
     5
 10
-34.78519
 20
-14.99999999999998
 30
0.0
 11
-34.298180000000002
 21
-43.998345999999998
 31
0.0
  0
LINE
  5
4CD
  8
DETAIL
  6
CONTINUOUS
 62
     5
 10
-35.145272999999989
 20
-41.999999999999979
 30
0.0
 11
-35.129632999999998
 21
-42.390180999999998
 31
0.0
  0
LINE
  5
4CE
  8
DETAIL
  6
CONTINUOUS
 62
     5
 10
-35.129632999999998
 20
-42.390180999999998
 30
0.0
 11
-35.083311000000002
 21
-42.765366999999983
 31
0.0
  0
LINE
  5
4CF
  8
DETAIL
  6
CONTINUOUS
 62
     5
 10
-35.083311000000002
 20
-42.765366999999983
 30
0.0
 11
-35.008090000000003
 21
-43.111139999999992
 31
0.0
  0
LINE
  5
4D0
  8
DETAIL
  6
CONTINUOUS
 62
     5
 10
-35.008090000000003
 20
-43.111139999999992
 30
0.0
 11
-34.906858
 21
-43.414214000000001
 31
0.0
  0
LINE
  5
4D1
  8
DETAIL
  6
CONTINUOUS
 62
     5
 10
-34.906858
 20
-43.414214000000001
 30
0.0
 11
-34.783507999999991
 21
-43.66293899999998
 31
0.0
  0
LINE
  5
4D2
  8
DETAIL
  6
CONTINUOUS
 62
     5
 10
-34.783507999999991
 20
-43.66293899999998
 30
0.0
 11
-34.642778
 21
-43.847758999999989
 31
0.0
  0
LINE
  5
4D3
  8
DETAIL
  6
CONTINUOUS
 62
     5
 10
-34.642778
 20
-43.847758999999989
 30
0.0
 11
-34.490076999999999
 21
-43.961570999999992
 31
0.0
  0
LINE
  5
4D4
  8
DETAIL
  6
CONTINUOUS
 62
     5
 10
-34.490076999999999
 20
-43.961570999999992
 30
0.0
 11
-34.331272999999989
 21
-43.999999999999979
 31
0.0
  0
LINE
  5
4D5
  8
DETAIL
  6
CONTINUOUS
 62
     5
 10
-37.155073000000002
 20
-41.999999999999979
 30
0.0
 11
-37.13943299999999
 21
-42.390180999999998
 31
0.0
  0
LINE
  5
4D6
  8
DETAIL
  6
CONTINUOUS
 62
     5
 10
-37.13943299999999
 20
-42.390180999999998
 30
0.0
 11
-37.093111
 21
-42.765366999999983
 31
0.0
  0
LINE
  5
4D7
  8
DETAIL
  6
CONTINUOUS
 62
     5
 10
-37.093111
 20
-42.765366999999983
 30
0.0
 11
-37.017890000000001
 21
-43.111139999999992
 31
0.0
  0
LINE
  5
4D8
  8
DETAIL
  6
CONTINUOUS
 62
     5
 10
-37.017890000000001
 20
-43.111139999999992
 30
0.0
 11
-36.916657999999991
 21
-43.414214000000001
 31
0.0
  0
LINE
  5
4D9
  8
DETAIL
  6
CONTINUOUS
 62
     5
 10
-36.916657999999991
 20
-43.414214000000001
 30
0.0
 11
-36.79330800000001
 21
-43.66293899999998
 31
0.0
  0
LINE
  5
4DA
  8
DETAIL
  6
CONTINUOUS
 62
     5
 10
-36.79330800000001
 20
-43.66293899999998
 30
0.0
 11
-36.652577999999998
 21
-43.847758999999989
 31
0.0
  0
LINE
  5
4DB
  8
DETAIL
  6
CONTINUOUS
 62
     5
 10
-36.652577999999998
 20
-43.847758999999989
 30
0.0
 11
-36.499876999999998
 21
-43.961570999999992
 31
0.0
  0
LINE
  5
4DC
  8
DETAIL
  6
CONTINUOUS
 62
     5
 10
-36.499876999999998
 20
-43.961570999999992
 30
0.0
 11
-36.341073000000002
 21
-43.999999999999979
 31
0.0
  0
LINE
  5
4DD
  8
DETAIL
  6
CONTINUOUS
 62
     5
 10
-50.831232
 20
-14.99999999999998
 30
0.0
 11
-50.127400999999999
 21
-43.999999999999979
 31
0.0
  0
LINE
  5
4DE
  8
DETAIL
  6
CONTINUOUS
 62
     5
 10
-51.351596999999991
 20
-41.999999999999979
 30
0.0
 11
-51.329000999999998
 21
-42.390180999999998
 31
0.0
  0
LINE
  5
4DF
  8
DETAIL
  6
CONTINUOUS
 62
     5
 10
-51.329000999999998
 20
-42.390180999999998
 30
0.0
 11
-51.262079
 21
-42.765366999999983
 31
0.0
  0
LINE
  5
4E0
  8
DETAIL
  6
CONTINUOUS
 62
     5
 10
-51.262079
 20
-42.765366999999983
 30
0.0
 11
-51.153404999999999
 21
-43.111139999999992
 31
0.0
  0
LINE
  5
4E1
  8
DETAIL
  6
CONTINUOUS
 62
     5
 10
-51.153404999999999
 20
-43.111139999999992
 30
0.0
 11
-51.00715499999999
 21
-43.414214000000001
 31
0.0
  0
LINE
  5
4E2
  8
DETAIL
  6
CONTINUOUS
 62
     5
 10
-51.00715499999999
 20
-43.414214000000001
 30
0.0
 11
-50.828947999999997
 21
-43.66293899999998
 31
0.0
  0
LINE
  5
4E3
  8
DETAIL
  6
CONTINUOUS
 62
     5
 10
-50.828947999999997
 20
-43.66293899999998
 30
0.0
 11
-50.625633000000001
 21
-43.847758999999989
 31
0.0
  0
LINE
  5
4E4
  8
DETAIL
  6
CONTINUOUS
 62
     5
 10
-50.625633000000001
 20
-43.847758999999989
 30
0.0
 11
-50.405022999999993
 21
-43.961570999999992
 31
0.0
  0
LINE
  5
4E5
  8
DETAIL
  6
CONTINUOUS
 62
     5
 10
-50.405022999999993
 20
-43.961570999999992
 30
0.0
 11
-50.175596999999989
 21
-43.999999999999979
 31
0.0
  0
LINE
  5
4E6
  8
DETAIL
  6
CONTINUOUS
 62
     5
 10
-53.131433999999999
 20
-41.999999999999979
 30
0.0
 11
-53.113568000000008
 21
-42.347295999999979
 31
0.0
  0
LINE
  5
4E7
  8
DETAIL
  6
CONTINUOUS
 62
     5
 10
-53.113568000000008
 20
-42.347295999999979
 30
0.0
 11
-53.060513
 21
-42.684039999999989
 31
0.0
  0
LINE
  5
4E8
  8
DETAIL
  6
CONTINUOUS
 62
     5
 10
-53.060513
 20
-42.684039999999989
 30
0.0
 11
-52.973880000000001
 21
-42.999999999999979
 31
0.0
  0
LINE
  5
4E9
  8
DETAIL
  6
CONTINUOUS
 62
     5
 10
-52.973880000000001
 20
-42.999999999999979
 30
0.0
 11
-52.856303000000011
 21
-43.28557499999998
 31
0.0
  0
LINE
  5
4EA
  8
DETAIL
  6
CONTINUOUS
 62
     5
 10
-52.856303000000011
 20
-43.28557499999998
 30
0.0
 11
-52.711353000000003
 21
-43.532088999999999
 31
0.0
  0
LINE
  5
4EB
  8
DETAIL
  6
CONTINUOUS
 62
     5
 10
-52.711353000000003
 20
-43.532088999999999
 30
0.0
 11
-52.543433999999991
 21
-43.732050999999977
 31
0.0
  0
LINE
  5
4EC
  8
DETAIL
  6
CONTINUOUS
 62
     5
 10
-52.543433999999991
 20
-43.732050999999977
 30
0.0
 11
-52.35765
 21
-43.879384999999992
 31
0.0
  0
LINE
  5
4ED
  8
DETAIL
  6
CONTINUOUS
 62
     5
 10
-52.35765
 20
-43.879384999999992
 30
0.0
 11
-52.159645000000012
 21
-43.969615999999988
 31
0.0
  0
LINE
  5
4EE
  8
DETAIL
  6
CONTINUOUS
 62
     5
 10
-52.159645000000012
 20
-43.969615999999988
 30
0.0
 11
-51.955433999999997
 21
-43.999999999999979
 31
0.0
  0
LINE
  5
4EF
  8
DETAIL
  6
CONTINUOUS
 62
     5
 10
-35.145272999999989
 20
-41.999999999999979
 30
0.0
 11
-35.598723
 21
-14.99999999999998
 31
0.0
  0
LINE
  5
4F0
  8
DETAIL
  6
CONTINUOUS
 62
     5
 10
-37.155073000000002
 20
-41.999999999999979
 30
0.0
 11
-37.608522999999991
 21
-14.99999999999998
 31
0.0
  0
LINE
  5
4F1
  8
DETAIL
  6
CONTINUOUS
 62
     5
 10
-52.006889000000001
 20
-14.99999999999998
 30
0.0
 11
-51.351596999999991
 21
-41.999999999999979
 31
0.0
  0
LINE
  5
4F2
  8
DETAIL
  6
CONTINUOUS
 62
     5
 10
-53.786726000000002
 20
-14.99999999999998
 30
0.0
 11
-53.131433999999999
 21
-41.999999999999979
 31
0.0
  0
LINE
  5
4F3
  8
DETAIL
  6
CONTINUOUS
 62
     5
 10
-34.331272999999989
 20
-43.999999999999979
 30
0.0
 11
-36.341073000000002
 21
-43.999999999999979
 31
0.0
  0
LINE
  5
4F4
  8
DETAIL
  6
CONTINUOUS
 62
     5
 10
-50.175596999999989
 20
-43.999999999999979
 30
0.0
 11
-51.955433999999997
 21
-43.999999999999979
 31
0.0
  0
LINE
  5
4F5
  8
DETAIL
  6
CONTINUOUS
 62
     5
 10
-64.655705000000012
 20
-14.99999999999998
 30
0.0
 11
-63.765841000000002
 21
-43.999999999999979
 31
0.0
  0
LINE
  5
4F6
  8
DETAIL
  6
CONTINUOUS
 62
     5
 10
-65.313609999999997
 20
-41.999999999999979
 30
0.0
 11
-65.289827000000002
 21
-42.356383999999998
 31
0.0
  0
LINE
  5
4F7
  8
DETAIL
  6
CONTINUOUS
 62
     5
 10
-65.289827000000002
 20
-42.356383999999998
 30
0.0
 11
-65.219240999999997
 21
-42.701360999999991
 31
0.0
  0
LINE
  5
4F8
  8
DETAIL
  6
CONTINUOUS
 62
     5
 10
-65.219240999999997
 20
-42.701360999999991
 30
0.0
 11
-65.104111000000003
 21
-43.023887999999978
 31
0.0
  0
LINE
  5
4F9
  8
DETAIL
  6
CONTINUOUS
 62
     5
 10
-65.104111000000003
 20
-43.023887999999978
 30
0.0
 11
-64.948122999999995
 21
-43.31364199999998
 31
0.0
  0
LINE
  5
4FA
  8
DETAIL
  6
CONTINUOUS
 62
     5
 10
-64.948122999999995
 20
-43.31364199999998
 30
0.0
 11
-64.756268000000006
 21
-43.561348999999993
 31
0.0
  0
LINE
  5
4FB
  8
DETAIL
  6
CONTINUOUS
 62
     5
 10
-64.756268000000006
 20
-43.561348999999993
 30
0.0
 11
-64.534688000000003
 21
-43.759077999999988
 31
0.0
  0
LINE
  5
4FC
  8
DETAIL
  6
CONTINUOUS
 62
     5
 10
-64.534688000000003
 20
-43.759077999999988
 30
0.0
 11
-64.290475000000001
 21
-43.900502999999979
 31
0.0
  0
LINE
  5
4FD
  8
DETAIL
  6
CONTINUOUS
 62
     5
 10
-64.290475000000001
 20
-43.900502999999979
 30
0.0
 11
-64.031447
 21
-43.981094999999989
 31
0.0
  0
LINE
  5
4FE
  8
DETAIL
  6
CONTINUOUS
 62
     5
 10
-64.031447
 20
-43.981094999999989
 30
0.0
 11
-63.765894000000003
 21
-43.998273999999981
 31
0.0
  0
LINE
  5
4FF
  8
DETAIL
  6
CONTINUOUS
 62
     5
 10
-66.785696999999999
 20
-41.999999999999979
 30
0.0
 11
-66.763120999999998
 21
-42.347295999999979
 31
0.0
  0
LINE
  5
500
  8
DETAIL
  6
CONTINUOUS
 62
     5
 10
-66.763120999999998
 20
-42.347295999999979
 30
0.0
 11
-66.696080000000009
 21
-42.684039999999989
 31
0.0
  0
LINE
  5
501
  8
DETAIL
  6
CONTINUOUS
 62
     5
 10
-66.696080000000009
 20
-42.684039999999989
 30
0.0
 11
-66.586611000000005
 21
-42.999999999999979
 31
0.0
  0
LINE
  5
502
  8
DETAIL
  6
CONTINUOUS
 62
     5
 10
-66.586611000000005
 20
-42.999999999999979
 30
0.0
 11
-66.438039000000003
 21
-43.28557499999998
 31
0.0
  0
LINE
  5
503
  8
DETAIL
  6
CONTINUOUS
 62
     5
 10
-66.438039000000003
 20
-43.28557499999998
 30
0.0
 11
-66.254879000000003
 21
-43.532088999999999
 31
0.0
  0
LINE
  5
504
  8
DETAIL
  6
CONTINUOUS
 62
     5
 10
-66.254879000000003
 20
-43.532088999999999
 30
0.0
 11
-66.042697000000004
 21
-43.732050999999977
 31
0.0
  0
LINE
  5
505
  8
DETAIL
  6
CONTINUOUS
 62
     5
 10
-66.042697000000004
 20
-43.732050999999977
 30
0.0
 11
-65.807938000000007
 21
-43.879384999999992
 31
0.0
  0
LINE
  5
506
  8
DETAIL
  6
CONTINUOUS
 62
     5
 10
-65.807938000000007
 20
-43.879384999999992
 30
0.0
 11
-65.557738000000001
 21
-43.969615999999988
 31
0.0
  0
LINE
  5
507
  8
DETAIL
  6
CONTINUOUS
 62
     5
 10
-65.557738000000001
 20
-43.969615999999988
 30
0.0
 11
-65.299695999999997
 21
-43.999999999999979
 31
0.0
  0
LINE
  5
508
  8
DETAIL
  6
CONTINUOUS
 62
     5
 10
-74.617469999999983
 20
-43.998288999999978
 30
0.0
 11
-74.688927000000007
 21
-41.999999999999979
 31
0.0
  0
LINE
  5
509
  8
DETAIL
  6
CONTINUOUS
 62
     5
 10
-65.313609999999997
 20
-41.999999999999979
 30
0.0
 11
-66.142103000000006
 21
-14.99999999999998
 31
0.0
  0
LINE
  5
50A
  8
DETAIL
  6
CONTINUOUS
 62
     5
 10
-66.785696999999999
 20
-41.999999999999979
 30
0.0
 11
-67.614191000000005
 21
-14.99999999999998
 31
0.0
  0
LINE
  5
50B
  8
DETAIL
  6
CONTINUOUS
 62
     5
 10
-63.765841000000002
 20
-43.999999999999979
 30
0.0
 11
-65.299696999999995
 21
-43.999999999999979
 31
0.0
  0
LINE
  5
50C
  8
DETAIL
  6
CONTINUOUS
 62
     5
 10
-74.689104
 20
-43.999999999999979
 30
0.0
 11
-75.789104000000023
 21
-43.999999999999979
 31
0.0
  0
ARC
  5
50D
  8
DETAIL
  6
CONTINUOUS
 62
     5
 10
-86.95617
 20
-41.996061999999988
 30
0.0
 40
2.0
 50
182.0
 51
272.0
  0
LINE
  5
50E
  8
DETAIL
  6
CONTINUOUS
 62
     5
 10
-74.617469999999983
 20
-43.998288999999978
 30
0.0
 11
-74.688927000000007
 21
-41.999999999999979
 31
0.0
  0
LINE
  5
50F
  8
DETAIL
  6
CONTINUOUS
 62
     5
 10
-76.421103999999985
 20
-41.999999999999979
 30
0.0
 11
-76.387823999999981
 21
-42.390180999999998
 31
0.0
  0
LINE
  5
510
  8
DETAIL
  6
CONTINUOUS
 62
     5
 10
-76.387823999999981
 20
-42.390180999999998
 30
0.0
 11
-76.289263000000005
 21
-42.765366999999983
 31
0.0
  0
LINE
  5
511
  8
DETAIL
  6
CONTINUOUS
 62
     5
 10
-76.289263000000005
 20
-42.765366999999983
 30
0.0
 11
-76.129209000000003
 21
-43.111139999999992
 31
0.0
  0
LINE
  5
512
  8
DETAIL
  6
CONTINUOUS
 62
     5
 10
-76.129209000000003
 20
-43.111139999999992
 30
0.0
 11
-75.913813000000005
 21
-43.414214000000001
 31
0.0
  0
LINE
  5
513
  8
DETAIL
  6
CONTINUOUS
 62
     5
 10
-75.913813000000005
 20
-43.414214000000001
 30
0.0
 11
-75.651352000000003
 21
-43.66293899999998
 31
0.0
  0
LINE
  5
514
  8
DETAIL
  6
CONTINUOUS
 62
     5
 10
-75.651352000000003
 20
-43.66293899999998
 30
0.0
 11
-75.351911999999984
 21
-43.847758999999989
 31
0.0
  0
LINE
  5
515
  8
DETAIL
  6
CONTINUOUS
 62
     5
 10
-75.351911999999984
 20
-43.847758999999989
 30
0.0
 11
-75.027000000000001
 21
-43.961570999999992
 31
0.0
  0
LINE
  5
516
  8
DETAIL
  6
CONTINUOUS
 62
     5
 10
-75.027000000000001
 20
-43.961570999999992
 30
0.0
 11
-74.689104
 21
-43.999999999999979
 31
0.0
  0
LINE
  5
517
  8
DETAIL
  6
CONTINUOUS
 62
     5
 10
-77.52110399999998
 20
-41.999999999999979
 30
0.0
 11
-77.487824000000003
 21
-42.390180999999998
 31
0.0
  0
LINE
  5
518
  8
DETAIL
  6
CONTINUOUS
 62
     5
 10
-77.487824000000003
 20
-42.390180999999998
 30
0.0
 11
-77.389263
 21
-42.765366999999983
 31
0.0
  0
LINE
  5
519
  8
DETAIL
  6
CONTINUOUS
 62
     5
 10
-77.389263
 20
-42.765366999999983
 30
0.0
 11
-77.229208999999983
 21
-43.111139999999992
 31
0.0
  0
LINE
  5
51A
  8
DETAIL
  6
CONTINUOUS
 62
     5
 10
-77.229208999999983
 20
-43.111139999999992
 30
0.0
 11
-77.013812999999999
 21
-43.414214000000001
 31
0.0
  0
LINE
  5
51B
  8
DETAIL
  6
CONTINUOUS
 62
     5
 10
-77.013812999999999
 20
-43.414214000000001
 30
0.0
 11
-76.751351999999983
 21
-43.66293899999998
 31
0.0
  0
LINE
  5
51C
  8
DETAIL
  6
CONTINUOUS
 62
     5
 10
-76.751351999999983
 20
-43.66293899999998
 30
0.0
 11
-76.451911999999979
 21
-43.847758999999989
 31
0.0
  0
LINE
  5
51D
  8
DETAIL
  6
CONTINUOUS
 62
     5
 10
-76.451911999999979
 20
-43.847758999999989
 30
0.0
 11
-76.126999999999981
 21
-43.961570999999992
 31
0.0
  0
LINE
  5
51E
  8
DETAIL
  6
CONTINUOUS
 62
     5
 10
-76.126999999999981
 20
-43.961570999999992
 30
0.0
 11
-75.789104000000023
 21
-43.999999999999979
 31
0.0
  0
LINE
  5
51F
  8
DETAIL
  6
CONTINUOUS
 62
     5
 10
-82.286377000000002
 20
-41.999999999999979
 30
0.0
 11
-82.207837999999967
 21
-43.999999999999979
 31
0.0
  0
LINE
  5
520
  8
DETAIL
  6
CONTINUOUS
 62
     5
 10
-84.188629000000006
 20
-41.999999999999979
 30
0.0
 11
-84.152082999999976
 21
-42.390180999999998
 31
0.0
  0
LINE
  5
521
  8
DETAIL
  6
CONTINUOUS
 62
     5
 10
-84.152082999999976
 20
-42.390180999999998
 30
0.0
 11
-84.043847999999983
 21
-42.765366999999983
 31
0.0
  0
LINE
  5
522
  8
DETAIL
  6
CONTINUOUS
 62
     5
 10
-84.043847999999983
 20
-42.765366999999983
 30
0.0
 11
-83.868084999999994
 21
-43.111139999999992
 31
0.0
  0
LINE
  5
523
  8
DETAIL
  6
CONTINUOUS
 62
     5
 10
-83.868084999999994
 20
-43.111139999999992
 30
0.0
 11
-83.631546999999998
 21
-43.414214000000001
 31
0.0
  0
LINE
  5
524
  8
DETAIL
  6
CONTINUOUS
 62
     5
 10
-83.631546999999998
 20
-43.414214000000001
 30
0.0
 11
-83.343323999999996
 21
-43.66293899999998
 31
0.0
  0
LINE
  5
525
  8
DETAIL
  6
CONTINUOUS
 62
     5
 10
-83.343323999999996
 20
-43.66293899999998
 30
0.0
 11
-83.014492999999987
 21
-43.847758999999989
 31
0.0
  0
LINE
  5
526
  8
DETAIL
  6
CONTINUOUS
 62
     5
 10
-83.014492999999987
 20
-43.847758999999989
 30
0.0
 11
-82.657690999999986
 21
-43.961570999999992
 31
0.0
  0
LINE
  5
527
  8
DETAIL
  6
CONTINUOUS
 62
     5
 10
-82.657690999999986
 20
-43.961570999999992
 30
0.0
 11
-82.286629000000005
 21
-43.999999999999979
 31
0.0
  0
LINE
  5
528
  8
DETAIL
  6
CONTINUOUS
 62
     5
 10
-84.837389999999985
 20
-41.999999999999979
 30
0.0
 11
-84.800843999999998
 21
-42.390180999999998
 31
0.0
  0
LINE
  5
529
  8
DETAIL
  6
CONTINUOUS
 62
     5
 10
-84.800843999999998
 20
-42.390180999999998
 30
0.0
 11
-84.692609000000004
 21
-42.765366999999983
 31
0.0
  0
LINE
  5
52A
  8
DETAIL
  6
CONTINUOUS
 62
     5
 10
-84.692609000000004
 20
-42.765366999999983
 30
0.0
 11
-84.516844999999975
 21
-43.111139999999992
 31
0.0
  0
LINE
  5
52B
  8
DETAIL
  6
CONTINUOUS
 62
     5
 10
-84.516844999999975
 20
-43.111139999999992
 30
0.0
 11
-84.280306999999979
 21
-43.414214000000001
 31
0.0
  0
LINE
  5
52C
  8
DETAIL
  6
CONTINUOUS
 62
     5
 10
-84.280306999999979
 20
-43.414214000000001
 30
0.0
 11
-83.992085000000003
 21
-43.66293899999998
 31
0.0
  0
LINE
  5
52D
  8
DETAIL
  6
CONTINUOUS
 62
     5
 10
-83.992085000000003
 20
-43.66293899999998
 30
0.0
 11
-83.663253999999995
 21
-43.847758999999989
 31
0.0
  0
LINE
  5
52E
  8
DETAIL
  6
CONTINUOUS
 62
     5
 10
-83.663253999999995
 20
-43.847758999999989
 30
0.0
 11
-83.306451999999965
 21
-43.961570999999992
 31
0.0
  0
LINE
  5
52F
  8
DETAIL
  6
CONTINUOUS
 62
     5
 10
-83.306451999999965
 20
-43.961570999999992
 30
0.0
 11
-82.935389999999998
 21
-43.999999999999979
 31
0.0
  0
LINE
  5
530
  8
DETAIL
  6
CONTINUOUS
 62
     5
 10
-86.287519000000003
 20
-41.999999999999979
 30
0.0
 11
-86.205389999999994
 21
-43.999999999999979
 31
0.0
  0
LINE
  5
531
  8
DETAIL
  6
CONTINUOUS
 62
     5
 10
-88.276707999999985
 20
-41.999999999999979
 30
0.0
 11
-88.244881999999947
 21
-42.35634499999999
 31
0.0
  0
LINE
  5
532
  8
DETAIL
  6
CONTINUOUS
 62
     5
 10
-88.244881999999947
 20
-42.35634499999999
 30
0.0
 11
-88.150424999999998
 21
-42.701285999999982
 31
0.0
  0
LINE
  5
533
  8
DETAIL
  6
CONTINUOUS
 62
     5
 10
-88.150424999999998
 20
-42.701285999999982
 30
0.0
 11
-87.996357000000003
 21
-43.023784999999982
 31
0.0
  0
LINE
  5
534
  8
DETAIL
  6
CONTINUOUS
 62
     5
 10
-87.996357000000003
 20
-43.023784999999982
 30
0.0
 11
-87.787610999999998
 21
-43.313521999999992
 31
0.0
  0
LINE
  5
535
  8
DETAIL
  6
CONTINUOUS
 62
     5
 10
-87.787610999999998
 20
-43.313521999999992
 30
0.0
 11
-87.530865000000006
 21
-43.561223999999989
 31
0.0
  0
LINE
  5
536
  8
DETAIL
  6
CONTINUOUS
 62
     5
 10
-87.530865000000006
 20
-43.561223999999989
 30
0.0
 11
-87.234335999999985
 21
-43.758963999999992
 31
0.0
  0
LINE
  5
537
  8
DETAIL
  6
CONTINUOUS
 62
     5
 10
-87.234335999999985
 20
-43.758963999999992
 30
0.0
 11
-86.907514000000006
 21
-43.900414999999981
 31
0.0
  0
LINE
  5
538
  8
DETAIL
  6
CONTINUOUS
 62
     5
 10
-86.907514000000006
 20
-43.900414999999981
 30
0.0
 11
-86.560857999999968
 21
-43.981050999999979
 31
0.0
  0
LINE
  5
539
  8
DETAIL
  6
CONTINUOUS
 62
     5
 10
-86.560857999999968
 20
-43.981050999999979
 30
0.0
 11
-86.205460000000002
 21
-43.998288999999978
 31
0.0
  0
LINE
  5
53A
  8
DETAIL
  6
CONTINUOUS
 62
     5
 10
-88.506669999999986
 20
-41.999999999999979
 30
0.0
 11
-88.476453000000006
 21
-42.347295999999979
 31
0.0
  0
LINE
  5
53B
  8
DETAIL
  6
CONTINUOUS
 62
     5
 10
-88.476453000000006
 20
-42.347295999999979
 30
0.0
 11
-88.386718999999985
 21
-42.684039999999989
 31
0.0
  0
LINE
  5
53C
  8
DETAIL
  6
CONTINUOUS
 62
     5
 10
-88.386718999999985
 20
-42.684039999999989
 30
0.0
 11
-88.240195
 21
-42.999999999999979
 31
0.0
  0
LINE
  5
53D
  8
DETAIL
  6
CONTINUOUS
 62
     5
 10
-88.240195
 20
-42.999999999999979
 30
0.0
 11
-88.04133299999998
 21
-43.28557499999998
 31
0.0
  0
LINE
  5
53E
  8
DETAIL
  6
CONTINUOUS
 62
     5
 10
-88.04133299999998
 20
-43.28557499999998
 30
0.0
 11
-87.796175000000005
 21
-43.532088999999999
 31
0.0
  0
LINE
  5
53F
  8
DETAIL
  6
CONTINUOUS
 62
     5
 10
-87.796175000000005
 20
-43.532088999999999
 30
0.0
 11
-87.512169999999998
 21
-43.732050999999977
 31
0.0
  0
LINE
  5
540
  8
DETAIL
  6
CONTINUOUS
 62
     5
 10
-87.512169999999998
 20
-43.732050999999977
 30
0.0
 11
-87.197947999999982
 21
-43.879384999999992
 31
0.0
  0
LINE
  5
541
  8
DETAIL
  6
CONTINUOUS
 62
     5
 10
-87.197947999999982
 20
-43.879384999999992
 30
0.0
 11
-86.863056
 21
-43.969615999999988
 31
0.0
  0
LINE
  5
542
  8
DETAIL
  6
CONTINUOUS
 62
     5
 10
-86.863056
 20
-43.969615999999988
 30
0.0
 11
-86.517669999999967
 21
-43.999999999999979
 31
0.0
  0
LINE
  5
543
  8
DETAIL
  6
CONTINUOUS
 62
     5
 10
-88.954950999999966
 20
-42.065860999999991
 30
0.0
 11
-89.900111999999964
 21
-14.99999999999998
 31
0.0
  0
LINE
  5
544
  8
DETAIL
  6
CONTINUOUS
 62
     5
 10
-77.386591000000024
 20
-14.99999999999998
 30
0.0
 11
-76.421103999999985
 21
-41.999999999999979
 31
0.0
  0
LINE
  5
545
  8
DETAIL
  6
CONTINUOUS
 62
     5
 10
-78.486591000000004
 20
-14.99999999999998
 30
0.0
 11
-77.52110399999998
 21
-41.999999999999979
 31
0.0
  0
LINE
  5
546
  8
DETAIL
  6
CONTINUOUS
 62
     5
 10
-75.654414000000003
 20
-14.99999999999998
 30
0.0
 11
-74.688927000000007
 21
-41.999999999999979
 31
0.0
  0
LINE
  5
547
  8
DETAIL
  6
CONTINUOUS
 62
     5
 10
-85.248913000000002
 20
-14.99999999999998
 30
0.0
 11
-84.188629000000006
 21
-41.999999999999979
 31
0.0
  0
LINE
  5
548
  8
DETAIL
  6
CONTINUOUS
 62
     5
 10
-85.897673999999967
 20
-14.99999999999998
 30
0.0
 11
-84.837389999999985
 21
-41.999999999999979
 31
0.0
  0
LINE
  5
549
  8
DETAIL
  6
CONTINUOUS
 62
     5
 10
-83.346660999999969
 20
-14.99999999999998
 30
0.0
 11
-82.286377000000002
 21
-41.999999999999979
 31
0.0
  0
LINE
  5
54A
  8
DETAIL
  6
CONTINUOUS
 62
     5
 10
-88.276707999999985
 20
-41.999999999999979
 30
0.0
 11
-89.38544899999998
 21
-14.99999999999998
 31
0.0
  0
LINE
  5
54B
  8
DETAIL
  6
CONTINUOUS
 62
     5
 10
-88.506669999999986
 20
-41.999999999999979
 30
0.0
 11
-89.615412000000006
 21
-14.99999999999998
 31
0.0
  0
LINE
  5
54C
  8
DETAIL
  6
CONTINUOUS
 62
     5
 10
-74.689104
 20
-43.999999999999979
 30
0.0
 11
-75.789104000000023
 21
-43.999999999999979
 31
0.0
  0
LINE
  5
54D
  8
DETAIL
  6
CONTINUOUS
 62
     5
 10
-82.935389999999998
 20
-43.999999999999979
 30
0.0
 11
-82.207837999999967
 21
-43.999999999999979
 31
0.0
  0
LINE
  5
54E
  8
DETAIL
  6
CONTINUOUS
 62
     5
 10
-86.517669999999967
 20
-43.999999999999979
 30
0.0
 11
-86.205389999999994
 21
-43.999999999999979
 31
0.0
  0
LINE
  5
54F
  8
DETAIL
  6
CONTINUOUS
 62
     5
 10
-85.781505000000024
 20
-75.634047999999979
 30
0.0
 11
-86.886370999999997
 21
-43.994843999999979
 31
0.0
  0
CIRCLE
  5
550
  8
FIX
  6
CONTINUOUS
 62
    11
 39
50.0
 10
-69.281999999999996
 20
0.0
 30
0.0
 40
2.5
  0
CIRCLE
  5
551
  8
FIX
  6
CONTINUOUS
 62
    11
 39
50.0
 10
40.0
 20
0.0
 30
0.0
 40
2.5
  0
CIRCLE
  5
552
  8
FIX
  6
CONTINUOUS
 62
    11
 39
50.0
 10
-55.154328999999997
 20
0.0
 30
0.0
 40
4.25
  0
CIRCLE
  5
553
  8
FIX
  6
CONTINUOUS
 62
    11
 39
50.0
 10
55.154328999999997
 20
0.0
 30
0.0
 40
4.25
  0
CIRCLE
  5
554
  8
FIX
  6
CONTINUOUS
 62
    11
 39
50.0
 10
-39.999980999999998
 20
0.0
 30
0.0
 40
2.5
  0
CIRCLE
  5
555
  8
FIX
  6
CONTINUOUS
 62
    11
 39
50.0
 10
69.282032000000001
 20
0.0
 30
0.0
 40
2.5
  0
LINE
  5
556
  8
NOTE
  6
CONTINUOUS
 62
     4
 10
-49.281999999999996
 20
0.0
 30
0.0
 11
-89.282000000000025
 21
0.0
 31
0.0
  0
LINE
  5
557
  8
NOTE
  6
CONTINUOUS
 62
     4
 10
-69.281999999999996
 20
20.000000000000011
 30
0.0
 11
-69.281999999999996
 21
-20.0
 31
0.0
  0
LINE
  5
558
  8
NOTE
  6
CONTINUOUS
 62
     4
 10
-35.15432899999999
 20
0.0
 30
0.0
 11
-75.154329000000004
 21
0.0
 31
0.0
  0
LINE
  5
559
  8
NOTE
  6
CONTINUOUS
 62
     4
 10
-55.154328999999997
 20
20.000000000000011
 30
0.0
 11
-55.154328999999997
 21
-20.0
 31
0.0
  0
LINE
  5
55A
  8
NOTE
  6
CONTINUOUS
 62
     4
 10
-19.999980999999998
 20
0.0
 30
0.0
 11
-59.999980999999998
 21
0.0
 31
0.0
  0
LINE
  5
55B
  8
NOTE
  6
CONTINUOUS
 62
     4
 10
-39.999980999999998
 20
20.000000000000011
 30
0.0
 11
-39.999980999999998
 21
-20.0
 31
0.0
  0
LINE
  5
55C
  8
NOTE
  6
CONTINUOUS
 62
     4
 10
60.0
 20
0.0
 30
0.0
 11
20.0
 21
0.0
 31
0.0
  0
LINE
  5
55D
  8
NOTE
  6
CONTINUOUS
 62
     4
 10
40.0
 20
20.000000000000011
 30
0.0
 11
40.0
 21
-20.0
 31
0.0
  0
LINE
  5
55E
  8
NOTE
  6
CONTINUOUS
 62
     4
 10
75.154329000000004
 20
0.0
 30
0.0
 11
35.15432899999999
 21
0.0
 31
0.0
  0
LINE
  5
55F
  8
NOTE
  6
CONTINUOUS
 62
     4
 10
55.154328999999997
 20
20.000000000000011
 30
0.0
 11
55.154328999999997
 21
-20.0
 31
0.0
  0
LINE
  5
560
  8
NOTE
  6
CONTINUOUS
 62
     4
 10
89.282032000000001
 20
0.0
 30
0.0
 11
49.282032000000001
 21
0.0
 31
0.0
  0
LINE
  5
561
  8
NOTE
  6
CONTINUOUS
 62
     4
 10
69.282032000000001
 20
20.000000000000011
 30
0.0
 11
69.282032000000001
 21
-20.0
 31
0.0
  0
LINE
  5
562
  8
SIZE
  6
CONTINUOUS
 62
    30
 10
0.0
 20
69.299501999999876
 30
0.0
 11
0.0
 21
209.61886699999999
 31
0.0
  0
LINE
  5
563
  8
SIZE
  6
CONTINUOUS
 62
    30
 10
108.0
 20
1.0000000000000211
 30
0.0
 11
108.0
 21
209.61886699999999
 31
0.0
  0
LINE
  5
564
  8
SIZE
  6
CONTINUOUS
 62
    30
 10
12.0
 20
189.6188669999998
 30
0.0
 11
96.0
 21
189.6188669999998
 31
0.0
  0
TEXT
  5
565
  8
SIZE
  6
CONTINUOUS
 62
    30
 10
-11.19479657142857
 20
214.61886699999991
 30
0.0
 40
64.0
  1
108
 41
0.9
 72
     1
 11
57.376632000000001
 21
214.61886699999991
 31
0.0
  0
CIRCLE
  5
566
  8
SIZE
  6
CONTINUOUS
 62
    30
 10
0.0
 20
189.6188669999998
 30
0.0
 40
6.0
  0
LINE
  5
567
  8
SIZE
  6
CONTINUOUS
 62
    30
 10
0.0
 20
189.6188669999998
 30
0.0
 11
12.0
 21
189.6188669999998
 31
0.0
  0
CIRCLE
  5
568
  8
SIZE
  6
CONTINUOUS
 62
    30
 10
108.0
 20
189.6188669999998
 30
0.0
 40
6.0
  0
LINE
  5
569
  8
SIZE
  6
CONTINUOUS
 62
    30
 10
108.0
 20
189.6188669999998
 30
0.0
 11
96.0
 21
189.6188669999998
 31
0.0
  0
LINE
  5
56A
  8
DETAIL
  6
CONTINUOUS
 62
     5
 10
-90.0
 20
0.0
 30
0.0
 11
-90.0
 21
-14.99999999999998
 31
0.0
  0
LINE
  5
56B
  8
SIZE
  6
CONTINUOUS
 62
    30
 10
-90.0
 20
-20.0
 30
0.0
 11
-90.0
 21
-287.31840899999992
 31
0.0
  0
LINE
  5
56C
  8
SIZE
  6
CONTINUOUS
 62
    30
 10
90.0
 20
-26.0
 30
0.0
 11
90.0
 21
-287.31840899999992
 31
0.0
  0
LINE
  5
56D
  8
SIZE
  6
CONTINUOUS
 62
    30
 10
-102.0
 20
-267.31840899999992
 30
0.0
 11
-114.0
 21
-267.31840899999992
 31
0.0
  0
LINE
  5
56E
  8
SIZE
  6
CONTINUOUS
 62
    30
 10
102.0
 20
-267.31840899999992
 30
0.0
 11
114.0
 21
-267.31840899999992
 31
0.0
  0
LINE
  5
56F
  8
SIZE
  6
CONTINUOUS
 62
    30
 10
-90.0
 20
-267.31840899999992
 30
0.0
 11
90.0
 21
-267.31840899999992
 31
0.0
  0
CIRCLE
  5
570
  8
SIZE
  6
CONTINUOUS
 62
    30
 10
-90.0
 20
-267.31840899999992
 30
0.0
 40
6.0
  0
LINE
  5
571
  8
SIZE
  6
CONTINUOUS
 62
    30
 10
-90.0
 20
-267.31840899999992
 30
0.0
 11
-102.0
 21
-267.31840899999992
 31
0.0
  0
CIRCLE
  5
572
  8
SIZE
  6
CONTINUOUS
 62
    30
 10
90.0
 20
-267.31840899999992
 30
0.0
 40
6.0
  0
LINE
  5
573
  8
SIZE
  6
CONTINUOUS
 62
    30
 10
90.0
 20
-267.31840899999992
 30
0.0
 11
102.0
 21
-267.31840899999992
 31
0.0
  0
TEXT
  5
574
  8
SIZE
  6
CONTINUOUS
 62
    30
 10
-108.89142857142851
 20
-242.31840899999989
 30
0.0
 40
64.0
  1
φ180
 41
0.9
 72
     1
 11
0.0
 21
-242.31840899999989
 31
0.0
  0
LINE
  5
575
  8
SIZE
  6
CONTINUOUS
 62
    30
 10
120.0
 20
0.0
 30
0.0
 11
493.82427499999989
 21
0.0
 31
0.0
  0
LINE
  5
576
  8
SIZE
  6
CONTINUOUS
 62
    30
 10
20.0
 20
-108.9999999999999
 30
0.0
 11
493.82427499999989
 21
-108.9999999999999
 31
0.0
  0
LINE
  5
577
  8
SIZE
  6
CONTINUOUS
 62
    30
 10
473.824275
 20
-12.0
 30
0.0
 11
473.824275
 21
-96.999999999999972
 31
0.0
  0
LINE
  5
578
  8
SIZE
  6
CONTINUOUS
 62
    30
 10
473.824275
 20
-312.06444299999993
 30
0.0
 11
473.824275
 21
-108.9999999999999
 31
0.0
  0
TEXT
  5
579
  8
SIZE
  6
CONTINUOUS
 62
    30
 10
448.824275
 20
-287.06444299999993
 30
0.0
 40
64.0
  1
109
 50
90.0
 41
0.9
 72
     1
 11
448.824275
 21
-219.86444299999991
 31
0.0
  0
CIRCLE
  5
57A
  8
SIZE
  6
CONTINUOUS
 62
    30
 10
473.824275
 20
0.0
 30
0.0
 40
6.0
  0
LINE
  5
57B
  8
SIZE
  6
CONTINUOUS
 62
    30
 10
473.824275
 20
0.0
 30
0.0
 11
473.824275
 21
-12.0
 31
0.0
  0
CIRCLE
  5
57C
  8
SIZE
  6
CONTINUOUS
 62
    30
 10
473.824275
 20
-108.9999999999999
 30
0.0
 40
6.0
  0
LINE
  5
57D
  8
SIZE
  6
CONTINUOUS
 62
    30
 10
473.824275
 20
-108.9999999999999
 30
0.0
 11
473.824275
 21
-96.999999999999972
 31
0.0
  0
LINE
  5
57E
  8
DETAIL
  6
CONTINUOUS
 62
     5
 10
78.486591000000004
 20
-14.99999999999998
 30
0.0
 11
89.799777000000006
 21
-14.99999999999998
 31
0.0
  0
LINE
  5
57F
  8
DETAIL
  6
CONTINUOUS
 62
     5
 10
67.614191000000005
 20
-14.99999999999998
 30
0.0
 11
77.386591000000024
 21
-14.99999999999998
 31
0.0
  0
LINE
  5
580
  8
DETAIL
  6
CONTINUOUS
 62
     5
 10
53.786726000000002
 20
-14.99999999999998
 30
0.0
 11
66.142103000000006
 21
-14.99999999999998
 31
0.0
  0
LINE
  5
581
  8
DETAIL
  6
CONTINUOUS
 62
     5
 10
37.608522999999991
 20
-14.99999999999998
 30
0.0
 11
52.006889000000001
 21
-14.99999999999998
 31
0.0
  0
LINE
  5
582
  8
DETAIL
  6
CONTINUOUS
 62
     5
 10
19.786646999999991
 20
-14.99999999999998
 30
0.0
 11
35.598723
 21
-14.99999999999998
 31
0.0
  0
LINE
  5
583
  8
DETAIL
  6
CONTINUOUS
 62
     5
 10
1.0999999999999981
 20
-14.99999999999998
 30
0.0
 11
17.634723000000001
 21
-14.99999999999998
 31
0.0
  0
LINE
  5
584
  8
DETAIL
  6
CONTINUOUS
 62
     5
 10
-17.634723000000001
 20
-14.99999999999998
 30
0.0
 11
-1.1000000000000001
 21
-14.99999999999998
 31
0.0
  0
LINE
  5
585
  8
DETAIL
  6
CONTINUOUS
 62
     5
 10
-35.598723
 20
-14.99999999999998
 30
0.0
 11
-19.786646999999991
 21
-14.99999999999998
 31
0.0
  0
LINE
  5
586
  8
DETAIL
  6
CONTINUOUS
 62
     5
 10
-37.608522999999991
 20
-14.99999999999998
 30
0.0
 11
-52.006889000000001
 21
-14.99999999999998
 31
0.0
  0
LINE
  5
587
  8
DETAIL
  6
CONTINUOUS
 62
     5
 10
-53.786726000000002
 20
-14.99999999999998
 30
0.0
 11
-66.142103000000006
 21
-14.99999999999998
 31
0.0
  0
LINE
  5
588
  8
DETAIL
  6
CONTINUOUS
 62
     5
 10
-67.614191000000005
 20
-14.99999999999998
 30
0.0
 11
-77.386591000000024
 21
-14.99999999999998
 31
0.0
  0
LINE
  5
589
  8
DETAIL
  6
CONTINUOUS
 62
     5
 10
-78.486591000000004
 20
-14.99999999999998
 30
0.0
 11
-90.0
 21
-14.99999999999998
 31
0.0
  0
LINE
  5
58A
  8
SIZE
  6
CONTINUOUS
 62
    30
 10
117.42265
 20
-6.0
 30
0.0
 11
306.45424500000001
 21
-6.0
 31
0.0
  0
LINE
  5
58B
  8
SIZE
  6
CONTINUOUS
 62
    30
 10
101.4442509999998
 20
-14.99999999999998
 30
0.0
 11
306.45424500000001
 21
-14.99999999999998
 31
0.0
  0
LINE
  5
58C
  8
SIZE
  6
CONTINUOUS
 62
    30
 10
286.45424500000001
 20
6.0000000000000142
 30
0.0
 11
286.45424500000001
 21
18.000000000000011
 31
0.0
  0
LINE
  5
58D
  8
SIZE
  6
CONTINUOUS
 62
    30
 10
286.45424500000001
 20
-27.0
 30
0.0
 11
286.45424500000001
 21
-39.0
 31
0.0
  0
LINE
  5
58E
  8
SIZE
  6
CONTINUOUS
 62
    30
 10
286.45424500000001
 20
122.975376
 30
0.0
 11
286.45424500000001
 21
-6.0
 31
0.0
  0
TEXT
  5
58F
  8
SIZE
  6
CONTINUOUS
 62
    30
 10
261.45424500000001
 20
62.318232571428418
 30
0.0
 40
64.0
  1
9
 50
90.0
 41
0.9
 72
     1
 11
261.45424500000001
 21
80.146803999999847
 31
0.0
  0
LINE
  5
590
  8
SIZE
  6
CONTINUOUS
 62
    30
 10
286.45424500000001
 20
-6.0
 30
0.0
 11
286.45424500000001
 21
-14.99999999999998
 31
0.0
  0
LINE
  5
591
  8
SIZE
  6
CONTINUOUS
 62
    30
 10
286.45424500000001
 20
-6.0
 30
0.0
 11
286.45424500000001
 21
-14.99999999999998
 31
0.0
  0
CIRCLE
  5
592
  8
SIZE
  6
CONTINUOUS
 62
    30
 10
286.45424500000001
 20
-6.0
 30
0.0
 40
6.0
  0
LINE
  5
593
  8
SIZE
  6
CONTINUOUS
 62
    30
 10
286.45424500000001
 20
-6.0
 30
0.0
 11
286.45424500000001
 21
6.0000000000000142
 31
0.0
  0
CIRCLE
  5
594
  8
SIZE
  6
CONTINUOUS
 62
    30
 10
286.45424500000001
 20
-14.99999999999998
 30
0.0
 40
6.0
  0
LINE
  5
595
  8
SIZE
  6
CONTINUOUS
 62
    30
 10
286.45424500000001
 20
-14.99999999999998
 30
0.0
 11
286.45424500000001
 21
-27.0
 31
0.0
  0
LINE
  5
596
  8
SIZE
  6
CONTINUOUS
 62
    30
 10
117.42265
 20
-6.0
 30
0.0
 11
378.85422699999992
 21
-6.0
 31
0.0
  0
LINE
  5
597
  8
SIZE
  6
CONTINUOUS
 62
    30
 10
20.0
 20
-108.9999999999999
 30
0.0
 11
378.85422699999992
 21
-108.9999999999999
 31
0.0
  0
LINE
  5
598
  8
SIZE
  6
CONTINUOUS
 62
    30
 10
358.85422699999998
 20
-18.0
 30
0.0
 11
358.85422699999998
 21
-96.999999999999972
 31
0.0
  0
LINE
  5
599
  8
SIZE
  6
CONTINUOUS
 62
    30
 10
358.85422699999998
 20
-313.43587199999979
 30
0.0
 11
358.85422699999998
 21
-108.9999999999999
 31
0.0
  0
TEXT
  5
59A
  8
SIZE
  6
CONTINUOUS
 62
    30
 10
333.85422699999998
 20
-288.43587157142849
 30
0.0
 40
64.0
  1
103
 50
90.0
 41
0.9
 72
     1
 11
333.85422699999998
 21
-219.86444299999991
 31
0.0
  0
CIRCLE
  5
59B
  8
SIZE
  6
CONTINUOUS
 62
    30
 10
358.85422699999998
 20
-6.0
 30
0.0
 40
6.0
  0
LINE
  5
59C
  8
SIZE
  6
CONTINUOUS
 62
    30
 10
358.85422699999998
 20
-6.0
 30
0.0
 11
358.85422699999998
 21
-18.0
 31
0.0
  0
CIRCLE
  5
59D
  8
SIZE
  6
CONTINUOUS
 62
    30
 10
358.85422699999998
 20
-108.9999999999999
 30
0.0
 40
6.0
  0
LINE
  5
59E
  8
SIZE
  6
CONTINUOUS
 62
    30
 10
358.85422699999998
 20
-108.9999999999999
 30
0.0
 11
358.85422699999998
 21
-96.999999999999972
 31
0.0
  0
TEXT
  5
59F
  8
NOTE
  6
CONTINUOUS
 62
     4
 10
-497.568219
 20
231.90568599999989
 30
0.0
 40
64.0
  1
4-φ8.5
 41
0.9
  0
LINE
  5
5A0
  8
NOTE
  6
CONTINUOUS
 62
     4
 10
-516.80647599999998
 20
201.735411
 30
0.0
 11
-158.59018
 21
201.735411
 31
0.0
  0
LINE
  5
5A1
  8
NOTE
  6
CONTINUOUS
 62
     4
 39
50.0
 10
-55.154328999999997
 20
0.0
 30
0.0
 11
-158.59018
 21
201.735411
 31
0.0
  0
LINE
  5
5A2
  8
NOTE
  6
CONTINUOUS
 62
     4
 10
-82.445740999999984
 20
29.243440000000039
 30
0.0
 11
-55.154328999999997
 21
0.0
 31
0.0
  0
LINE
  5
5A3
  8
NOTE
  6
CONTINUOUS
 62
     4
 10
-55.154328999999997
 20
0.0
 30
0.0
 11
-64.167665
 21
38.971269000000028
 31
0.0
  0
TEXT
  5
5A4
  8
NOTE
  6
CONTINUOUS
 62
     4
 10
-416.05453099999988
 20
100.81658
 30
0.0
 40
64.0
  1
4-φ5
 41
0.9
  0
LINE
  5
5A5
  8
NOTE
  6
CONTINUOUS
 62
     4
 10
-162.79239200000001
 20
70.646303999999887
 30
0.0
 11
-436.52689299999997
 21
70.646303999999887
 31
0.0
  0
LINE
  5
5A6
  8
NOTE
  6
CONTINUOUS
 62
     4
 10
-69.281999999999996
 20
0.0
 30
0.0
 11
-162.79239200000001
 21
70.646303999999887
 31
0.0
  0
LINE
  5
5A7
  8
NOTE
  6
CONTINUOUS
 62
     4
 10
-94.004419000000027
 20
31.445222000000019
 30
0.0
 11
-69.281999999999996
 21
0.0
 31
0.0
  0
LINE
  5
5A8
  8
NOTE
  6
CONTINUOUS
 62
     4
 10
-69.281999999999996
 20
0.0
 30
0.0
 11
-106.41485400000001
 21
14.87115100000001
 31
0.0
  0
ARC
  5
5A9
  8
NOTE
  6
CONTINUOUS
 62
     4
 10
-255.93205499999991
 20
146.02573599999999
 30
0.0
 40
4.0
 50
180.0
 51
232.92926399999999
  0
LINE
  5
5AA
  8
DETAIL
  6
CONTINUOUS
 62
     5
 10
90.0
 20
0.0
 30
0.0
 11
90.0
 21
-14.99999999999998
 31
0.0
  0
LINE
  5
5AB
  8
DETAIL
  6
CONTINUOUS
 62
     5
 10
-100.13397500000001
 20
-5.6961519999999686
 30
0.0
 11
-108.0
 21
-19.0
 31
0.0
  0
LINE
  5
5AC
  8
DETAIL
  6
CONTINUOUS
 62
     5
 10
-106.267949
 20
-20.0
 30
0.0
 11
-108.0
 21
-19.0
 31
0.0
  0
LINE
  5
5AD
  8
DETAIL
  6
CONTINUOUS
 62
     5
 10
-100.0
 20
-5.196151999999997
 30
0.0
 11
-100.0
 21
0.0
 31
0.0
  0
ARC
  5
5AE
  8
DETAIL
  6
CONTINUOUS
 62
     5
 10
-11.05473099999999
 20
-500.2287189999999
 30
0.0
 40
494.35233699999998
 50
76.27122599999997
 51
78.22168299999997
  0
ARC
  5
5AF
  8
DETAIL
  6
CONTINUOUS
 62
     5
 10
11.05473099999999
 20
-500.2287189999999
 30
0.0
 40
494.35233699999998
 50
101.743971
 51
103.728774
  0
LINE
  5
5B0
  8
OUTLINE
  6
CONTINUOUS
 62
     3
 10
-100.3136269999999
 20
-6.0
 30
0.0
 11
100.3136269999999
 21
-6.0
 31
0.0
  0
ARC
  5
5B1
  8
OUTLINE
  6
CONTINUOUS
 62
     3
 10
-11.05473099999999
 20
-500.2287189999999
 30
0.0
 40
494.35233699999998
 50
76.27122599999997
 51
78.22168299999997
  0
LINE
  5
5B2
  8
OUTLINE
  6
CONTINUOUS
 62
     3
 10
0.0
 20
-43.999999999999979
 30
0.0
 11
1.0999999999999981
 21
-43.999999999999979
 31
0.0
  0
LINE
  5
5B3
  8
OUTLINE
  6
CONTINUOUS
 62
     3
 10
-13.383217999999999
 20
0.0
 30
0.0
 11
100.0
 21
0.0
 31
0.0
  0
ARC
  5
5B4
  8
OUTLINE
  6
CONTINUOUS
 62
     3
 10
0.0
 20
55.999999999999901
 30
0.0
 40
165.0
 50
242.30262499999989
 51
297.69791800000002
  0
ARC
  5
5B5
  8
OUTLINE
  6
CONTINUOUS
 62
     3
 10
-68.790618999999992
 20
-75.041407999999961
 30
0.0
 40
17.0
 50
182.0
 51
242.30262499999989
  0
LINE
  5
5B6
  8
OUTLINE
  6
CONTINUOUS
 62
     3
 10
-100.0
 20
0.0
 30
0.0
 11
-13.383217999999999
 21
0.0
 31
0.0
  0
ARC
  5
5B7
  8
OUTLINE
  6
CONTINUOUS
 62
     3
 10
11.05473099999999
 20
-500.2287189999999
 30
0.0
 40
494.35233699999998
 50
101.778317
 51
103.728774
  0
LINE
  5
5B8
  8
OUTLINE
  6
CONTINUOUS
 62
     3
 10
-53.786726000000002
 20
-14.99999999999998
 30
0.0
 11
-66.142103000000006
 21
-14.99999999999998
 31
0.0
  0
LINE
  5
5B9
  8
OUTLINE
  6
CONTINUOUS
 62
     3
 10
-100.0
 20
-5.196151999999997
 30
0.0
 11
-100.0
 21
0.0
 31
0.0
  0
LINE
  5
5BA
  8
OUTLINE
  6
CONTINUOUS
 62
     3
 10
-106.267949
 20
-20.0
 30
0.0
 11
-108.0
 21
-19.0
 31
0.0
  0
LINE
  5
5BB
  8
OUTLINE
  6
CONTINUOUS
 62
     3
 10
-100.13397500000001
 20
-5.6961519999999686
 30
0.0
 11
-108.0
 21
-19.0
 31
0.0
  0
LINE
  5
5BC
  8
OUTLINE
  6
CONTINUOUS
 62
     3
 10
-90.0
 20
0.0
 30
0.0
 11
-90.0
 21
-14.99999999999998
 31
0.0
  0
LINE
  5
5BD
  8
OUTLINE
  6
CONTINUOUS
 62
     3
 10
-86.517669999999967
 20
-43.999999999999979
 30
0.0
 11
-86.205389999999994
 21
-43.999999999999979
 31
0.0
  0
LINE
  5
5BE
  8
OUTLINE
  6
CONTINUOUS
 62
     3
 10
-82.935389999999998
 20
-43.999999999999979
 30
0.0
 11
-82.207837999999967
 21
-43.999999999999979
 31
0.0
  0
LINE
  5
5BF
  8
OUTLINE
  6
CONTINUOUS
 62
     3
 10
-88.506669999999986
 20
-41.999999999999979
 30
0.0
 11
-89.615412000000006
 21
-14.99999999999998
 31
0.0
  0
LINE
  5
5C0
  8
OUTLINE
  6
CONTINUOUS
 62
     3
 10
-88.276707999999985
 20
-41.999999999999979
 30
0.0
 11
-89.38544899999998
 21
-14.99999999999998
 31
0.0
  0
LINE
  5
5C1
  8
OUTLINE
  6
CONTINUOUS
 62
     3
 10
-85.897673999999967
 20
-14.99999999999998
 30
0.0
 11
-84.837389999999985
 21
-41.999999999999979
 31
0.0
  0
LINE
  5
5C2
  8
OUTLINE
  6
CONTINUOUS
 62
     3
 10
-85.248913000000002
 20
-14.99999999999998
 30
0.0
 11
-84.188629000000006
 21
-41.999999999999979
 31
0.0
  0
LINE
  5
5C3
  8
OUTLINE
  6
CONTINUOUS
 62
     3
 10
-88.954950999999966
 20
-42.065860999999991
 30
0.0
 11
-89.900111999999964
 21
-14.99999999999998
 31
0.0
  0
LINE
  5
5C4
  8
OUTLINE
  6
CONTINUOUS
 62
     3
 10
-88.506669999999986
 20
-41.999999999999979
 30
0.0
 11
-88.476453000000006
 21
-42.347295999999979
 31
0.0
  0
LINE
  5
5C5
  8
OUTLINE
  6
CONTINUOUS
 62
     3
 10
-88.476453000000006
 20
-42.347295999999979
 30
0.0
 11
-88.386718999999985
 21
-42.684039999999989
 31
0.0
  0
LINE
  5
5C6
  8
OUTLINE
  6
CONTINUOUS
 62
     3
 10
-88.386718999999985
 20
-42.684039999999989
 30
0.0
 11
-88.240195
 21
-42.999999999999979
 31
0.0
  0
LINE
  5
5C7
  8
OUTLINE
  6
CONTINUOUS
 62
     3
 10
-88.240195
 20
-42.999999999999979
 30
0.0
 11
-88.04133299999998
 21
-43.28557499999998
 31
0.0
  0
LINE
  5
5C8
  8
OUTLINE
  6
CONTINUOUS
 62
     3
 10
-88.04133299999998
 20
-43.28557499999998
 30
0.0
 11
-87.796175000000005
 21
-43.532088999999999
 31
0.0
  0
LINE
  5
5C9
  8
OUTLINE
  6
CONTINUOUS
 62
     3
 10
-87.796175000000005
 20
-43.532088999999999
 30
0.0
 11
-87.512169999999998
 21
-43.732050999999977
 31
0.0
  0
LINE
  5
5CA
  8
OUTLINE
  6
CONTINUOUS
 62
     3
 10
-87.512169999999998
 20
-43.732050999999977
 30
0.0
 11
-87.197947999999982
 21
-43.879384999999992
 31
0.0
  0
LINE
  5
5CB
  8
OUTLINE
  6
CONTINUOUS
 62
     3
 10
-87.197947999999982
 20
-43.879384999999992
 30
0.0
 11
-86.863056
 21
-43.969615999999988
 31
0.0
  0
LINE
  5
5CC
  8
OUTLINE
  6
CONTINUOUS
 62
     3
 10
-86.863056
 20
-43.969615999999988
 30
0.0
 11
-86.517669999999967
 21
-43.999999999999979
 31
0.0
  0
LINE
  5
5CD
  8
OUTLINE
  6
CONTINUOUS
 62
     3
 10
-88.276707999999985
 20
-41.999999999999979
 30
0.0
 11
-88.244881999999947
 21
-42.35634499999999
 31
0.0
  0
LINE
  5
5CE
  8
OUTLINE
  6
CONTINUOUS
 62
     3
 10
-88.244881999999947
 20
-42.35634499999999
 30
0.0
 11
-88.150424999999998
 21
-42.701285999999982
 31
0.0
  0
LINE
  5
5CF
  8
OUTLINE
  6
CONTINUOUS
 62
     3
 10
-88.150424999999998
 20
-42.701285999999982
 30
0.0
 11
-87.996357000000003
 21
-43.023784999999982
 31
0.0
  0
LINE
  5
5D0
  8
OUTLINE
  6
CONTINUOUS
 62
     3
 10
-87.996357000000003
 20
-43.023784999999982
 30
0.0
 11
-87.787610999999998
 21
-43.313521999999992
 31
0.0
  0
LINE
  5
5D1
  8
OUTLINE
  6
CONTINUOUS
 62
     3
 10
-87.787610999999998
 20
-43.313521999999992
 30
0.0
 11
-87.530865000000006
 21
-43.561223999999989
 31
0.0
  0
LINE
  5
5D2
  8
OUTLINE
  6
CONTINUOUS
 62
     3
 10
-87.530865000000006
 20
-43.561223999999989
 30
0.0
 11
-87.234335999999985
 21
-43.758963999999992
 31
0.0
  0
LINE
  5
5D3
  8
OUTLINE
  6
CONTINUOUS
 62
     3
 10
-87.234335999999985
 20
-43.758963999999992
 30
0.0
 11
-86.907514000000006
 21
-43.900414999999981
 31
0.0
  0
LINE
  5
5D4
  8
OUTLINE
  6
CONTINUOUS
 62
     3
 10
-86.907514000000006
 20
-43.900414999999981
 30
0.0
 11
-86.560857999999968
 21
-43.981050999999979
 31
0.0
  0
LINE
  5
5D5
  8
OUTLINE
  6
CONTINUOUS
 62
     3
 10
-86.560857999999968
 20
-43.981050999999979
 30
0.0
 11
-86.205460000000002
 21
-43.998288999999978
 31
0.0
  0
LINE
  5
5D6
  8
OUTLINE
  6
CONTINUOUS
 62
     3
 10
-86.287519000000003
 20
-41.999999999999979
 30
0.0
 11
-86.205389999999994
 21
-43.999999999999979
 31
0.0
  0
LINE
  5
5D7
  8
OUTLINE
  6
CONTINUOUS
 62
     3
 10
-84.837389999999985
 20
-41.999999999999979
 30
0.0
 11
-84.800843999999998
 21
-42.390180999999998
 31
0.0
  0
LINE
  5
5D8
  8
OUTLINE
  6
CONTINUOUS
 62
     3
 10
-84.800843999999998
 20
-42.390180999999998
 30
0.0
 11
-84.692609000000004
 21
-42.765366999999983
 31
0.0
  0
LINE
  5
5D9
  8
OUTLINE
  6
CONTINUOUS
 62
     3
 10
-84.692609000000004
 20
-42.765366999999983
 30
0.0
 11
-84.516844999999975
 21
-43.111139999999992
 31
0.0
  0
LINE
  5
5DA
  8
OUTLINE
  6
CONTINUOUS
 62
     3
 10
-84.516844999999975
 20
-43.111139999999992
 30
0.0
 11
-84.280306999999979
 21
-43.414214000000001
 31
0.0
  0
LINE
  5
5DB
  8
OUTLINE
  6
CONTINUOUS
 62
     3
 10
-84.280306999999979
 20
-43.414214000000001
 30
0.0
 11
-83.992085000000003
 21
-43.66293899999998
 31
0.0
  0
LINE
  5
5DC
  8
OUTLINE
  6
CONTINUOUS
 62
     3
 10
-83.992085000000003
 20
-43.66293899999998
 30
0.0
 11
-83.663253999999995
 21
-43.847758999999989
 31
0.0
  0
LINE
  5
5DD
  8
OUTLINE
  6
CONTINUOUS
 62
     3
 10
-83.663253999999995
 20
-43.847758999999989
 30
0.0
 11
-83.306451999999965
 21
-43.961570999999992
 31
0.0
  0
LINE
  5
5DE
  8
OUTLINE
  6
CONTINUOUS
 62
     3
 10
-83.306451999999965
 20
-43.961570999999992
 30
0.0
 11
-82.935389999999998
 21
-43.999999999999979
 31
0.0
  0
LINE
  5
5DF
  8
OUTLINE
  6
CONTINUOUS
 62
     3
 10
-84.188629000000006
 20
-41.999999999999979
 30
0.0
 11
-84.152082999999976
 21
-42.390180999999998
 31
0.0
  0
LINE
  5
5E0
  8
OUTLINE
  6
CONTINUOUS
 62
     3
 10
-84.152082999999976
 20
-42.390180999999998
 30
0.0
 11
-84.043847999999983
 21
-42.765366999999983
 31
0.0
  0
LINE
  5
5E1
  8
OUTLINE
  6
CONTINUOUS
 62
     3
 10
-84.043847999999983
 20
-42.765366999999983
 30
0.0
 11
-83.868084999999994
 21
-43.111139999999992
 31
0.0
  0
LINE
  5
5E2
  8
OUTLINE
  6
CONTINUOUS
 62
     3
 10
-83.868084999999994
 20
-43.111139999999992
 30
0.0
 11
-83.631546999999998
 21
-43.414214000000001
 31
0.0
  0
LINE
  5
5E3
  8
OUTLINE
  6
CONTINUOUS
 62
     3
 10
-83.631546999999998
 20
-43.414214000000001
 30
0.0
 11
-83.343323999999996
 21
-43.66293899999998
 31
0.0
  0
LINE
  5
5E4
  8
OUTLINE
  6
CONTINUOUS
 62
     3
 10
-83.343323999999996
 20
-43.66293899999998
 30
0.0
 11
-83.014492999999987
 21
-43.847758999999989
 31
0.0
  0
LINE
  5
5E5
  8
OUTLINE
  6
CONTINUOUS
 62
     3
 10
-83.014492999999987
 20
-43.847758999999989
 30
0.0
 11
-82.657690999999986
 21
-43.961570999999992
 31
0.0
  0
LINE
  5
5E6
  8
OUTLINE
  6
CONTINUOUS
 62
     3
 10
-82.657690999999986
 20
-43.961570999999992
 30
0.0
 11
-82.286629000000005
 21
-43.999999999999979
 31
0.0
  0
LINE
  5
5E7
  8
OUTLINE
  6
CONTINUOUS
 62
     3
 10
-82.286377000000002
 20
-41.999999999999979
 30
0.0
 11
-82.207837999999967
 21
-43.999999999999979
 31
0.0
  0
ARC
  5
5E8
  8
OUTLINE
  6
CONTINUOUS
 62
     3
 10
-86.95617
 20
-41.996061999999988
 30
0.0
 40
2.0
 50
182.0
 51
272.0
  0
LINE
  5
5E9
  8
OUTLINE
  6
CONTINUOUS
 62
     3
 10
-85.781505000000024
 20
-75.634047999999979
 30
0.0
 11
-86.886370999999997
 21
-43.994843999999979
 31
0.0
  0
LINE
  5
5EA
  8
OUTLINE
  6
CONTINUOUS
 62
     3
 10
-67.614191000000005
 20
-14.99999999999998
 30
0.0
 11
-77.386591000000024
 21
-14.99999999999998
 31
0.0
  0
LINE
  5
5EB
  8
OUTLINE
  6
CONTINUOUS
 62
     3
 10
-74.689104
 20
-43.999999999999979
 30
0.0
 11
-75.789104000000023
 21
-43.999999999999979
 31
0.0
  0
LINE
  5
5EC
  8
OUTLINE
  6
CONTINUOUS
 62
     3
 10
-83.346660999999969
 20
-14.99999999999998
 30
0.0
 11
-82.286377000000002
 21
-41.999999999999979
 31
0.0
  0
LINE
  5
5ED
  8
OUTLINE
  6
CONTINUOUS
 62
     3
 10
-87.253005999999999
 20
-14.99999999999998
 30
0.0
 11
-86.287519000000003
 21
-41.999999999999979
 31
0.0
  0
LINE
  5
5EE
  8
OUTLINE
  6
CONTINUOUS
 62
     3
 10
-78.486591000000004
 20
-14.99999999999998
 30
0.0
 11
-77.52110399999998
 21
-41.999999999999979
 31
0.0
  0
LINE
  5
5EF
  8
OUTLINE
  6
CONTINUOUS
 62
     3
 10
-77.386591000000024
 20
-14.99999999999998
 30
0.0
 11
-76.421103999999985
 21
-41.999999999999979
 31
0.0
  0
LINE
  5
5F0
  8
OUTLINE
  6
CONTINUOUS
 62
     3
 10
-77.52110399999998
 20
-41.999999999999979
 30
0.0
 11
-77.487824000000003
 21
-42.390180999999998
 31
0.0
  0
LINE
  5
5F1
  8
OUTLINE
  6
CONTINUOUS
 62
     3
 10
-77.487824000000003
 20
-42.390180999999998
 30
0.0
 11
-77.389263
 21
-42.765366999999983
 31
0.0
  0
LINE
  5
5F2
  8
OUTLINE
  6
CONTINUOUS
 62
     3
 10
-77.389263
 20
-42.765366999999983
 30
0.0
 11
-77.229208999999983
 21
-43.111139999999992
 31
0.0
  0
LINE
  5
5F3
  8
OUTLINE
  6
CONTINUOUS
 62
     3
 10
-77.229208999999983
 20
-43.111139999999992
 30
0.0
 11
-77.013812999999999
 21
-43.414214000000001
 31
0.0
  0
LINE
  5
5F4
  8
OUTLINE
  6
CONTINUOUS
 62
     3
 10
-77.013812999999999
 20
-43.414214000000001
 30
0.0
 11
-76.751351999999983
 21
-43.66293899999998
 31
0.0
  0
LINE
  5
5F5
  8
OUTLINE
  6
CONTINUOUS
 62
     3
 10
-76.751351999999983
 20
-43.66293899999998
 30
0.0
 11
-76.451911999999979
 21
-43.847758999999989
 31
0.0
  0
LINE
  5
5F6
  8
OUTLINE
  6
CONTINUOUS
 62
     3
 10
-76.451911999999979
 20
-43.847758999999989
 30
0.0
 11
-76.126999999999981
 21
-43.961570999999992
 31
0.0
  0
LINE
  5
5F7
  8
OUTLINE
  6
CONTINUOUS
 62
     3
 10
-76.126999999999981
 20
-43.961570999999992
 30
0.0
 11
-75.789104000000023
 21
-43.999999999999979
 31
0.0
  0
LINE
  5
5F8
  8
OUTLINE
  6
CONTINUOUS
 62
     3
 10
-76.421103999999985
 20
-41.999999999999979
 30
0.0
 11
-76.387823999999981
 21
-42.390180999999998
 31
0.0
  0
LINE
  5
5F9
  8
OUTLINE
  6
CONTINUOUS
 62
     3
 10
-76.387823999999981
 20
-42.390180999999998
 30
0.0
 11
-76.289263000000005
 21
-42.765366999999983
 31
0.0
  0
LINE
  5
5FA
  8
OUTLINE
  6
CONTINUOUS
 62
     3
 10
-76.289263000000005
 20
-42.765366999999983
 30
0.0
 11
-76.129209000000003
 21
-43.111139999999992
 31
0.0
  0
LINE
  5
5FB
  8
OUTLINE
  6
CONTINUOUS
 62
     3
 10
-76.129209000000003
 20
-43.111139999999992
 30
0.0
 11
-75.913813000000005
 21
-43.414214000000001
 31
0.0
  0
LINE
  5
5FC
  8
OUTLINE
  6
CONTINUOUS
 62
     3
 10
-75.913813000000005
 20
-43.414214000000001
 30
0.0
 11
-75.651352000000003
 21
-43.66293899999998
 31
0.0
  0
LINE
  5
5FD
  8
OUTLINE
  6
CONTINUOUS
 62
     3
 10
-75.651352000000003
 20
-43.66293899999998
 30
0.0
 11
-75.351911999999984
 21
-43.847758999999989
 31
0.0
  0
LINE
  5
5FE
  8
OUTLINE
  6
CONTINUOUS
 62
     3
 10
-75.351911999999984
 20
-43.847758999999989
 30
0.0
 11
-75.027000000000001
 21
-43.961570999999992
 31
0.0
  0
LINE
  5
5FF
  8
OUTLINE
  6
CONTINUOUS
 62
     3
 10
-75.027000000000001
 20
-43.961570999999992
 30
0.0
 11
-74.689104
 21
-43.999999999999979
 31
0.0
  0
LINE
  5
600
  8
OUTLINE
  6
CONTINUOUS
 62
     3
 10
-74.617469999999983
 20
-43.998288999999978
 30
0.0
 11
-74.688927000000007
 21
-41.999999999999979
 31
0.0
  0
LINE
  5
601
  8
OUTLINE
  6
CONTINUOUS
 62
     3
 10
-74.689104
 20
-43.999999999999979
 30
0.0
 11
-75.789104000000023
 21
-43.999999999999979
 31
0.0
  0
LINE
  5
602
  8
OUTLINE
  6
CONTINUOUS
 62
     3
 10
-63.765841000000002
 20
-43.999999999999979
 30
0.0
 11
-65.299696999999995
 21
-43.999999999999979
 31
0.0
  0
LINE
  5
603
  8
OUTLINE
  6
CONTINUOUS
 62
     3
 10
-75.654414000000003
 20
-14.99999999999998
 30
0.0
 11
-74.688927000000007
 21
-41.999999999999979
 31
0.0
  0
LINE
  5
604
  8
OUTLINE
  6
CONTINUOUS
 62
     3
 10
-66.785696999999999
 20
-41.999999999999979
 30
0.0
 11
-67.614191000000005
 21
-14.99999999999998
 31
0.0
  0
LINE
  5
605
  8
OUTLINE
  6
CONTINUOUS
 62
     3
 10
-65.313609999999997
 20
-41.999999999999979
 30
0.0
 11
-66.142103000000006
 21
-14.99999999999998
 31
0.0
  0
LINE
  5
606
  8
OUTLINE
  6
CONTINUOUS
 62
     3
 10
-74.617469999999983
 20
-43.998288999999978
 30
0.0
 11
-74.688927000000007
 21
-41.999999999999979
 31
0.0
  0
LINE
  5
607
  8
OUTLINE
  6
CONTINUOUS
 62
     3
 10
-66.785696999999999
 20
-41.999999999999979
 30
0.0
 11
-66.763120999999998
 21
-42.347295999999979
 31
0.0
  0
LINE
  5
608
  8
OUTLINE
  6
CONTINUOUS
 62
     3
 10
-66.763120999999998
 20
-42.347295999999979
 30
0.0
 11
-66.696080000000009
 21
-42.684039999999989
 31
0.0
  0
LINE
  5
609
  8
OUTLINE
  6
CONTINUOUS
 62
     3
 10
-66.696080000000009
 20
-42.684039999999989
 30
0.0
 11
-66.586611000000005
 21
-42.999999999999979
 31
0.0
  0
LINE
  5
60A
  8
OUTLINE
  6
CONTINUOUS
 62
     3
 10
-66.586611000000005
 20
-42.999999999999979
 30
0.0
 11
-66.438039000000003
 21
-43.28557499999998
 31
0.0
  0
LINE
  5
60B
  8
OUTLINE
  6
CONTINUOUS
 62
     3
 10
-66.438039000000003
 20
-43.28557499999998
 30
0.0
 11
-66.254879000000003
 21
-43.532088999999999
 31
0.0
  0
LINE
  5
60C
  8
OUTLINE
  6
CONTINUOUS
 62
     3
 10
-66.254879000000003
 20
-43.532088999999999
 30
0.0
 11
-66.042697000000004
 21
-43.732050999999977
 31
0.0
  0
LINE
  5
60D
  8
OUTLINE
  6
CONTINUOUS
 62
     3
 10
-66.042697000000004
 20
-43.732050999999977
 30
0.0
 11
-65.807938000000007
 21
-43.879384999999992
 31
0.0
  0
LINE
  5
60E
  8
OUTLINE
  6
CONTINUOUS
 62
     3
 10
-65.807938000000007
 20
-43.879384999999992
 30
0.0
 11
-65.557738000000001
 21
-43.969615999999988
 31
0.0
  0
LINE
  5
60F
  8
OUTLINE
  6
CONTINUOUS
 62
     3
 10
-65.557738000000001
 20
-43.969615999999988
 30
0.0
 11
-65.299695999999997
 21
-43.999999999999979
 31
0.0
  0
LINE
  5
610
  8
OUTLINE
  6
CONTINUOUS
 62
     3
 10
-65.313609999999997
 20
-41.999999999999979
 30
0.0
 11
-65.289827000000002
 21
-42.356383999999998
 31
0.0
  0
LINE
  5
611
  8
OUTLINE
  6
CONTINUOUS
 62
     3
 10
-65.289827000000002
 20
-42.356383999999998
 30
0.0
 11
-65.219240999999997
 21
-42.701360999999991
 31
0.0
  0
LINE
  5
612
  8
OUTLINE
  6
CONTINUOUS
 62
     3
 10
-65.219240999999997
 20
-42.701360999999991
 30
0.0
 11
-65.104111000000003
 21
-43.023887999999978
 31
0.0
  0
LINE
  5
613
  8
OUTLINE
  6
CONTINUOUS
 62
     3
 10
-65.104111000000003
 20
-43.023887999999978
 30
0.0
 11
-64.948122999999995
 21
-43.31364199999998
 31
0.0
  0
LINE
  5
614
  8
OUTLINE
  6
CONTINUOUS
 62
     3
 10
-64.948122999999995
 20
-43.31364199999998
 30
0.0
 11
-64.756268000000006
 21
-43.561348999999993
 31
0.0
  0
LINE
  5
615
  8
OUTLINE
  6
CONTINUOUS
 62
     3
 10
-64.756268000000006
 20
-43.561348999999993
 30
0.0
 11
-64.534688000000003
 21
-43.759077999999988
 31
0.0
  0
LINE
  5
616
  8
OUTLINE
  6
CONTINUOUS
 62
     3
 10
-64.534688000000003
 20
-43.759077999999988
 30
0.0
 11
-64.290475000000001
 21
-43.900502999999979
 31
0.0
  0
LINE
  5
617
  8
OUTLINE
  6
CONTINUOUS
 62
     3
 10
-64.290475000000001
 20
-43.900502999999979
 30
0.0
 11
-64.031447
 21
-43.981094999999989
 31
0.0
  0
LINE
  5
618
  8
OUTLINE
  6
CONTINUOUS
 62
     3
 10
-64.031447
 20
-43.981094999999989
 30
0.0
 11
-63.765894000000003
 21
-43.998273999999981
 31
0.0
  0
LINE
  5
619
  8
OUTLINE
  6
CONTINUOUS
 62
     3
 10
-64.655705000000012
 20
-14.99999999999998
 30
0.0
 11
-63.765841000000002
 21
-43.999999999999979
 31
0.0
  0
LINE
  5
61A
  8
OUTLINE
  6
CONTINUOUS
 62
     3
 10
-78.486591000000004
 20
-14.99999999999998
 30
0.0
 11
-90.0
 21
-14.99999999999998
 31
0.0
  0
LINE
  5
61B
  8
OUTLINE
  6
CONTINUOUS
 62
     3
 10
-37.608522999999991
 20
-14.99999999999998
 30
0.0
 11
-52.006889000000001
 21
-14.99999999999998
 31
0.0
  0
LINE
  5
61C
  8
OUTLINE
  6
CONTINUOUS
 62
     3
 10
-35.598723
 20
-14.99999999999998
 30
0.0
 11
-19.786646999999991
 21
-14.99999999999998
 31
0.0
  0
LINE
  5
61D
  8
OUTLINE
  6
CONTINUOUS
 62
     3
 10
-17.634723000000001
 20
-14.99999999999998
 30
0.0
 11
-1.1000000000000001
 21
-14.99999999999998
 31
0.0
  0
LINE
  5
61E
  8
OUTLINE
  6
CONTINUOUS
 62
     3
 10
-50.175596999999989
 20
-43.999999999999979
 30
0.0
 11
-51.955433999999997
 21
-43.999999999999979
 31
0.0
  0
LINE
  5
61F
  8
OUTLINE
  6
CONTINUOUS
 62
     3
 10
-34.331272999999989
 20
-43.999999999999979
 30
0.0
 11
-36.341073000000002
 21
-43.999999999999979
 31
0.0
  0
LINE
  5
620
  8
OUTLINE
  6
CONTINUOUS
 62
     3
 10
-53.786726000000002
 20
-14.99999999999998
 30
0.0
 11
-53.131433999999999
 21
-41.999999999999979
 31
0.0
  0
LINE
  5
621
  8
OUTLINE
  6
CONTINUOUS
 62
     3
 10
-52.006889000000001
 20
-14.99999999999998
 30
0.0
 11
-51.351596999999991
 21
-41.999999999999979
 31
0.0
  0
LINE
  5
622
  8
OUTLINE
  6
CONTINUOUS
 62
     3
 10
-37.155073000000002
 20
-41.999999999999979
 30
0.0
 11
-37.608522999999991
 21
-14.99999999999998
 31
0.0
  0
LINE
  5
623
  8
OUTLINE
  6
CONTINUOUS
 62
     3
 10
-35.145272999999989
 20
-41.999999999999979
 30
0.0
 11
-35.598723
 21
-14.99999999999998
 31
0.0
  0
LINE
  5
624
  8
OUTLINE
  6
CONTINUOUS
 62
     3
 10
-53.131433999999999
 20
-41.999999999999979
 30
0.0
 11
-53.113568000000008
 21
-42.347295999999979
 31
0.0
  0
LINE
  5
625
  8
OUTLINE
  6
CONTINUOUS
 62
     3
 10
-53.113568000000008
 20
-42.347295999999979
 30
0.0
 11
-53.060513
 21
-42.684039999999989
 31
0.0
  0
LINE
  5
626
  8
OUTLINE
  6
CONTINUOUS
 62
     3
 10
-53.060513
 20
-42.684039999999989
 30
0.0
 11
-52.973880000000001
 21
-42.999999999999979
 31
0.0
  0
LINE
  5
627
  8
OUTLINE
  6
CONTINUOUS
 62
     3
 10
-52.973880000000001
 20
-42.999999999999979
 30
0.0
 11
-52.856303000000011
 21
-43.28557499999998
 31
0.0
  0
LINE
  5
628
  8
OUTLINE
  6
CONTINUOUS
 62
     3
 10
-52.856303000000011
 20
-43.28557499999998
 30
0.0
 11
-52.711353000000003
 21
-43.532088999999999
 31
0.0
  0
LINE
  5
629
  8
OUTLINE
  6
CONTINUOUS
 62
     3
 10
-52.711353000000003
 20
-43.532088999999999
 30
0.0
 11
-52.543433999999991
 21
-43.732050999999977
 31
0.0
  0
LINE
  5
62A
  8
OUTLINE
  6
CONTINUOUS
 62
     3
 10
-52.543433999999991
 20
-43.732050999999977
 30
0.0
 11
-52.35765
 21
-43.879384999999992
 31
0.0
  0
LINE
  5
62B
  8
OUTLINE
  6
CONTINUOUS
 62
     3
 10
-52.35765
 20
-43.879384999999992
 30
0.0
 11
-52.159645000000012
 21
-43.969615999999988
 31
0.0
  0
LINE
  5
62C
  8
OUTLINE
  6
CONTINUOUS
 62
     3
 10
-52.159645000000012
 20
-43.969615999999988
 30
0.0
 11
-51.955433999999997
 21
-43.999999999999979
 31
0.0
  0
LINE
  5
62D
  8
OUTLINE
  6
CONTINUOUS
 62
     3
 10
-51.351596999999991
 20
-41.999999999999979
 30
0.0
 11
-51.329000999999998
 21
-42.390180999999998
 31
0.0
  0
LINE
  5
62E
  8
OUTLINE
  6
CONTINUOUS
 62
     3
 10
-51.329000999999998
 20
-42.390180999999998
 30
0.0
 11
-51.262079
 21
-42.765366999999983
 31
0.0
  0
LINE
  5
62F
  8
OUTLINE
  6
CONTINUOUS
 62
     3
 10
-51.262079
 20
-42.765366999999983
 30
0.0
 11
-51.153404999999999
 21
-43.111139999999992
 31
0.0
  0
LINE
  5
630
  8
OUTLINE
  6
CONTINUOUS
 62
     3
 10
-51.153404999999999
 20
-43.111139999999992
 30
0.0
 11
-51.00715499999999
 21
-43.414214000000001
 31
0.0
  0
LINE
  5
631
  8
OUTLINE
  6
CONTINUOUS
 62
     3
 10
-51.00715499999999
 20
-43.414214000000001
 30
0.0
 11
-50.828947999999997
 21
-43.66293899999998
 31
0.0
  0
LINE
  5
632
  8
OUTLINE
  6
CONTINUOUS
 62
     3
 10
-50.828947999999997
 20
-43.66293899999998
 30
0.0
 11
-50.625633000000001
 21
-43.847758999999989
 31
0.0
  0
LINE
  5
633
  8
OUTLINE
  6
CONTINUOUS
 62
     3
 10
-50.625633000000001
 20
-43.847758999999989
 30
0.0
 11
-50.405022999999993
 21
-43.961570999999992
 31
0.0
  0
LINE
  5
634
  8
OUTLINE
  6
CONTINUOUS
 62
     3
 10
-50.405022999999993
 20
-43.961570999999992
 30
0.0
 11
-50.175596999999989
 21
-43.999999999999979
 31
0.0
  0
LINE
  5
635
  8
OUTLINE
  6
CONTINUOUS
 62
     3
 10
-50.831232
 20
-14.99999999999998
 30
0.0
 11
-50.127400999999999
 21
-43.999999999999979
 31
0.0
  0
LINE
  5
636
  8
OUTLINE
  6
CONTINUOUS
 62
     3
 10
-37.155073000000002
 20
-41.999999999999979
 30
0.0
 11
-37.13943299999999
 21
-42.390180999999998
 31
0.0
  0
LINE
  5
637
  8
OUTLINE
  6
CONTINUOUS
 62
     3
 10
-37.13943299999999
 20
-42.390180999999998
 30
0.0
 11
-37.093111
 21
-42.765366999999983
 31
0.0
  0
LINE
  5
638
  8
OUTLINE
  6
CONTINUOUS
 62
     3
 10
-37.093111
 20
-42.765366999999983
 30
0.0
 11
-37.017890000000001
 21
-43.111139999999992
 31
0.0
  0
LINE
  5
639
  8
OUTLINE
  6
CONTINUOUS
 62
     3
 10
-37.017890000000001
 20
-43.111139999999992
 30
0.0
 11
-36.916657999999991
 21
-43.414214000000001
 31
0.0
  0
LINE
  5
63A
  8
OUTLINE
  6
CONTINUOUS
 62
     3
 10
-36.916657999999991
 20
-43.414214000000001
 30
0.0
 11
-36.79330800000001
 21
-43.66293899999998
 31
0.0
  0
LINE
  5
63B
  8
OUTLINE
  6
CONTINUOUS
 62
     3
 10
-36.79330800000001
 20
-43.66293899999998
 30
0.0
 11
-36.652577999999998
 21
-43.847758999999989
 31
0.0
  0
LINE
  5
63C
  8
OUTLINE
  6
CONTINUOUS
 62
     3
 10
-36.652577999999998
 20
-43.847758999999989
 30
0.0
 11
-36.499876999999998
 21
-43.961570999999992
 31
0.0
  0
LINE
  5
63D
  8
OUTLINE
  6
CONTINUOUS
 62
     3
 10
-36.499876999999998
 20
-43.961570999999992
 30
0.0
 11
-36.341073000000002
 21
-43.999999999999979
 31
0.0
  0
LINE
  5
63E
  8
OUTLINE
  6
CONTINUOUS
 62
     3
 10
-35.145272999999989
 20
-41.999999999999979
 30
0.0
 11
-35.129632999999998
 21
-42.390180999999998
 31
0.0
  0
LINE
  5
63F
  8
OUTLINE
  6
CONTINUOUS
 62
     3
 10
-35.129632999999998
 20
-42.390180999999998
 30
0.0
 11
-35.083311000000002
 21
-42.765366999999983
 31
0.0
  0
LINE
  5
640
  8
OUTLINE
  6
CONTINUOUS
 62
     3
 10
-35.083311000000002
 20
-42.765366999999983
 30
0.0
 11
-35.008090000000003
 21
-43.111139999999992
 31
0.0
  0
LINE
  5
641
  8
OUTLINE
  6
CONTINUOUS
 62
     3
 10
-35.008090000000003
 20
-43.111139999999992
 30
0.0
 11
-34.906858
 21
-43.414214000000001
 31
0.0
  0
LINE
  5
642
  8
OUTLINE
  6
CONTINUOUS
 62
     3
 10
-34.906858
 20
-43.414214000000001
 30
0.0
 11
-34.783507999999991
 21
-43.66293899999998
 31
0.0
  0
LINE
  5
643
  8
OUTLINE
  6
CONTINUOUS
 62
     3
 10
-34.783507999999991
 20
-43.66293899999998
 30
0.0
 11
-34.642778
 21
-43.847758999999989
 31
0.0
  0
LINE
  5
644
  8
OUTLINE
  6
CONTINUOUS
 62
     3
 10
-34.642778
 20
-43.847758999999989
 30
0.0
 11
-34.490076999999999
 21
-43.961570999999992
 31
0.0
  0
LINE
  5
645
  8
OUTLINE
  6
CONTINUOUS
 62
     3
 10
-34.490076999999999
 20
-43.961570999999992
 30
0.0
 11
-34.331272999999989
 21
-43.999999999999979
 31
0.0
  0
LINE
  5
646
  8
OUTLINE
  6
CONTINUOUS
 62
     3
 10
-34.78519
 20
-14.99999999999998
 30
0.0
 11
-34.298180000000002
 21
-43.998345999999998
 31
0.0
  0
LINE
  5
647
  8
OUTLINE
  6
CONTINUOUS
 62
     3
 10
-16.969877
 20
-43.999999999999979
 30
0.0
 11
-19.138704000000001
 21
-43.999999999999979
 31
0.0
  0
LINE
  5
648
  8
OUTLINE
  6
CONTINUOUS
 62
     3
 10
-19.786646999999991
 20
-14.99999999999998
 30
0.0
 11
-19.578703999999998
 21
-41.999999999999979
 31
0.0
  0
LINE
  5
649
  8
OUTLINE
  6
CONTINUOUS
 62
     3
 10
-17.634723000000001
 20
-14.99999999999998
 30
0.0
 11
-17.42677999999999
 21
-41.999999999999979
 31
0.0
  0
LINE
  5
64A
  8
OUTLINE
  6
CONTINUOUS
 62
     3
 10
-19.578703999999998
 20
-41.999999999999979
 30
0.0
 11
-19.570250000000001
 21
-42.390180999999998
 31
0.0
  0
LINE
  5
64B
  8
OUTLINE
  6
CONTINUOUS
 62
     3
 10
-19.570250000000001
 20
-42.390180999999998
 30
0.0
 11
-19.545210999999998
 21
-42.765366999999983
 31
0.0
  0
LINE
  5
64C
  8
OUTLINE
  6
CONTINUOUS
 62
     3
 10
-19.545210999999998
 20
-42.765366999999983
 30
0.0
 11
-19.504550999999999
 21
-43.111139999999992
 31
0.0
  0
LINE
  5
64D
  8
OUTLINE
  6
CONTINUOUS
 62
     3
 10
-19.504550999999999
 20
-43.111139999999992
 30
0.0
 11
-19.449830999999989
 21
-43.414214000000001
 31
0.0
  0
LINE
  5
64E
  8
OUTLINE
  6
CONTINUOUS
 62
     3
 10
-19.449830999999989
 20
-43.414214000000001
 30
0.0
 11
-19.383154999999991
 21
-43.66293899999998
 31
0.0
  0
LINE
  5
64F
  8
OUTLINE
  6
CONTINUOUS
 62
     3
 10
-19.383154999999991
 20
-43.66293899999998
 30
0.0
 11
-19.307085000000001
 21
-43.847758999999989
 31
0.0
  0
LINE
  5
650
  8
OUTLINE
  6
CONTINUOUS
 62
     3
 10
-19.307085000000001
 20
-43.847758999999989
 30
0.0
 11
-19.224544000000002
 21
-43.961570999999992
 31
0.0
  0
LINE
  5
651
  8
OUTLINE
  6
CONTINUOUS
 62
     3
 10
-19.224544000000002
 20
-43.961570999999992
 30
0.0
 11
-19.138704000000001
 21
-43.999999999999979
 31
0.0
  0
LINE
  5
652
  8
OUTLINE
  6
CONTINUOUS
 62
     3
 10
-17.42677999999999
 20
-41.999999999999979
 30
0.0
 11
-17.419764999999991
 21
-42.355695999999988
 31
0.0
  0
LINE
  5
653
  8
OUTLINE
  6
CONTINUOUS
 62
     3
 10
-17.419764999999991
 20
-42.355695999999988
 30
0.0
 11
-17.398945000000001
 21
-42.700050999999981
 31
0.0
  0
LINE
  5
654
  8
OUTLINE
  6
CONTINUOUS
 62
     3
 10
-17.398945000000001
 20
-42.700050999999981
 30
0.0
 11
-17.364984
 21
-43.02208499999999
 31
0.0
  0
LINE
  5
655
  8
OUTLINE
  6
CONTINUOUS
 62
     3
 10
-17.364984
 20
-43.02208499999999
 30
0.0
 11
-17.318964000000001
 21
-43.311531000000002
 31
0.0
  0
LINE
  5
656
  8
OUTLINE
  6
CONTINUOUS
 62
     3
 10
-17.318964000000001
 20
-43.311531000000002
 30
0.0
 11
-17.262353000000001
 21
-43.559159999999991
 31
0.0
  0
LINE
  5
657
  8
OUTLINE
  6
CONTINUOUS
 62
     3
 10
-17.262353000000001
 20
-43.559159999999991
 30
0.0
 11
-17.196954999999999
 21
-43.757076999999981
 31
0.0
  0
LINE
  5
658
  8
OUTLINE
  6
CONTINUOUS
 62
     3
 10
-17.196954999999999
 20
-43.757076999999981
 30
0.0
 11
-17.124856000000001
 21
-43.898971999999993
 31
0.0
  0
LINE
  5
659
  8
OUTLINE
  6
CONTINUOUS
 62
     3
 10
-17.124856000000001
 20
-43.898971999999993
 30
0.0
 11
-17.04835499999999
 21
-43.98031899999998
 31
0.0
  0
LINE
  5
65A
  8
OUTLINE
  6
CONTINUOUS
 62
     3
 10
-17.04835499999999
 20
-43.98031899999998
 30
0.0
 11
-16.969889999999999
 21
-43.998525999999991
 31
0.0
  0
LINE
  5
65B
  8
OUTLINE
  6
CONTINUOUS
 62
     3
 10
-17.218837000000001
 20
-14.99999999999998
 30
0.0
 11
-16.969877
 21
-43.999999999999979
 31
0.0
  0
LINE
  5
65C
  8
OUTLINE
  6
CONTINUOUS
 62
     3
 10
-1.1000000000000001
 20
-14.99999999999998
 30
0.0
 11
-1.1000000000000001
 21
-43.999999999999979
 31
0.0
  0
LINE
  5
65D
  8
OUTLINE
  6
CONTINUOUS
 62
     3
 10
-16.969889999999999
 20
-43.998525999999991
 30
0.0
 11
-17.04835499999999
 21
-43.98031899999998
 31
0.0
  0
LINE
  5
65E
  8
OUTLINE
  6
CONTINUOUS
 62
     3
 10
-17.04835499999999
 20
-43.98031899999998
 30
0.0
 11
-17.124856000000001
 21
-43.898971999999993
 31
0.0
  0
LINE
  5
65F
  8
OUTLINE
  6
CONTINUOUS
 62
     3
 10
-17.124856000000001
 20
-43.898971999999993
 30
0.0
 11
-17.196954999999999
 21
-43.757076999999981
 31
0.0
  0
LINE
  5
660
  8
OUTLINE
  6
CONTINUOUS
 62
     3
 10
-17.196954999999999
 20
-43.757076999999981
 30
0.0
 11
-17.262353000000001
 21
-43.559159999999991
 31
0.0
  0
LINE
  5
661
  8
OUTLINE
  6
CONTINUOUS
 62
     3
 10
-17.262353000000001
 20
-43.559159999999991
 30
0.0
 11
-17.318964000000001
 21
-43.311531000000002
 31
0.0
  0
LINE
  5
662
  8
OUTLINE
  6
CONTINUOUS
 62
     3
 10
-17.318964000000001
 20
-43.311531000000002
 30
0.0
 11
-17.364984
 21
-43.02208499999999
 31
0.0
  0
LINE
  5
663
  8
OUTLINE
  6
CONTINUOUS
 62
     3
 10
-17.364984
 20
-43.02208499999999
 30
0.0
 11
-17.398945000000001
 21
-42.700050999999981
 31
0.0
  0
LINE
  5
664
  8
OUTLINE
  6
CONTINUOUS
 62
     3
 10
-17.398945000000001
 20
-42.700050999999981
 30
0.0
 11
-17.419764999999991
 21
-42.355695999999988
 31
0.0
  0
LINE
  5
665
  8
OUTLINE
  6
CONTINUOUS
 62
     3
 10
-17.419764999999991
 20
-42.355695999999988
 30
0.0
 11
-17.42677999999999
 21
-41.999999999999979
 31
0.0
  0
LINE
  5
666
  8
OUTLINE
  6
CONTINUOUS
 62
     3
 10
-16.969877
 20
-43.999999999999979
 30
0.0
 11
-19.138704000000001
 21
-43.999999999999979
 31
0.0
  0
LINE
  5
667
  8
OUTLINE
  6
CONTINUOUS
 62
     3
 10
-19.138704000000001
 20
-43.999999999999979
 30
0.0
 11
-19.224544000000002
 21
-43.961570999999992
 31
0.0
  0
LINE
  5
668
  8
OUTLINE
  6
CONTINUOUS
 62
     3
 10
-19.224544000000002
 20
-43.961570999999992
 30
0.0
 11
-19.307085000000001
 21
-43.847758999999989
 31
0.0
  0
LINE
  5
669
  8
OUTLINE
  6
CONTINUOUS
 62
     3
 10
-19.307085000000001
 20
-43.847758999999989
 30
0.0
 11
-19.383154999999991
 21
-43.66293899999998
 31
0.0
  0
LINE
  5
66A
  8
OUTLINE
  6
CONTINUOUS
 62
     3
 10
-19.383154999999991
 20
-43.66293899999998
 30
0.0
 11
-19.449830999999989
 21
-43.414214000000001
 31
0.0
  0
LINE
  5
66B
  8
OUTLINE
  6
CONTINUOUS
 62
     3
 10
-19.449830999999989
 20
-43.414214000000001
 30
0.0
 11
-19.504550999999999
 21
-43.111139999999992
 31
0.0
  0
LINE
  5
66C
  8
OUTLINE
  6
CONTINUOUS
 62
     3
 10
-19.504550999999999
 20
-43.111139999999992
 30
0.0
 11
-19.545210999999998
 21
-42.765366999999983
 31
0.0
  0
LINE
  5
66D
  8
OUTLINE
  6
CONTINUOUS
 62
     3
 10
-19.545210999999998
 20
-42.765366999999983
 30
0.0
 11
-19.570250000000001
 21
-42.390180999999998
 31
0.0
  0
LINE
  5
66E
  8
OUTLINE
  6
CONTINUOUS
 62
     3
 10
-19.570250000000001
 20
-42.390180999999998
 30
0.0
 11
-19.578703999999998
 21
-41.999999999999979
 31
0.0
  0
LINE
  5
66F
  8
OUTLINE
  6
CONTINUOUS
 62
     3
 10
-17.218837000000001
 20
-14.99999999999998
 30
0.0
 11
-16.969877
 21
-43.999999999999979
 31
0.0
  0
LINE
  5
670
  8
OUTLINE
  6
CONTINUOUS
 62
     3
 10
-17.634723000000001
 20
-14.99999999999998
 30
0.0
 11
-17.42677999999999
 21
-41.999999999999979
 31
0.0
  0
LINE
  5
671
  8
OUTLINE
  6
CONTINUOUS
 62
     3
 10
-19.786646999999991
 20
-14.99999999999998
 30
0.0
 11
-19.578703999999998
 21
-41.999999999999979
 31
0.0
  0
LINE
  5
672
  8
OUTLINE
  6
CONTINUOUS
 62
     3
 10
0.0
 20
-43.999999999999979
 30
0.0
 11
-1.1000000000000001
 21
-43.999999999999979
 31
0.0
  0
ARC
  5
673
  8
OUTLINE
  6
CONTINUOUS
 62
     3
 10
68.791860999999997
 20
-75.040755999999988
 30
0.0
 40
17.0
 50
297.69791800000002
 51
358.0
  0
LINE
  5
674
  8
OUTLINE
  6
CONTINUOUS
 62
     3
 10
53.786726000000002
 20
-14.99999999999998
 30
0.0
 11
66.142103000000006
 21
-14.99999999999998
 31
0.0
  0
LINE
  5
675
  8
OUTLINE
  6
CONTINUOUS
 62
     3
 10
1.0999999999999981
 20
-14.99999999999998
 30
0.0
 11
17.634723000000001
 21
-14.99999999999998
 31
0.0
  0
LINE
  5
676
  8
OUTLINE
  6
CONTINUOUS
 62
     3
 10
19.786646999999991
 20
-14.99999999999998
 30
0.0
 11
35.598723
 21
-14.99999999999998
 31
0.0
  0
LINE
  5
677
  8
OUTLINE
  6
CONTINUOUS
 62
     3
 10
37.608522999999991
 20
-14.99999999999998
 30
0.0
 11
52.006889000000001
 21
-14.99999999999998
 31
0.0
  0
LINE
  5
678
  8
OUTLINE
  6
CONTINUOUS
 62
     3
 10
1.0999999999999981
 20
-14.99999999999998
 30
0.0
 11
1.0999999999999981
 21
-43.999999999999979
 31
0.0
  0
LINE
  5
679
  8
OUTLINE
  6
CONTINUOUS
 62
     3
 10
17.634723000000001
 20
-14.99999999999998
 30
0.0
 11
17.42677999999999
 21
-41.999999999999979
 31
0.0
  0
LINE
  5
67A
  8
OUTLINE
  6
CONTINUOUS
 62
     3
 10
17.218837000000001
 20
-14.99999999999998
 30
0.0
 11
16.969877
 21
-43.999999999999979
 31
0.0
  0
LINE
  5
67B
  8
OUTLINE
  6
CONTINUOUS
 62
     3
 10
19.786646999999991
 20
-14.99999999999998
 30
0.0
 11
19.578703999999998
 21
-41.999999999999979
 31
0.0
  0
LINE
  5
67C
  8
OUTLINE
  6
CONTINUOUS
 62
     3
 10
17.42677999999999
 20
-41.999999999999979
 30
0.0
 11
17.419764999999991
 21
-42.355695999999988
 31
0.0
  0
LINE
  5
67D
  8
OUTLINE
  6
CONTINUOUS
 62
     3
 10
17.419764999999991
 20
-42.355695999999988
 30
0.0
 11
17.398945000000001
 21
-42.700050999999981
 31
0.0
  0
LINE
  5
67E
  8
OUTLINE
  6
CONTINUOUS
 62
     3
 10
17.398945000000001
 20
-42.700050999999981
 30
0.0
 11
17.364984
 21
-43.02208499999999
 31
0.0
  0
LINE
  5
67F
  8
OUTLINE
  6
CONTINUOUS
 62
     3
 10
17.364984
 20
-43.02208499999999
 30
0.0
 11
17.318964000000001
 21
-43.311531000000002
 31
0.0
  0
LINE
  5
680
  8
OUTLINE
  6
CONTINUOUS
 62
     3
 10
17.318964000000001
 20
-43.311531000000002
 30
0.0
 11
17.262353000000001
 21
-43.559159999999991
 31
0.0
  0
LINE
  5
681
  8
OUTLINE
  6
CONTINUOUS
 62
     3
 10
17.262353000000001
 20
-43.559159999999991
 30
0.0
 11
17.196954999999999
 21
-43.757076999999981
 31
0.0
  0
LINE
  5
682
  8
OUTLINE
  6
CONTINUOUS
 62
     3
 10
17.196954999999999
 20
-43.757076999999981
 30
0.0
 11
17.124856000000001
 21
-43.898971999999993
 31
0.0
  0
LINE
  5
683
  8
OUTLINE
  6
CONTINUOUS
 62
     3
 10
17.124856000000001
 20
-43.898971999999993
 30
0.0
 11
17.04835499999999
 21
-43.98031899999998
 31
0.0
  0
LINE
  5
684
  8
OUTLINE
  6
CONTINUOUS
 62
     3
 10
17.04835499999999
 20
-43.98031899999998
 30
0.0
 11
16.969889999999999
 21
-43.998525999999991
 31
0.0
  0
LINE
  5
685
  8
OUTLINE
  6
CONTINUOUS
 62
     3
 10
16.969877
 20
-43.999999999999979
 30
0.0
 11
19.138704000000001
 21
-43.999999999999979
 31
0.0
  0
LINE
  5
686
  8
OUTLINE
  6
CONTINUOUS
 62
     3
 10
19.578703999999998
 20
-41.999999999999979
 30
0.0
 11
19.570250000000001
 21
-42.390180999999998
 31
0.0
  0
LINE
  5
687
  8
OUTLINE
  6
CONTINUOUS
 62
     3
 10
19.570250000000001
 20
-42.390180999999998
 30
0.0
 11
19.545210999999998
 21
-42.765366999999983
 31
0.0
  0
LINE
  5
688
  8
OUTLINE
  6
CONTINUOUS
 62
     3
 10
19.545210999999998
 20
-42.765366999999983
 30
0.0
 11
19.504550999999999
 21
-43.111139999999992
 31
0.0
  0
LINE
  5
689
  8
OUTLINE
  6
CONTINUOUS
 62
     3
 10
19.504550999999999
 20
-43.111139999999992
 30
0.0
 11
19.449830999999989
 21
-43.414214000000001
 31
0.0
  0
LINE
  5
68A
  8
OUTLINE
  6
CONTINUOUS
 62
     3
 10
19.449830999999989
 20
-43.414214000000001
 30
0.0
 11
19.383154999999991
 21
-43.66293899999998
 31
0.0
  0
LINE
  5
68B
  8
OUTLINE
  6
CONTINUOUS
 62
     3
 10
19.383154999999991
 20
-43.66293899999998
 30
0.0
 11
19.307085000000001
 21
-43.847758999999989
 31
0.0
  0
LINE
  5
68C
  8
OUTLINE
  6
CONTINUOUS
 62
     3
 10
19.307085000000001
 20
-43.847758999999989
 30
0.0
 11
19.224544000000002
 21
-43.961570999999992
 31
0.0
  0
LINE
  5
68D
  8
OUTLINE
  6
CONTINUOUS
 62
     3
 10
19.224544000000002
 20
-43.961570999999992
 30
0.0
 11
19.138704000000001
 21
-43.999999999999979
 31
0.0
  0
LINE
  5
68E
  8
OUTLINE
  6
CONTINUOUS
 62
     3
 10
35.145272999999989
 20
-41.999999999999979
 30
0.0
 11
35.598723
 21
-14.99999999999998
 31
0.0
  0
LINE
  5
68F
  8
OUTLINE
  6
CONTINUOUS
 62
     3
 10
34.78519
 20
-14.99999999999998
 30
0.0
 11
34.298180000000002
 21
-43.998345999999998
 31
0.0
  0
LINE
  5
690
  8
OUTLINE
  6
CONTINUOUS
 62
     3
 10
37.155073000000002
 20
-41.999999999999979
 30
0.0
 11
37.608522999999991
 21
-14.99999999999998
 31
0.0
  0
LINE
  5
691
  8
OUTLINE
  6
CONTINUOUS
 62
     3
 10
34.331272999999989
 20
-43.999999999999979
 30
0.0
 11
36.341073000000002
 21
-43.999999999999979
 31
0.0
  0
LINE
  5
692
  8
OUTLINE
  6
CONTINUOUS
 62
     3
 10
35.145272999999989
 20
-41.999999999999979
 30
0.0
 11
35.129632999999998
 21
-42.390180999999998
 31
0.0
  0
LINE
  5
693
  8
OUTLINE
  6
CONTINUOUS
 62
     3
 10
35.129632999999998
 20
-42.390180999999998
 30
0.0
 11
35.083311000000002
 21
-42.765366999999983
 31
0.0
  0
LINE
  5
694
  8
OUTLINE
  6
CONTINUOUS
 62
     3
 10
35.083311000000002
 20
-42.765366999999983
 30
0.0
 11
35.008090000000003
 21
-43.111139999999992
 31
0.0
  0
LINE
  5
695
  8
OUTLINE
  6
CONTINUOUS
 62
     3
 10
35.008090000000003
 20
-43.111139999999992
 30
0.0
 11
34.906858
 21
-43.414214000000001
 31
0.0
  0
LINE
  5
696
  8
OUTLINE
  6
CONTINUOUS
 62
     3
 10
34.906858
 20
-43.414214000000001
 30
0.0
 11
34.783507999999991
 21
-43.66293899999998
 31
0.0
  0
LINE
  5
697
  8
OUTLINE
  6
CONTINUOUS
 62
     3
 10
34.783507999999991
 20
-43.66293899999998
 30
0.0
 11
34.642778
 21
-43.847758999999989
 31
0.0
  0
LINE
  5
698
  8
OUTLINE
  6
CONTINUOUS
 62
     3
 10
34.642778
 20
-43.847758999999989
 30
0.0
 11
34.490076999999999
 21
-43.961570999999992
 31
0.0
  0
LINE
  5
699
  8
OUTLINE
  6
CONTINUOUS
 62
     3
 10
34.490076999999999
 20
-43.961570999999992
 30
0.0
 11
34.331272999999989
 21
-43.999999999999979
 31
0.0
  0
LINE
  5
69A
  8
OUTLINE
  6
CONTINUOUS
 62
     3
 10
37.155073000000002
 20
-41.999999999999979
 30
0.0
 11
37.13943299999999
 21
-42.390180999999998
 31
0.0
  0
LINE
  5
69B
  8
OUTLINE
  6
CONTINUOUS
 62
     3
 10
37.13943299999999
 20
-42.390180999999998
 30
0.0
 11
37.093111
 21
-42.765366999999983
 31
0.0
  0
LINE
  5
69C
  8
OUTLINE
  6
CONTINUOUS
 62
     3
 10
37.093111
 20
-42.765366999999983
 30
0.0
 11
37.017890000000001
 21
-43.111139999999992
 31
0.0
  0
LINE
  5
69D
  8
OUTLINE
  6
CONTINUOUS
 62
     3
 10
37.017890000000001
 20
-43.111139999999992
 30
0.0
 11
36.916657999999991
 21
-43.414214000000001
 31
0.0
  0
LINE
  5
69E
  8
OUTLINE
  6
CONTINUOUS
 62
     3
 10
36.916657999999991
 20
-43.414214000000001
 30
0.0
 11
36.79330800000001
 21
-43.66293899999998
 31
0.0
  0
LINE
  5
69F
  8
OUTLINE
  6
CONTINUOUS
 62
     3
 10
36.79330800000001
 20
-43.66293899999998
 30
0.0
 11
36.652577999999998
 21
-43.847758999999989
 31
0.0
  0
LINE
  5
6A0
  8
OUTLINE
  6
CONTINUOUS
 62
     3
 10
36.652577999999998
 20
-43.847758999999989
 30
0.0
 11
36.499876999999998
 21
-43.961570999999992
 31
0.0
  0
LINE
  5
6A1
  8
OUTLINE
  6
CONTINUOUS
 62
     3
 10
36.499876999999998
 20
-43.961570999999992
 30
0.0
 11
36.341073000000002
 21
-43.999999999999979
 31
0.0
  0
LINE
  5
6A2
  8
OUTLINE
  6
CONTINUOUS
 62
     3
 10
52.006889000000001
 20
-14.99999999999998
 30
0.0
 11
51.351596999999991
 21
-41.999999999999979
 31
0.0
  0
LINE
  5
6A3
  8
OUTLINE
  6
CONTINUOUS
 62
     3
 10
50.831232
 20
-14.99999999999998
 30
0.0
 11
50.127400999999999
 21
-43.999999999999979
 31
0.0
  0
LINE
  5
6A4
  8
OUTLINE
  6
CONTINUOUS
 62
     3
 10
53.786726000000002
 20
-14.99999999999998
 30
0.0
 11
53.131433999999999
 21
-41.999999999999979
 31
0.0
  0
LINE
  5
6A5
  8
OUTLINE
  6
CONTINUOUS
 62
     3
 10
50.175596999999989
 20
-43.999999999999979
 30
0.0
 11
51.955433999999997
 21
-43.999999999999979
 31
0.0
  0
LINE
  5
6A6
  8
OUTLINE
  6
CONTINUOUS
 62
     3
 10
51.351596999999991
 20
-41.999999999999979
 30
0.0
 11
51.329000999999998
 21
-42.390180999999998
 31
0.0
  0
LINE
  5
6A7
  8
OUTLINE
  6
CONTINUOUS
 62
     3
 10
51.329000999999998
 20
-42.390180999999998
 30
0.0
 11
51.262079
 21
-42.765366999999983
 31
0.0
  0
LINE
  5
6A8
  8
OUTLINE
  6
CONTINUOUS
 62
     3
 10
51.262079
 20
-42.765366999999983
 30
0.0
 11
51.153404999999999
 21
-43.111139999999992
 31
0.0
  0
LINE
  5
6A9
  8
OUTLINE
  6
CONTINUOUS
 62
     3
 10
51.153404999999999
 20
-43.111139999999992
 30
0.0
 11
51.00715499999999
 21
-43.414214000000001
 31
0.0
  0
LINE
  5
6AA
  8
OUTLINE
  6
CONTINUOUS
 62
     3
 10
51.00715499999999
 20
-43.414214000000001
 30
0.0
 11
50.828947999999997
 21
-43.66293899999998
 31
0.0
  0
LINE
  5
6AB
  8
OUTLINE
  6
CONTINUOUS
 62
     3
 10
50.828947999999997
 20
-43.66293899999998
 30
0.0
 11
50.625633000000001
 21
-43.847758999999989
 31
0.0
  0
LINE
  5
6AC
  8
OUTLINE
  6
CONTINUOUS
 62
     3
 10
50.625633000000001
 20
-43.847758999999989
 30
0.0
 11
50.405022999999993
 21
-43.961570999999992
 31
0.0
  0
LINE
  5
6AD
  8
OUTLINE
  6
CONTINUOUS
 62
     3
 10
50.405022999999993
 20
-43.961570999999992
 30
0.0
 11
50.175596999999989
 21
-43.999999999999979
 31
0.0
  0
LINE
  5
6AE
  8
OUTLINE
  6
CONTINUOUS
 62
     3
 10
53.131433999999999
 20
-41.999999999999979
 30
0.0
 11
53.113568000000008
 21
-42.347295999999979
 31
0.0
  0
LINE
  5
6AF
  8
OUTLINE
  6
CONTINUOUS
 62
     3
 10
53.113568000000008
 20
-42.347295999999979
 30
0.0
 11
53.060513
 21
-42.684039999999989
 31
0.0
  0
LINE
  5
6B0
  8
OUTLINE
  6
CONTINUOUS
 62
     3
 10
53.060513
 20
-42.684039999999989
 30
0.0
 11
52.973880000000001
 21
-42.999999999999979
 31
0.0
  0
LINE
  5
6B1
  8
OUTLINE
  6
CONTINUOUS
 62
     3
 10
52.973880000000001
 20
-42.999999999999979
 30
0.0
 11
52.856303000000011
 21
-43.28557499999998
 31
0.0
  0
LINE
  5
6B2
  8
OUTLINE
  6
CONTINUOUS
 62
     3
 10
52.856303000000011
 20
-43.28557499999998
 30
0.0
 11
52.711353000000003
 21
-43.532088999999999
 31
0.0
  0
LINE
  5
6B3
  8
OUTLINE
  6
CONTINUOUS
 62
     3
 10
52.711353000000003
 20
-43.532088999999999
 30
0.0
 11
52.543433999999991
 21
-43.732050999999977
 31
0.0
  0
LINE
  5
6B4
  8
OUTLINE
  6
CONTINUOUS
 62
     3
 10
52.543433999999991
 20
-43.732050999999977
 30
0.0
 11
52.35765
 21
-43.879384999999992
 31
0.0
  0
LINE
  5
6B5
  8
OUTLINE
  6
CONTINUOUS
 62
     3
 10
52.35765
 20
-43.879384999999992
 30
0.0
 11
52.159645000000012
 21
-43.969615999999988
 31
0.0
  0
LINE
  5
6B6
  8
OUTLINE
  6
CONTINUOUS
 62
     3
 10
52.159645000000012
 20
-43.969615999999988
 30
0.0
 11
51.955433999999997
 21
-43.999999999999979
 31
0.0
  0
LINE
  5
6B7
  8
OUTLINE
  6
CONTINUOUS
 62
     3
 10
90.0
 20
0.0
 30
0.0
 11
90.0
 21
-14.99999999999998
 31
0.0
  0
LINE
  5
6B8
  8
OUTLINE
  6
CONTINUOUS
 62
     3
 10
67.614191000000005
 20
-14.99999999999998
 30
0.0
 11
77.386591000000024
 21
-14.99999999999998
 31
0.0
  0
LINE
  5
6B9
  8
OUTLINE
  6
CONTINUOUS
 62
     3
 10
65.313609999999997
 20
-41.999999999999979
 30
0.0
 11
66.142103000000006
 21
-14.99999999999998
 31
0.0
  0
LINE
  5
6BA
  8
OUTLINE
  6
CONTINUOUS
 62
     3
 10
64.655705000000012
 20
-14.99999999999998
 30
0.0
 11
63.76584099999998
 21
-43.999999999999979
 31
0.0
  0
LINE
  5
6BB
  8
OUTLINE
  6
CONTINUOUS
 62
     3
 10
66.785696999999999
 20
-41.999999999999979
 30
0.0
 11
67.614191000000005
 21
-14.99999999999998
 31
0.0
  0
LINE
  5
6BC
  8
OUTLINE
  6
CONTINUOUS
 62
     3
 10
63.76584099999998
 20
-43.999999999999979
 30
0.0
 11
65.299696999999995
 21
-43.999999999999979
 31
0.0
  0
LINE
  5
6BD
  8
OUTLINE
  6
CONTINUOUS
 62
     3
 10
65.313609999999997
 20
-41.999999999999979
 30
0.0
 11
65.289827000000002
 21
-42.356383999999998
 31
0.0
  0
LINE
  5
6BE
  8
OUTLINE
  6
CONTINUOUS
 62
     3
 10
65.289827000000002
 20
-42.356383999999998
 30
0.0
 11
65.219240999999997
 21
-42.701360999999991
 31
0.0
  0
LINE
  5
6BF
  8
OUTLINE
  6
CONTINUOUS
 62
     3
 10
65.219240999999997
 20
-42.701360999999991
 30
0.0
 11
65.104111000000003
 21
-43.023887999999978
 31
0.0
  0
LINE
  5
6C0
  8
OUTLINE
  6
CONTINUOUS
 62
     3
 10
65.104111000000003
 20
-43.023887999999978
 30
0.0
 11
64.948122999999995
 21
-43.31364199999998
 31
0.0
  0
LINE
  5
6C1
  8
OUTLINE
  6
CONTINUOUS
 62
     3
 10
64.948122999999995
 20
-43.31364199999998
 30
0.0
 11
64.756268000000006
 21
-43.561348999999993
 31
0.0
  0
LINE
  5
6C2
  8
OUTLINE
  6
CONTINUOUS
 62
     3
 10
64.756268000000006
 20
-43.561348999999993
 30
0.0
 11
64.534688000000003
 21
-43.759077999999988
 31
0.0
  0
LINE
  5
6C3
  8
OUTLINE
  6
CONTINUOUS
 62
     3
 10
64.534688000000003
 20
-43.759077999999988
 30
0.0
 11
64.290475000000001
 21
-43.900502999999979
 31
0.0
  0
LINE
  5
6C4
  8
OUTLINE
  6
CONTINUOUS
 62
     3
 10
64.290475000000001
 20
-43.900502999999979
 30
0.0
 11
64.031447
 21
-43.981094999999989
 31
0.0
  0
LINE
  5
6C5
  8
OUTLINE
  6
CONTINUOUS
 62
     3
 10
64.031447
 20
-43.981094999999989
 30
0.0
 11
63.765894000000003
 21
-43.998273999999981
 31
0.0
  0
LINE
  5
6C6
  8
OUTLINE
  6
CONTINUOUS
 62
     3
 10
66.785696999999999
 20
-41.999999999999979
 30
0.0
 11
66.763120999999998
 21
-42.347295999999979
 31
0.0
  0
LINE
  5
6C7
  8
OUTLINE
  6
CONTINUOUS
 62
     3
 10
66.763120999999998
 20
-42.347295999999979
 30
0.0
 11
66.696080000000009
 21
-42.684039999999989
 31
0.0
  0
LINE
  5
6C8
  8
OUTLINE
  6
CONTINUOUS
 62
     3
 10
66.696080000000009
 20
-42.684039999999989
 30
0.0
 11
66.586611000000005
 21
-42.999999999999979
 31
0.0
  0
LINE
  5
6C9
  8
OUTLINE
  6
CONTINUOUS
 62
     3
 10
66.586611000000005
 20
-42.999999999999979
 30
0.0
 11
66.438039000000003
 21
-43.28557499999998
 31
0.0
  0
LINE
  5
6CA
  8
OUTLINE
  6
CONTINUOUS
 62
     3
 10
66.438039000000003
 20
-43.28557499999998
 30
0.0
 11
66.254879000000003
 21
-43.532088999999999
 31
0.0
  0
LINE
  5
6CB
  8
OUTLINE
  6
CONTINUOUS
 62
     3
 10
66.254879000000003
 20
-43.532088999999999
 30
0.0
 11
66.042697000000004
 21
-43.732050999999977
 31
0.0
  0
LINE
  5
6CC
  8
OUTLINE
  6
CONTINUOUS
 62
     3
 10
66.042697000000004
 20
-43.732050999999977
 30
0.0
 11
65.807938000000007
 21
-43.879384999999992
 31
0.0
  0
LINE
  5
6CD
  8
OUTLINE
  6
CONTINUOUS
 62
     3
 10
65.807938000000007
 20
-43.879384999999992
 30
0.0
 11
65.557738000000001
 21
-43.969615999999988
 31
0.0
  0
LINE
  5
6CE
  8
OUTLINE
  6
CONTINUOUS
 62
     3
 10
65.557738000000001
 20
-43.969615999999988
 30
0.0
 11
65.299695999999997
 21
-43.999999999999979
 31
0.0
  0
LINE
  5
6CF
  8
OUTLINE
  6
CONTINUOUS
 62
     3
 10
77.386591000000024
 20
-14.99999999999998
 30
0.0
 11
76.421103999999985
 21
-41.999999999999979
 31
0.0
  0
LINE
  5
6D0
  8
OUTLINE
  6
CONTINUOUS
 62
     3
 10
74.617469999999983
 20
-43.998288999999978
 30
0.0
 11
74.688927000000007
 21
-41.999999999999979
 31
0.0
  0
LINE
  5
6D1
  8
OUTLINE
  6
CONTINUOUS
 62
     3
 10
78.486591000000004
 20
-14.99999999999998
 30
0.0
 11
77.52110399999998
 21
-41.999999999999979
 31
0.0
  0
LINE
  5
6D2
  8
OUTLINE
  6
CONTINUOUS
 62
     3
 10
74.689104
 20
-43.999999999999979
 30
0.0
 11
75.789104000000023
 21
-43.999999999999979
 31
0.0
  0
LINE
  5
6D3
  8
OUTLINE
  6
CONTINUOUS
 62
     3
 10
76.421103999999985
 20
-41.999999999999979
 30
0.0
 11
76.387823999999981
 21
-42.390180999999998
 31
0.0
  0
LINE
  5
6D4
  8
OUTLINE
  6
CONTINUOUS
 62
     3
 10
76.387823999999981
 20
-42.390180999999998
 30
0.0
 11
76.289263000000005
 21
-42.765366999999983
 31
0.0
  0
LINE
  5
6D5
  8
OUTLINE
  6
CONTINUOUS
 62
     3
 10
76.289263000000005
 20
-42.765366999999983
 30
0.0
 11
76.129209000000003
 21
-43.111139999999992
 31
0.0
  0
LINE
  5
6D6
  8
OUTLINE
  6
CONTINUOUS
 62
     3
 10
76.129209000000003
 20
-43.111139999999992
 30
0.0
 11
75.913813000000005
 21
-43.414214000000001
 31
0.0
  0
LINE
  5
6D7
  8
OUTLINE
  6
CONTINUOUS
 62
     3
 10
75.913813000000005
 20
-43.414214000000001
 30
0.0
 11
75.651352000000003
 21
-43.66293899999998
 31
0.0
  0
LINE
  5
6D8
  8
OUTLINE
  6
CONTINUOUS
 62
     3
 10
75.651352000000003
 20
-43.66293899999998
 30
0.0
 11
75.351911999999984
 21
-43.847758999999989
 31
0.0
  0
LINE
  5
6D9
  8
OUTLINE
  6
CONTINUOUS
 62
     3
 10
75.351911999999984
 20
-43.847758999999989
 30
0.0
 11
75.027000000000001
 21
-43.961570999999992
 31
0.0
  0
LINE
  5
6DA
  8
OUTLINE
  6
CONTINUOUS
 62
     3
 10
75.027000000000001
 20
-43.961570999999992
 30
0.0
 11
74.689104
 21
-43.999999999999979
 31
0.0
  0
LINE
  5
6DB
  8
OUTLINE
  6
CONTINUOUS
 62
     3
 10
77.52110399999998
 20
-41.999999999999979
 30
0.0
 11
77.487824000000003
 21
-42.390180999999998
 31
0.0
  0
LINE
  5
6DC
  8
OUTLINE
  6
CONTINUOUS
 62
     3
 10
77.487824000000003
 20
-42.390180999999998
 30
0.0
 11
77.389263
 21
-42.765366999999983
 31
0.0
  0
LINE
  5
6DD
  8
OUTLINE
  6
CONTINUOUS
 62
     3
 10
77.389263
 20
-42.765366999999983
 30
0.0
 11
77.229208999999983
 21
-43.111139999999992
 31
0.0
  0
LINE
  5
6DE
  8
OUTLINE
  6
CONTINUOUS
 62
     3
 10
77.229208999999983
 20
-43.111139999999992
 30
0.0
 11
77.013812999999999
 21
-43.414214000000001
 31
0.0
  0
LINE
  5
6DF
  8
OUTLINE
  6
CONTINUOUS
 62
     3
 10
77.013812999999999
 20
-43.414214000000001
 30
0.0
 11
76.751351999999983
 21
-43.66293899999998
 31
0.0
  0
LINE
  5
6E0
  8
OUTLINE
  6
CONTINUOUS
 62
     3
 10
76.751351999999983
 20
-43.66293899999998
 30
0.0
 11
76.451911999999979
 21
-43.847758999999989
 31
0.0
  0
LINE
  5
6E1
  8
OUTLINE
  6
CONTINUOUS
 62
     3
 10
76.451911999999979
 20
-43.847758999999989
 30
0.0
 11
76.126999999999981
 21
-43.961570999999992
 31
0.0
  0
LINE
  5
6E2
  8
OUTLINE
  6
CONTINUOUS
 62
     3
 10
76.126999999999981
 20
-43.961570999999992
 30
0.0
 11
75.789104000000023
 21
-43.999999999999979
 31
0.0
  0
LINE
  5
6E3
  8
OUTLINE
  6
CONTINUOUS
 62
     3
 10
75.654414000000003
 20
-14.99999999999998
 30
0.0
 11
74.688927000000007
 21
-41.999999999999979
 31
0.0
  0
LINE
  5
6E4
  8
OUTLINE
  6
CONTINUOUS
 62
     3
 10
83.346660999999969
 20
-14.99999999999998
 30
0.0
 11
82.286377000000002
 21
-41.999999999999979
 31
0.0
  0
LINE
  5
6E5
  8
OUTLINE
  6
CONTINUOUS
 62
     3
 10
100.0
 20
-5.196151999999997
 30
0.0
 11
100.0
 21
0.0
 31
0.0
  0
ARC
  5
6E6
  8
OUTLINE
  6
CONTINUOUS
 62
     3
 10
86.95617
 20
-41.996061999999988
 30
0.0
 40
2.0
 50
268.0
 51
358.0
  0
LINE
  5
6E7
  8
OUTLINE
  6
CONTINUOUS
 62
     3
 10
88.954950999999966
 20
-42.065860999999991
 30
0.0
 11
89.885384999999999
 21
-15.421713000000009
 31
0.0
  0
LINE
  5
6E8
  8
OUTLINE
  6
CONTINUOUS
 62
     3
 10
85.248913000000002
 20
-14.99999999999998
 30
0.0
 11
84.188629000000006
 21
-41.999999999999979
 31
0.0
  0
LINE
  5
6E9
  8
OUTLINE
  6
CONTINUOUS
 62
     3
 10
82.286377000000002
 20
-41.999999999999979
 30
0.0
 11
82.207837999999967
 21
-43.999999999999979
 31
0.0
  0
LINE
  5
6EA
  8
OUTLINE
  6
CONTINUOUS
 62
     3
 10
82.935389999999998
 20
-43.999999999999979
 30
0.0
 11
82.207837999999967
 21
-43.999999999999979
 31
0.0
  0
LINE
  5
6EB
  8
OUTLINE
  6
CONTINUOUS
 62
     3
 10
84.188629000000006
 20
-41.999999999999979
 30
0.0
 11
84.152082999999976
 21
-42.390180999999998
 31
0.0
  0
LINE
  5
6EC
  8
OUTLINE
  6
CONTINUOUS
 62
     3
 10
84.152082999999976
 20
-42.390180999999998
 30
0.0
 11
84.043847999999983
 21
-42.765366999999983
 31
0.0
  0
LINE
  5
6ED
  8
OUTLINE
  6
CONTINUOUS
 62
     3
 10
84.043847999999983
 20
-42.765366999999983
 30
0.0
 11
83.868084999999994
 21
-43.111139999999992
 31
0.0
  0
LINE
  5
6EE
  8
OUTLINE
  6
CONTINUOUS
 62
     3
 10
83.868084999999994
 20
-43.111139999999992
 30
0.0
 11
83.631546999999998
 21
-43.414214000000001
 31
0.0
  0
LINE
  5
6EF
  8
OUTLINE
  6
CONTINUOUS
 62
     3
 10
83.631546999999998
 20
-43.414214000000001
 30
0.0
 11
83.343323999999996
 21
-43.66293899999998
 31
0.0
  0
LINE
  5
6F0
  8
OUTLINE
  6
CONTINUOUS
 62
     3
 10
83.343323999999996
 20
-43.66293899999998
 30
0.0
 11
83.014492999999987
 21
-43.847758999999989
 31
0.0
  0
LINE
  5
6F1
  8
OUTLINE
  6
CONTINUOUS
 62
     3
 10
83.014492999999987
 20
-43.847758999999989
 30
0.0
 11
82.657690999999986
 21
-43.961570999999992
 31
0.0
  0
LINE
  5
6F2
  8
OUTLINE
  6
CONTINUOUS
 62
     3
 10
82.657690999999986
 20
-43.961570999999992
 30
0.0
 11
82.286629000000005
 21
-43.999999999999979
 31
0.0
  0
LINE
  5
6F3
  8
OUTLINE
  6
CONTINUOUS
 62
     3
 10
85.897673999999967
 20
-14.99999999999998
 30
0.0
 11
84.837389999999985
 21
-41.999999999999979
 31
0.0
  0
LINE
  5
6F4
  8
OUTLINE
  6
CONTINUOUS
 62
     3
 10
84.837389999999985
 20
-41.999999999999979
 30
0.0
 11
84.800843999999998
 21
-42.390180999999998
 31
0.0
  0
LINE
  5
6F5
  8
OUTLINE
  6
CONTINUOUS
 62
     3
 10
84.800843999999998
 20
-42.390180999999998
 30
0.0
 11
84.692609000000004
 21
-42.765366999999983
 31
0.0
  0
LINE
  5
6F6
  8
OUTLINE
  6
CONTINUOUS
 62
     3
 10
84.692609000000004
 20
-42.765366999999983
 30
0.0
 11
84.516844999999975
 21
-43.111139999999992
 31
0.0
  0
LINE
  5
6F7
  8
OUTLINE
  6
CONTINUOUS
 62
     3
 10
84.516844999999975
 20
-43.111139999999992
 30
0.0
 11
84.280306999999979
 21
-43.414214000000001
 31
0.0
  0
LINE
  5
6F8
  8
OUTLINE
  6
CONTINUOUS
 62
     3
 10
84.280306999999979
 20
-43.414214000000001
 30
0.0
 11
83.992085000000003
 21
-43.66293899999998
 31
0.0
  0
LINE
  5
6F9
  8
OUTLINE
  6
CONTINUOUS
 62
     3
 10
83.992085000000003
 20
-43.66293899999998
 30
0.0
 11
83.663253999999995
 21
-43.847758999999989
 31
0.0
  0
LINE
  5
6FA
  8
OUTLINE
  6
CONTINUOUS
 62
     3
 10
83.663253999999995
 20
-43.847758999999989
 30
0.0
 11
83.306451999999965
 21
-43.961570999999992
 31
0.0
  0
LINE
  5
6FB
  8
OUTLINE
  6
CONTINUOUS
 62
     3
 10
83.306451999999965
 20
-43.961570999999992
 30
0.0
 11
82.935389999999998
 21
-43.999999999999979
 31
0.0
  0
LINE
  5
6FC
  8
OUTLINE
  6
CONTINUOUS
 62
     3
 10
88.276707999999985
 20
-41.999999999999979
 30
0.0
 11
89.38544899999998
 21
-14.99999999999998
 31
0.0
  0
LINE
  5
6FD
  8
OUTLINE
  6
CONTINUOUS
 62
     3
 10
86.287519000000003
 20
-41.999999999999979
 30
0.0
 11
86.205389999999994
 21
-43.999999999999979
 31
0.0
  0
LINE
  5
6FE
  8
OUTLINE
  6
CONTINUOUS
 62
     3
 10
88.506669999999986
 20
-41.999999999999979
 30
0.0
 11
89.615412000000006
 21
-14.99999999999998
 31
0.0
  0
LINE
  5
6FF
  8
OUTLINE
  6
CONTINUOUS
 62
     3
 10
86.517669999999967
 20
-43.999999999999979
 30
0.0
 11
86.205389999999994
 21
-43.999999999999979
 31
0.0
  0
LINE
  5
700
  8
OUTLINE
  6
CONTINUOUS
 62
     3
 10
88.276707999999985
 20
-41.999999999999979
 30
0.0
 11
88.244881999999947
 21
-42.35634499999999
 31
0.0
  0
LINE
  5
701
  8
OUTLINE
  6
CONTINUOUS
 62
     3
 10
88.244881999999947
 20
-42.35634499999999
 30
0.0
 11
88.150424999999998
 21
-42.701285999999982
 31
0.0
  0
LINE
  5
702
  8
OUTLINE
  6
CONTINUOUS
 62
     3
 10
88.150424999999998
 20
-42.701285999999982
 30
0.0
 11
87.996357000000003
 21
-43.023784999999982
 31
0.0
  0
LINE
  5
703
  8
OUTLINE
  6
CONTINUOUS
 62
     3
 10
87.996357000000003
 20
-43.023784999999982
 30
0.0
 11
87.787610999999998
 21
-43.313521999999992
 31
0.0
  0
LINE
  5
704
  8
OUTLINE
  6
CONTINUOUS
 62
     3
 10
87.787610999999998
 20
-43.313521999999992
 30
0.0
 11
87.530865000000006
 21
-43.561223999999989
 31
0.0
  0
LINE
  5
705
  8
OUTLINE
  6
CONTINUOUS
 62
     3
 10
87.530865000000006
 20
-43.561223999999989
 30
0.0
 11
87.234335999999985
 21
-43.758963999999992
 31
0.0
  0
LINE
  5
706
  8
OUTLINE
  6
CONTINUOUS
 62
     3
 10
87.234335999999985
 20
-43.758963999999992
 30
0.0
 11
86.907514000000006
 21
-43.900414999999981
 31
0.0
  0
LINE
  5
707
  8
OUTLINE
  6
CONTINUOUS
 62
     3
 10
86.907514000000006
 20
-43.900414999999981
 30
0.0
 11
86.560857999999968
 21
-43.981050999999979
 31
0.0
  0
LINE
  5
708
  8
OUTLINE
  6
CONTINUOUS
 62
     3
 10
86.560857999999968
 20
-43.981050999999979
 30
0.0
 11
86.205460000000002
 21
-43.998288999999978
 31
0.0
  0
LINE
  5
709
  8
OUTLINE
  6
CONTINUOUS
 62
     3
 10
88.506669999999986
 20
-41.999999999999979
 30
0.0
 11
88.476453000000006
 21
-42.347295999999979
 31
0.0
  0
LINE
  5
70A
  8
OUTLINE
  6
CONTINUOUS
 62
     3
 10
88.476453000000006
 20
-42.347295999999979
 30
0.0
 11
88.386718999999985
 21
-42.684039999999989
 31
0.0
  0
LINE
  5
70B
  8
OUTLINE
  6
CONTINUOUS
 62
     3
 10
88.386718999999985
 20
-42.684039999999989
 30
0.0
 11
88.240195
 21
-42.999999999999979
 31
0.0
  0
LINE
  5
70C
  8
OUTLINE
  6
CONTINUOUS
 62
     3
 10
88.240195
 20
-42.999999999999979
 30
0.0
 11
88.04133299999998
 21
-43.28557499999998
 31
0.0
  0
LINE
  5
70D
  8
OUTLINE
  6
CONTINUOUS
 62
     3
 10
88.04133299999998
 20
-43.28557499999998
 30
0.0
 11
87.796175000000005
 21
-43.532088999999999
 31
0.0
  0
LINE
  5
70E
  8
OUTLINE
  6
CONTINUOUS
 62
     3
 10
87.796175000000005
 20
-43.532088999999999
 30
0.0
 11
87.512169999999998
 21
-43.732050999999977
 31
0.0
  0
LINE
  5
70F
  8
OUTLINE
  6
CONTINUOUS
 62
     3
 10
87.512169999999998
 20
-43.732050999999977
 30
0.0
 11
87.197947999999982
 21
-43.879384999999992
 31
0.0
  0
LINE
  5
710
  8
OUTLINE
  6
CONTINUOUS
 62
     3
 10
87.197947999999982
 20
-43.879384999999992
 30
0.0
 11
86.863056
 21
-43.969615999999988
 31
0.0
  0
LINE
  5
711
  8
OUTLINE
  6
CONTINUOUS
 62
     3
 10
86.863056
 20
-43.969615999999988
 30
0.0
 11
86.517669999999967
 21
-43.999999999999979
 31
0.0
  0
LINE
  5
712
  8
OUTLINE
  6
CONTINUOUS
 62
     3
 10
106.267949
 20
-20.0
 30
0.0
 11
108.0
 21
-19.0
 31
0.0
  0
LINE
  5
713
  8
OUTLINE
  6
CONTINUOUS
 62
     3
 10
100.13397500000001
 20
-5.6961519999999686
 30
0.0
 11
108.0
 21
-19.0
 31
0.0
  0
LINE
  5
714
  8
OUTLINE
  6
CONTINUOUS
 62
     3
 10
85.781505000000024
 20
-75.634047999999979
 30
0.0
 11
86.886370999999997
 21
-43.994843999999979
 31
0.0
  0
LINE
  5
715
  8
OUTLINE
  6
CONTINUOUS
 62
     3
 10
78.486591000000004
 20
-14.99999999999998
 30
0.0
 11
90.0
 21
-14.99999999999998
 31
0.0
  0
LINE
  5
716
  8
DETAIL
  6
CONTINUOUS
 62
     5
 10
87.253005999999999
 20
-14.99999999999998
 30
0.0
 11
86.287519000000003
 21
-41.999999999999979
 31
0.0
  0
LINE
  5
717
  8
DETAIL
  6
CONTINUOUS
 62
     5
 10
-87.347802999999999
 20
-14.99999999999998
 30
0.0
 11
-86.287519000000003
 21
-41.999999999999979
 31
0.0
  0
LINE
  5
718
  8
OUTLINE
  6
CONTINUOUS
 62
     3
 10
87.347802999999999
 20
-14.99999999999998
 30
0.0
 11
86.287519000000003
 21
-41.999999999999979
 31
0.0
  0
TEXT
  5
719
  8
ETC
  6
CONTINUOUS
 62
    61
 10
309.53529887530982
 20
263.94427469558548
 30
0.0
 40
50.0
  1
システム部材
 41
0.9
  0
TEXT
  5
71A
  8
ETC
  6
CONTINUOUS
 62
    61
 10
323.07879887530981
 20
352.41371810313188
 30
0.0
 40
50.0
  1
P-100CVP3_1
 41
0.9
  0
TEXT
  5
71B
  8
ETC
  6
CONTINUOUS
 62
    61
 10
482.26324588399621
 20
199.3707662025792
 30
0.0
 40
50.0
  1
P-100CVP3
 41
0.9
  0
LINE
  5
71D
  8
OUTLINE
  6
CONTINUOUS
 62
     3
 39
50.0
 10
-86.287519000000003
 20
-41.999999999999979
 30
0.0
 11
-87.253005999999999
 21
-14.99999999999998
 31
0.0
  0
ENDSEC
  0
EOF
