  0
SECTION
  2
HEADER
  9
$ACADVER
  1
AC1009
  9
$INSBASE
 10
0.0
 20
0.0
 30
0.0
  9
$EXTMIN
 10
-126.43888666811471
 20
-323.63890416878172
 30
-0.0007627857894761
  9
$EXTMAX
 10
788.99689849814786
 20
346.71021281591311
 30
50.000763018648549
  9
$LIMMIN
 10
-2970.0
 20
-2100.0
  9
$LIMMAX
 10
2970.0
 20
2100.0
  9
$ORTHOMODE
 70
     1
  9
$REGENMODE
 70
     0
  9
$FILLMODE
 70
     1
  9
$QTEXTMODE
 70
     0
  9
$MIRRTEXT
 70
     0
  9
$DRAGMODE
 70
     2
  9
$LTSCALE
 40
20.0
  9
$OSMODE
 70
    37
  9
$ATTMODE
 70
     1
  9
$TEXTSIZE
 40
64.0
  9
$TRACEWID
 40
0.05
  9
$TEXTSTYLE
  7
STANDARD
  9
$CLAYER
  8
SIZE
  9
$CELTYPE
  6
CONTINUOUS
  9
$CECOLOR
 62
    30
  9
$DIMSCALE
 40
1.0
  9
$DIMASZ
 40
12.0
  9
$DIMEXO
 40
20.0
  9
$DIMDLI
 40
200.0
  9
$DIMRND
 40
0.0
  9
$DIMDLE
 40
0.0
  9
$DIMEXE
 40
20.0
  9
$DIMTP
 40
0.0
  9
$DIMTM
 40
0.0
  9
$DIMTXT
 40
64.0
  9
$DIMCEN
 40
0.09
  9
$DIMTSZ
 40
0.0
  9
$DIMTOL
 70
     0
  9
$DIMLIM
 70
     0
  9
$DIMTIH
 70
     0
  9
$DIMTOH
 70
     0
  9
$DIMSE1
 70
     0
  9
$DIMSE2
 70
     0
  9
$DIMTAD
 70
     1
  9
$DIMZIN
 70
     8
  9
$DIMBLK
  1
DOT1
  9
$DIMASO
 70
     1
  9
$DIMSHO
 70
     0
  9
$DIMPOST
  1

  9
$DIMAPOST
  1

  9
$DIMALT
 70
     0
  9
$DIMALTD
 70
     2
  9
$DIMALTF
 40
25.399999999999999
  9
$DIMLFAC
 40
1.0
  9
$DIMTOFL
 70
     1
  9
$DIMTVP
 40
0.0
  9
$DIMTIX
 70
     1
  9
$DIMSOXD
 70
     0
  9
$DIMSAH
 70
     1
  9
$DIMBLK1
  1
ORIGIN
  9
$DIMBLK2
  1
ORIGIN
  9
$DIMSTYLE
  2
STANDARD
  9
$DIMCLRD
 70
     7
  9
$DIMCLRE
 70
     7
  9
$DIMCLRT
 70
     7
  9
$DIMTFAC
 40
1.0
  9
$DIMGAP
 40
25.0
  9
$LUNITS
 70
     2
  9
$LUPREC
 70
     4
  9
$SKETCHINC
 40
0.1
  9
$FILLETRAD
 40
4.0
  9
$AUNITS
 70
     1
  9
$AUPREC
 70
     3
  9
$MENU
  1
ACAD
  9
$ELEVATION
 40
0.0
  9
$PELEVATION
 40
0.0
  9
$THICKNESS
 40
50.0
  9
$LIMCHECK
 70
     0
  9
$BLIPMODE
 70
     0
  9
$CHAMFERA
 40
0.0
  9
$CHAMFERB
 40
0.0
  9
$SKPOLY
 70
     0
  9
$TDCREATE
 40
2453138.8258560649
  9
$TDUPDATE
 40
2455048.4198964699
  9
$TDINDWG
 40
0.0416785185
  9
$TDUSRTIMER
 40
0.0416785185
  9
$USRTIMER
 70
     1
  9
$ANGBASE
 50
0.0
  9
$ANGDIR
 70
     0
  9
$PDMODE
 70
     3
  9
$PDSIZE
 40
-2.0
  9
$PLINEWID
 40
0.0
  9
$COORDS
 70
     0
  9
$SPLFRAME
 70
     0
  9
$SPLINETYPE
 70
     6
  9
$SPLINESEGS
 70
     8
  9
$ATTDIA
 70
     0
  9
$ATTREQ
 70
     1
  9
$HANDLING
 70
     1
  9
$HANDSEED
  5
15F
  9
$SURFTAB1
 70
     6
  9
$SURFTAB2
 70
     6
  9
$SURFTYPE
 70
     6
  9
$SURFU
 70
     6
  9
$SURFV
 70
     6
  9
$UCSNAME
  2

  9
$UCSORG
 10
0.0
 20
0.0
 30
0.0
  9
$UCSXDIR
 10
1.0
 20
0.0
 30
0.0
  9
$UCSYDIR
 10
0.0
 20
1.0
 30
0.0
  9
$PUCSNAME
  2

  9
$PUCSORG
 10
0.0
 20
0.0
 30
0.0
  9
$PUCSXDIR
 10
1.0
 20
0.0
 30
0.0
  9
$PUCSYDIR
 10
0.0
 20
1.0
 30
0.0
  9
$USERI1
 70
     0
  9
$USERI2
 70
     0
  9
$USERI3
 70
     0
  9
$USERI4
 70
     0
  9
$USERI5
 70
     0
  9
$USERR1
 40
20.0
  9
$USERR2
 40
0.0
  9
$USERR3
 40
0.0
  9
$USERR4
 40
0.0
  9
$USERR5
 40
0.0
  9
$WORLDVIEW
 70
     1
  9
$SHADEDGE
 70
     3
  9
$SHADEDIF
 70
    70
  9
$TILEMODE
 70
     1
  9
$MAXACTVP
 70
    48
  9
$PLIMCHECK
 70
     0
  9
$PEXTMIN
 10
-1.0000000000000000E+020
 20
-1.0000000000000000E+020
 30
-1.0000000000000000E+020
  9
$PEXTMAX
 10
1.0000000000000000E+020
 20
1.0000000000000000E+020
 30
1.0000000000000000E+020
  9
$PLIMMIN
 10
0.0
 20
0.0
  9
$PLIMMAX
 10
12.0
 20
9.0
  9
$UNITMODE
 70
     0
  9
$VISRETAIN
 70
     0
  9
$PLINEGEN
 70
     0
  9
$PSLTSCALE
 70
     0
  0
ENDSEC
  0
SECTION
  2
TABLES
  0
TABLE
  2
VPORT
 70
     1
  0
VPORT
  2
*ACTIVE
 70
     0
 10
0.0
 20
0.0
 11
1.0
 21
1.0
 12
331.27900591501663
 22
11.535654323565719
 13
0.0
 23
0.0
 14
1.0
 24
1.0
 15
0.0
 25
0.0
 16
0.0
 26
0.0
 36
1.0
 17
0.0
 27
0.0
 37
0.0
 40
761.95755930195116
 41
1.209523809523809
 42
50.0
 43
0.0
 44
0.0
 50
0.0
 51
0.0
 71
     0
 72
  1000
 73
     1
 74
     0
 75
     0
 76
     0
 77
     0
 78
     0
  0
ENDTAB
  0
TABLE
  2
LTYPE
 70
     2
  0
LTYPE
  2
CONTINUOUS
 70
     0
  3
実線
 72
    65
 73
     0
 40
0.0
  0
LTYPE
  2
DASHDOT
 70
     0
  3
____ _ ____ _ ____ _ ____ _ ____ _ ____ _ ____
 72
    65
 73
     4
 40
5.5
 49
4.0
 49
-0.6
 49
0.3
 49
-0.6
  0
ENDTAB
  0
TABLE
  2
LAYER
 70
    12
  0
LAYER
  2
0
 70
     0
 62
     7
  6
CONTINUOUS
  0
LAYER
  2
SIZE
 70
     0
 62
    30
  6
CONTINUOUS
  0
LAYER
  2
BASIS
 70
     0
 62
     6
  6
DASHDOT
  0
LAYER
  2
OUTLINE
 70
     0
 62
     3
  6
CONTINUOUS
  0
LAYER
  2
DETAIL
 70
     0
 62
     5
  6
CONTINUOUS
  0
LAYER
  2
ARRANGE
 70
     0
 62
     1
  6
CONTINUOUS
  0
LAYER
  2
DEFPOINTS
 70
     0
 62
     7
  6
CONTINUOUS
  0
LAYER
  2
ETC
 70
     0
 62
    61
  6
CONTINUOUS
  0
LAYER
  2
FIX
 70
     0
 62
    11
  6
CONTINUOUS
  0
LAYER
  2
NOTE
 70
     0
 62
     4
  6
CONTINUOUS
  0
LAYER
  2
SERVICESPACE
 70
     0
 62
     2
  6
DASHDOT
  0
LAYER
  2
SYMBOLLINE
 70
     0
 62
    15
  6
CONTINUOUS
  0
ENDTAB
  0
TABLE
  2
STYLE
 70
     2
  0
STYLE
  2
STANDARD
 70
     0
 40
64.0
 41
0.9
 50
0.0
 71
     0
 42
64.0
  3
SIMPLEX.shx
  4
BIGFONT.shx
  0
STYLE
  2
ANNOTATIVE
 70
     0
 40
0.0
 41
1.0
 50
0.0
 71
     0
 42
0.2
  3
txt
  4

  0
ENDTAB
  0
TABLE
  2
VIEW
 70
     2
  0
VIEW
  2
ALL
 70
     0
 40
4282.6198079999986
 10
0.0
 20
41.309903999999989
 41
5940.0
 11
0.0
 21
0.0
 31
1.0
 12
0.0
 22
0.0
 32
0.0
 42
50.0
 43
0.0
 44
0.0
 50
0.0
 71
     0
  0
ENDTAB
  0
TABLE
  2
UCS
 70
     0
  0
ENDTAB
  0
TABLE
  2
APPID
 70
     4
  0
APPID
  2
ACAD
 70
     0
  0
APPID
  2
ACADANNOTATIVE
 70
     0
  0
APPID
  2
ACAD_MLEADERVER
 70
     0
  0
APPID
  2
AUTOCAD_POSTSCRIPT_FIGURE
 70
     0
  0
ENDTAB
  0
TABLE
  2
DIMSTYLE
 70
     2
  0
DIMSTYLE
  2
STANDARD
 70
     0
  3

  4

  5

  6

  7

 40
1.0
 41
0.18
 42
0.0625
 43
0.38
 44
0.18
 45
0.0
 46
0.0
 47
0.0
 48
0.0
140
0.18
141
0.09
142
0.0
143
25.399999999999999
144
1.0
145
0.0
146
1.0
147
0.09
 71
     0
 72
     0
 73
     1
 74
     1
 75
     0
 76
     0
 77
     0
 78
     0
170
     0
171
     2
172
     0
173
     0
174
     0
175
     0
176
     7
177
     7
178
     7
  0
DIMSTYLE
  2
ANNOTATIVE
 70
     0
  3

  4

  5

  6

  7

 40
1.0
 41
0.18
 42
0.0625
 43
0.38
 44
0.18
 45
0.0
 46
0.0
 47
0.0
 48
0.0
140
0.18
141
0.09
142
0.0
143
25.399999999999999
144
1.0
145
0.0
146
1.0
147
0.09
 71
     0
 72
     0
 73
     1
 74
     1
 75
     0
 76
     0
 77
     0
 78
     0
170
     0
171
     2
172
     0
173
     0
174
     0
175
     0
176
     0
177
     0
178
     0
  0
ENDTAB
  0
ENDSEC
  0
SECTION
  2
BLOCKS
  0
BLOCK
  8
0
  2
$MODEL_SPACE
 70
     0
 10
0.0
 20
0.0
 30
0.0
  3
$MODEL_SPACE
  1

  0
ENDBLK
  5
76
  8
0
  0
BLOCK
 67
     1
  8
0
  2
$PAPER_SPACE
 70
     0
 10
0.0
 20
0.0
 30
0.0
  3
$PAPER_SPACE
  1

  0
ENDBLK
  5
72
 67
     1
  8
0
  0
BLOCK
  8
0
  2
DOT1
 70
     0
 10
0.0
 20
0.0
 30
0.0
  3
DOT1
  1

  0
CIRCLE
  5
8C
  8
SIZE
  6
CONTINUOUS
 62
     7
 10
0.0
 20
0.0
 30
0.0
 40
3.0
  0
ENDBLK
  5
8D
  8
0
  0
BLOCK
  8
0
  2
_ORIGIN
 70
     0
 10
0.0
 20
0.0
 30
0.0
  3
_ORIGIN
  1

  0
CIRCLE
  5
90
  8
0
  6
CONTINUOUS
 62
     7
 10
0.0
 20
0.0
 30
0.0
 40
0.5
  0
LINE
  5
91
  8
0
  6
CONTINUOUS
 62
     7
 10
0.0
 20
0.0
 30
0.0
 11
-1.0
 21
0.0
 31
0.0
  0
ENDBLK
  5
92
  8
0
  0
ENDSEC
  0
SECTION
  2
ENTITIES
  0
LINE
  5
95
  8
BASIS
  6
DASHDOT
 62
     6
 39
50.0
 10
-126.39376799999999
 20
0.0
 30
0.0
 11
131.16852399999999
 21
0.0
 31
0.0
  0
LINE
  5
96
  8
BASIS
  6
DASHDOT
 62
     6
 39
50.0
 10
0.0
 20
-142.05361500000001
 30
0.0
 11
0.0
 21
126.1054
 31
0.0
  0
CIRCLE
  5
97
  8
ARRANGE
  6
CONTINUOUS
 62
     1
 39
50.0
 10
0.0
 20
0.0
 30
0.0
 40
40.0
  0
POINT
  5
98
  8
ARRANGE
  6
CONTINUOUS
 62
     1
 10
0.0
 20
0.0
 30
0.0
 39
50.0
  0
ARC
  5
9A
  8
DETAIL
  6
CONTINUOUS
 62
     5
 10
0.0
 20
0.0
 30
0.0
 40
97.5
 50
180.0
 51
0.0
  0
LINE
  5
9B
  8
DETAIL
  6
CONTINUOUS
 62
     5
 10
-99.0
 20
0.0
 30
0.0
 11
-90.0
 21
0.0
 31
0.0
  0
LINE
  5
9C
  8
DETAIL
  6
CONTINUOUS
 62
     5
 10
99.0
 20
0.0
 30
0.0
 11
90.0
 21
0.0
 31
0.0
  0
CIRCLE
  5
9D
  8
DETAIL
  6
CONTINUOUS
 62
     5
 10
0.0
 20
0.0
 30
0.0
 40
90.0
  0
CIRCLE
  5
9E
  8
DETAIL
  6
CONTINUOUS
 62
     5
 10
0.0
 20
0.0
 30
0.0
 40
88.0
  0
LINE
  5
9F
  8
DETAIL
  6
CONTINUOUS
 62
     5
 10
-45.949266999999999
 20
-77.386465000000001
 30
0.0
 11
-44.949190000000002
 21
-75.654281000000012
 31
0.0
  0
LINE
  5
A0
  8
DETAIL
  6
CONTINUOUS
 62
     5
 10
-44.217216000000001
 20
-78.386465000000001
 30
0.0
 11
-43.217140000000001
 21
-76.654281000000012
 31
0.0
  0
LINE
  5
A1
  8
DETAIL
  6
CONTINUOUS
 62
     5
 10
-28.855613999999999
 20
-85.248773999999983
 30
0.0
 11
-28.237532999999999
 21
-83.346515999999994
 31
0.0
  0
LINE
  5
A2
  8
DETAIL
  6
CONTINUOUS
 62
     5
 10
-26.953500999999999
 20
-85.866807999999992
 30
0.0
 11
-26.335419999999999
 21
-83.964550000000017
 31
0.0
  0
LINE
  5
A3
  8
DETAIL
  6
CONTINUOUS
 62
     5
 10
-10.500833
 20
-89.385304000000005
 30
0.0
 11
-10.29176
 21
-87.396107999999984
 31
0.0
  0
LINE
  5
A4
  8
DETAIL
  6
CONTINUOUS
 62
     5
 10
-8.5117890000000003
 20
-89.594360999999992
 30
0.0
 11
-8.3027160000000002
 21
-87.605164999999985
 31
0.0
  0
LINE
  5
A5
  8
DETAIL
  6
CONTINUOUS
 62
     5
 10
8.3128850000000014
 20
-89.615266000000005
 30
0.0
 11
8.1038119999999996
 21
-87.626069999999999
 31
0.0
  0
LINE
  5
A6
  8
DETAIL
  6
CONTINUOUS
 62
     5
 10
10.301928999999999
 20
-89.406208999999976
 30
0.0
 11
10.092855999999999
 21
-87.417013999999995
 31
0.0
  0
LINE
  5
A7
  8
DETAIL
  6
CONTINUOUS
 62
     5
 10
26.763290000000001
 20
-85.928611999999987
 30
0.0
 11
26.145209000000001
 21
-84.026353
 31
0.0
  0
LINE
  5
A8
  8
DETAIL
  6
CONTINUOUS
 62
     5
 10
28.665403000000001
 20
-85.310578000000007
 30
0.0
 11
28.047322000000001
 21
-83.408318999999992
 31
0.0
  0
LINE
  5
A9
  8
DETAIL
  6
CONTINUOUS
 62
     5
 10
44.044010999999998
 20
-78.486464999999995
 30
0.0
 11
43.043934
 21
-76.754281000000006
 31
0.0
  0
LINE
  5
AA
  8
DETAIL
  6
CONTINUOUS
 62
     5
 10
45.776061999999989
 20
-77.486464999999995
 30
0.0
 11
44.775984999999999
 21
-75.754281000000006
 31
0.0
  0
LINE
  5
AB
  8
DETAIL
  6
CONTINUOUS
 62
     5
 10
59.399797
 20
-67.614081999999996
 30
0.0
 11
58.061433999999991
 21
-66.127679000000001
 31
0.0
  0
LINE
  5
AC
  8
DETAIL
  6
CONTINUOUS
 62
     5
 10
60.886086999999989
 20
-66.275820999999993
 30
0.0
 11
59.547722999999998
 21
-64.789418000000012
 31
0.0
  0
LINE
  5
AD
  8
DETAIL
  6
CONTINUOUS
 62
     5
 10
72.159526999999997
 20
-53.786639999999998
 30
0.0
 11
70.541370000000001
 21
-52.610979999999998
 31
0.0
  0
LINE
  5
AE
  8
DETAIL
  6
CONTINUOUS
 62
     5
 10
73.335098000000002
 20
-52.168605999999997
 30
0.0
 11
71.716940000000008
 21
-50.992946000000003
 31
0.0
  0
LINE
  5
AF
  8
DETAIL
  6
CONTINUOUS
 62
     5
 10
81.765540000000016
 20
-37.608463999999998
 30
0.0
 11
79.938309000000004
 21
-36.794928000000013
 31
0.0
  0
LINE
  5
B0
  8
DETAIL
  6
CONTINUOUS
 62
     5
 10
82.579013000000003
 20
-35.781373000000002
 30
0.0
 11
80.751781999999992
 21
-34.967837000000003
 31
0.0
  0
LINE
  5
B1
  8
DETAIL
  6
CONTINUOUS
 62
     5
 10
87.798005999999987
 20
-19.786617
 30
0.0
 11
85.841560999999984
 21
-19.370761999999999
 31
0.0
  0
LINE
  5
B2
  8
DETAIL
  6
CONTINUOUS
 62
     5
 10
88.213829000000004
 20
-17.830321999999999
 30
0.0
 11
86.257384000000016
 21
-17.414466999999998
 31
0.0
  0
LINE
  5
B3
  8
DETAIL
  6
CONTINUOUS
 62
     5
 10
89.993278000000004
 20
-1.1000000000000001
 30
0.0
 11
87.993125000000006
 21
-1.1000000000000001
 31
0.0
  0
LINE
  5
B4
  8
DETAIL
  6
CONTINUOUS
 62
     5
 10
89.993278000000004
 20
0.9
 30
0.0
 11
87.993125000000006
 21
0.9
 31
0.0
  0
LINE
  5
B5
  8
DETAIL
  6
CONTINUOUS
 62
     5
 10
88.255410999999995
 20
17.634692000000001
 30
0.0
 11
86.298967000000005
 21
17.218837000000001
 31
0.0
  0
LINE
  5
B6
  8
DETAIL
  6
CONTINUOUS
 62
     5
 10
87.839588000000006
 20
19.590986999999998
 30
0.0
 11
85.883143000000004
 21
19.175132000000001
 31
0.0
  0
LINE
  5
B7
  8
DETAIL
  6
CONTINUOUS
 62
     5
 10
82.660359999999983
 20
35.598663999999999
 30
0.0
 11
80.833130000000025
 21
34.785128
 31
0.0
  0
LINE
  5
B8
  8
DETAIL
  6
CONTINUOUS
 62
     5
 10
81.846886999999995
 20
37.425755000000002
 30
0.0
 11
80.019656000000012
 21
36.61221900000001
 31
0.0
  0
LINE
  5
B9
  8
DETAIL
  6
CONTINUOUS
 62
     5
 10
73.452654999999993
 20
52.006803000000012
 30
0.0
 11
71.834496999999999
 21
50.831142
 31
0.0
  0
LINE
  5
BA
  8
DETAIL
  6
CONTINUOUS
 62
     5
 10
72.277084000000002
 20
53.624836999999999
 30
0.0
 11
70.658927000000006
 21
52.449176000000001
 31
0.0
  0
LINE
  5
BB
  8
DETAIL
  6
CONTINUOUS
 62
     5
 10
61.034716000000003
 20
66.141994999999994
 30
0.0
 11
59.696351999999997
 21
64.655591999999999
 31
0.0
  0
LINE
  5
BC
  8
DETAIL
  6
CONTINUOUS
 62
     5
 10
59.548425999999999
 20
67.480256000000011
 30
0.0
 11
58.210062999999998
 21
65.993853000000001
 31
0.0
  0
LINE
  5
BD
  8
DETAIL
  6
CONTINUOUS
 62
     5
 10
45.949266999999999
 20
77.386465000000001
 30
0.0
 11
44.949190000000002
 21
75.654281000000012
 31
0.0
  0
LINE
  5
BE
  8
DETAIL
  6
CONTINUOUS
 62
     5
 10
44.217216000000001
 20
78.386465000000001
 30
0.0
 11
43.217140000000001
 21
76.654281000000012
 31
0.0
  0
LINE
  5
BF
  8
DETAIL
  6
CONTINUOUS
 62
     5
 10
28.855613999999999
 20
85.248773999999983
 30
0.0
 11
28.237532999999999
 21
83.346515999999994
 31
0.0
  0
LINE
  5
C0
  8
DETAIL
  6
CONTINUOUS
 62
     5
 10
26.953500999999999
 20
85.866807999999992
 30
0.0
 11
26.335419999999999
 21
83.964550000000017
 31
0.0
  0
LINE
  5
C1
  8
DETAIL
  6
CONTINUOUS
 62
     5
 10
10.500833
 20
89.385304000000005
 30
0.0
 11
10.29176
 21
87.396107999999984
 31
0.0
  0
LINE
  5
C2
  8
DETAIL
  6
CONTINUOUS
 62
     5
 10
8.5117890000000003
 20
89.594360999999992
 30
0.0
 11
8.3027160000000002
 21
87.605164999999985
 31
0.0
  0
LINE
  5
C3
  8
DETAIL
  6
CONTINUOUS
 62
     5
 10
-8.3128850000000014
 20
89.615266000000005
 30
0.0
 11
-8.1038119999999996
 21
87.626069999999999
 31
0.0
  0
LINE
  5
C4
  8
DETAIL
  6
CONTINUOUS
 62
     5
 10
-10.301928999999999
 20
89.406208999999976
 30
0.0
 11
-10.092855999999999
 21
87.417013999999995
 31
0.0
  0
LINE
  5
C5
  8
DETAIL
  6
CONTINUOUS
 62
     5
 10
-26.763290000000001
 20
85.928611999999987
 30
0.0
 11
-26.145209000000001
 21
84.026353
 31
0.0
  0
LINE
  5
C6
  8
DETAIL
  6
CONTINUOUS
 62
     5
 10
-28.665403000000001
 20
85.310578000000007
 30
0.0
 11
-28.047322000000001
 21
83.408318999999992
 31
0.0
  0
LINE
  5
C7
  8
DETAIL
  6
CONTINUOUS
 62
     5
 10
-44.044010999999998
 20
78.486464999999995
 30
0.0
 11
-43.043934
 21
76.754281000000006
 31
0.0
  0
LINE
  5
C8
  8
DETAIL
  6
CONTINUOUS
 62
     5
 10
-45.776061999999989
 20
77.486464999999995
 30
0.0
 11
-44.775984999999999
 21
75.754281000000006
 31
0.0
  0
LINE
  5
C9
  8
DETAIL
  6
CONTINUOUS
 62
     5
 10
-60.870789000000002
 20
-66.292889000000002
 30
0.0
 11
-59.532462000000002
 21
-64.806527000000003
 31
0.0
  0
LINE
  5
CA
  8
DETAIL
  6
CONTINUOUS
 62
     5
 10
-59.38267299999999
 20
-67.629121999999995
 30
0.0
 11
-58.044305000000001
 21
-66.142713999999984
 31
0.0
  0
LINE
  5
CB
  8
DETAIL
  6
CONTINUOUS
 62
     5
 10
-73.467501999999996
 20
-52.290106000000002
 30
0.0
 11
-71.849343999999988
 21
-51.114445000000011
 31
0.0
  0
LINE
  5
CC
  8
DETAIL
  6
CONTINUOUS
 62
     5
 10
-72.291931000000005
 20
-53.908140000000003
 30
0.0
 11
-70.673773999999995
 21
-52.732479000000012
 31
0.0
  0
LINE
  5
CD
  8
DETAIL
  6
CONTINUOUS
 62
     5
 10
-82.699343999999996
 20
-35.844799000000002
 30
0.0
 11
-80.872113999999996
 21
-35.031264
 31
0.0
  0
LINE
  5
CE
  8
DETAIL
  6
CONTINUOUS
 62
     5
 10
-81.885870999999995
 20
-37.671890000000012
 30
0.0
 11
-80.058639999999997
 21
-36.858355000000003
 31
0.0
  0
LINE
  5
CF
  8
DETAIL
  6
CONTINUOUS
 62
     5
 10
-88.310276999999985
 20
-17.839454
 30
0.0
 11
-86.353832999999995
 21
-17.423598999999999
 31
0.0
  0
LINE
  5
D0
  8
DETAIL
  6
CONTINUOUS
 62
     5
 10
-87.89445400000001
 20
-19.795749000000001
 30
0.0
 11
-85.938008999999994
 21
-19.379894
 31
0.0
  0
LINE
  5
D1
  8
DETAIL
  6
CONTINUOUS
 62
     5
 10
-90.055075999999985
 20
0.939009
 30
0.0
 11
-88.054923000000002
 21
0.939009
 31
0.0
  0
LINE
  5
D2
  8
DETAIL
  6
CONTINUOUS
 62
     5
 10
-90.055075999999985
 20
-1.060991
 30
0.0
 11
-88.054923000000002
 21
-1.060991
 31
0.0
  0
LINE
  5
D3
  8
DETAIL
  6
CONTINUOUS
 62
     5
 10
-87.857484999999997
 20
19.669882000000001
 30
0.0
 11
-85.901040000000009
 21
19.254027000000001
 31
0.0
  0
LINE
  5
D4
  8
DETAIL
  6
CONTINUOUS
 62
     5
 10
-88.273308
 20
17.713587
 30
0.0
 11
-86.316863999999995
 21
17.297732
 31
0.0
  0
LINE
  5
D5
  8
DETAIL
  6
CONTINUOUS
 62
     5
 10
-81.813548999999995
 20
37.534536000000003
 30
0.0
 11
-79.986318000000011
 21
36.721001000000001
 31
0.0
  0
LINE
  5
D6
  8
DETAIL
  6
CONTINUOUS
 62
     5
 10
-82.627021999999997
 20
35.707445
 30
0.0
 11
-80.799790999999999
 21
34.893909999999998
 31
0.0
  0
LINE
  5
D7
  8
DETAIL
  6
CONTINUOUS
 62
     5
 10
-72.187417000000011
 20
53.752198999999997
 30
0.0
 11
-70.569259000000002
 21
52.576539000000011
 31
0.0
  0
LINE
  5
D8
  8
DETAIL
  6
CONTINUOUS
 62
     5
 10
-73.362987000000004
 20
52.13416500000001
 30
0.0
 11
-71.744830000000007
 21
50.958505000000002
 31
0.0
  0
LINE
  5
D9
  8
DETAIL
  6
CONTINUOUS
 62
     5
 10
-60.886086999999989
 20
66.275820999999993
 30
0.0
 11
-59.547722999999998
 21
64.789418000000012
 31
0.0
  0
LINE
  5
DA
  8
DETAIL
  6
CONTINUOUS
 62
     5
 10
-59.399797
 20
67.614081999999996
 30
0.0
 11
-58.061433999999991
 21
66.127679000000001
 31
0.0
  0
ARC
  5
DB
  8
DETAIL
  6
CONTINUOUS
 62
     5
 10
-0.5
 20
88.998580000000004
 30
0.0
 40
2.0
 50
90.325546000000003
 51
150.877332
  0
ARC
  5
DC
  8
DETAIL
  6
CONTINUOUS
 62
     5
 10
0.0
 20
1.0
 30
0.0
 40
90.0
 50
89.674453999999997
 51
90.325546000000003
  0
ARC
  5
DD
  8
DETAIL
  6
CONTINUOUS
 62
     5
 10
0.5
 20
88.998580000000004
 30
0.0
 40
2.0
 50
29.122668000000001
 51
89.674453999999997
  0
ARC
  5
DE
  8
DETAIL
  6
CONTINUOUS
 62
     5
 10
-74.760660999999999
 20
-10.5
 30
0.0
 40
3.0
 50
90.0
 51
187.99479500000001
  0
LINE
  5
DF
  8
DETAIL
  6
CONTINUOUS
 62
     5
 10
-74.760660999999999
 20
-7.5
 30
0.0
 11
-70.5
 21
-7.5
 31
0.0
  0
ARC
  5
E0
  8
DETAIL
  6
CONTINUOUS
 62
     5
 10
-74.760660999999999
 20
10.5
 30
0.0
 40
3.0
 50
172.00520499999999
 51
270.0
  0
LINE
  5
E1
  8
DETAIL
  6
CONTINUOUS
 62
     5
 10
-74.760660999999999
 20
7.5
 30
0.0
 11
-70.5
 21
7.5
 31
0.0
  0
ARC
  5
E2
  8
DETAIL
  6
CONTINUOUS
 62
     5
 10
-70.5
 20
0.0
 30
0.0
 40
7.5
 50
270.0
 51
90.0
  0
ARC
  5
E3
  8
DETAIL
  6
CONTINUOUS
 62
     5
 10
74.760660999999999
 20
-10.5
 30
0.0
 40
3.0
 50
352.00520499999999
 51
90.0
  0
LINE
  5
E4
  8
DETAIL
  6
CONTINUOUS
 62
     5
 10
74.760660999999999
 20
-7.5
 30
0.0
 11
70.5
 21
-7.5
 31
0.0
  0
ARC
  5
E5
  8
DETAIL
  6
CONTINUOUS
 62
     5
 10
70.5
 20
0.0
 30
0.0
 40
7.5
 50
90.0
 51
270.0
  0
ARC
  5
E6
  8
DETAIL
  6
CONTINUOUS
 62
     5
 10
74.760660999999999
 20
10.5
 30
0.0
 40
3.0
 50
270.0
 51
7.9947949999999981
  0
LINE
  5
E7
  8
DETAIL
  6
CONTINUOUS
 62
     5
 10
74.760660999999999
 20
7.5
 30
0.0
 11
70.5
 21
7.5
 31
0.0
  0
LINE
  5
E8
  8
DETAIL
  6
CONTINUOUS
 62
     5
 10
71.949566000000004
 20
1.4495709999999991
 30
0.0
 11
69.050433999999996
 21
-1.4495709999999991
 31
0.0
  0
LINE
  5
E9
  8
DETAIL
  6
CONTINUOUS
 62
     5
 10
69.050429000000008
 20
1.449565999999999
 30
0.0
 11
71.949570999999992
 21
-1.449565999999999
 31
0.0
  0
CIRCLE
  5
EA
  8
DETAIL
  6
CONTINUOUS
 62
     5
 10
70.5
 20
0.0
 30
0.0
 40
4.5
  0
CIRCLE
  5
EB
  8
DETAIL
  6
CONTINUOUS
 62
     5
 10
-70.5
 20
0.0
 30
0.0
 40
4.5
  0
LINE
  5
EC
  8
DETAIL
  6
CONTINUOUS
 62
     5
 10
-69.050429000000008
 20
1.449565999999999
 30
0.0
 11
-71.949570999999992
 21
-1.449565999999999
 31
0.0
  0
LINE
  5
ED
  8
DETAIL
  6
CONTINUOUS
 62
     5
 10
-71.949566000000004
 20
1.4495709999999991
 30
0.0
 11
-69.050433999999996
 21
-1.4495709999999991
 31
0.0
  0
LINE
  5
EE
  8
SIZE
  6
CONTINUOUS
 62
    30
 10
90.0
 20
20.0
 30
0.0
 11
90.0
 21
193.477598
 31
0.0
  0
LINE
  5
EF
  8
SIZE
  6
CONTINUOUS
 62
    30
 10
-90.0
 20
20.0
 30
0.0
 11
-90.0
 21
193.477598
 31
0.0
  0
LINE
  5
F0
  8
SIZE
  6
CONTINUOUS
 62
    30
 10
102.0
 20
173.477598
 30
0.0
 11
114.0
 21
173.477598
 31
0.0
  0
LINE
  5
F1
  8
SIZE
  6
CONTINUOUS
 62
    30
 10
-102.0
 20
173.477598
 30
0.0
 11
-114.0
 21
173.477598
 31
0.0
  0
LINE
  5
F2
  8
SIZE
  6
CONTINUOUS
 62
    30
 10
90.0
 20
173.477598
 30
0.0
 11
-90.0
 21
173.477598
 31
0.0
  0
CIRCLE
  5
F3
  8
SIZE
  6
CONTINUOUS
 62
    30
 10
90.0
 20
173.477598
 30
0.0
 40
6.0
  0
LINE
  5
F4
  8
SIZE
  6
CONTINUOUS
 62
    30
 10
90.0
 20
173.477598
 30
0.0
 11
102.0
 21
173.477598
 31
0.0
  0
CIRCLE
  5
F5
  8
SIZE
  6
CONTINUOUS
 62
    30
 10
-90.0
 20
173.477598
 30
0.0
 40
6.0
  0
LINE
  5
F6
  8
SIZE
  6
CONTINUOUS
 62
    30
 10
-90.0
 20
173.477598
 30
0.0
 11
-102.0
 21
173.477598
 31
0.0
  0
TEXT
  5
F7
  8
SIZE
  6
CONTINUOUS
 62
    30
 10
-108.89142857142851
 20
198.477598
 30
0.0
 40
64.0
  1
φ180
 41
0.9
 72
     1
 11
0.0
 21
198.477598
 31
0.0
  0
POINT
  5
F8
  8
DEFPOINTS
  6
CONTINUOUS
 62
    30
 10
90.0
 20
0.0
 30
0.0
  0
POINT
  5
F9
  8
DEFPOINTS
  6
CONTINUOUS
 62
    30
 10
-90.0
 20
0.0
 30
0.0
  0
POINT
  5
FA
  8
DEFPOINTS
  6
CONTINUOUS
 62
    30
 10
-90.0
 20
173.477598
 30
0.0
  0
LINE
  5
FB
  8
SIZE
  6
CONTINUOUS
 62
    30
 10
151.16852399999999
 20
0.0
 30
0.0
 11
311.03097000000002
 21
0.0
 31
0.0
  0
LINE
  5
FC
  8
SIZE
  6
CONTINUOUS
 62
    30
 10
20.0
 20
-108.0
 30
0.0
 11
311.03097000000002
 21
-108.0
 31
0.0
  0
LINE
  5
FD
  8
SIZE
  6
CONTINUOUS
 62
    30
 10
291.03097000000002
 20
-12.0
 30
0.0
 11
291.03097000000002
 21
-96.0
 31
0.0
  0
LINE
  5
FE
  8
SIZE
  6
CONTINUOUS
 62
    30
 10
291.03097000000002
 20
-323.34728200000001
 30
0.0
 11
291.03097000000002
 21
-108.0
 31
0.0
  0
TEXT
  5
FF
  8
SIZE
  6
CONTINUOUS
 62
    30
 10
266.03097000000002
 20
-298.34728157142848
 30
0.0
 40
64.0
  1
108
 50
90.0
 41
0.9
 72
     1
 11
266.03097000000002
 21
-229.77585300000001
 31
0.0
  0
CIRCLE
  5
100
  8
SIZE
  6
CONTINUOUS
 62
    30
 10
291.03097000000002
 20
0.0
 30
0.0
 40
6.0
  0
LINE
  5
101
  8
SIZE
  6
CONTINUOUS
 62
    30
 10
291.03097000000002
 20
0.0
 30
0.0
 11
291.03097000000002
 21
-12.0
 31
0.0
  0
CIRCLE
  5
102
  8
SIZE
  6
CONTINUOUS
 62
    30
 10
291.03097000000002
 20
-108.0
 30
0.0
 40
6.0
  0
LINE
  5
103
  8
SIZE
  6
CONTINUOUS
 62
    30
 10
291.03097000000002
 20
-108.0
 30
0.0
 11
291.03097000000002
 21
-96.0
 31
0.0
  0
POINT
  5
104
  8
DEFPOINTS
  6
CONTINUOUS
 62
    30
 10
131.16852399999999
 20
0.0
 30
0.0
  0
POINT
  5
105
  8
DEFPOINTS
  6
CONTINUOUS
 62
    30
 10
0.0
 20
-108.0
 30
0.0
  0
POINT
  5
106
  8
DEFPOINTS
  6
CONTINUOUS
 62
    30
 10
291.03097000000002
 20
-108.0
 30
0.0
  0
ARC
  5
107
  8
DETAIL
  6
CONTINUOUS
 62
     5
 10
0.0
 20
0.0
 30
0.0
 40
99.0
 50
180.0
 51
0.0
  0
ARC
  5
108
  8
DETAIL
  6
CONTINUOUS
 62
     5
 10
7.6016659999999998
 20
-1.656806
 30
0.0
 40
106.614541
 50
179.109579
 51
265.911315
  0
ARC
  5
109
  8
DETAIL
  6
CONTINUOUS
 62
     5
 10
-7.6016659999999998
 20
-1.656806
 30
0.0
 40
106.614541
 50
274.088685
 51
0.8904209999999999
  0
LINE
  5
10A
  8
SIZE
  6
CONTINUOUS
 62
    30
 10
99.0
 20
-20.0
 30
0.0
 11
99.0
 21
-283.24086699999998
 31
0.0
  0
LINE
  5
10B
  8
SIZE
  6
CONTINUOUS
 62
    30
 10
-99.0
 20
-20.0
 30
0.0
 11
-99.0
 21
-283.24086699999998
 31
0.0
  0
LINE
  5
10C
  8
SIZE
  6
CONTINUOUS
 62
    30
 10
87.0
 20
-263.24086699999998
 30
0.0
 11
-87.0
 21
-263.24086699999998
 31
0.0
  0
CIRCLE
  5
10D
  8
SIZE
  6
CONTINUOUS
 62
    30
 10
99.0
 20
-263.24086699999998
 30
0.0
 40
6.0
  0
LINE
  5
10E
  8
SIZE
  6
CONTINUOUS
 62
    30
 10
99.0
 20
-263.24086699999998
 30
0.0
 11
87.0
 21
-263.24086699999998
 31
0.0
  0
CIRCLE
  5
10F
  8
SIZE
  6
CONTINUOUS
 62
    30
 10
-99.0
 20
-263.24086699999998
 30
0.0
 40
6.0
  0
LINE
  5
110
  8
SIZE
  6
CONTINUOUS
 62
    30
 10
-99.0
 20
-263.24086699999998
 30
0.0
 11
-87.0
 21
-263.24086699999998
 31
0.0
  0
TEXT
  5
111
  8
SIZE
  6
CONTINUOUS
 62
    30
 10
-68.571428571428569
 20
-238.24086700000001
 30
0.0
 40
64.0
  1
198
 41
0.9
 72
     1
 11
0.0
 21
-238.24086700000001
 31
0.0
  0
POINT
  5
112
  8
DEFPOINTS
  6
CONTINUOUS
 62
    30
 10
99.0
 20
0.0
 30
0.0
  0
POINT
  5
113
  8
DEFPOINTS
  6
CONTINUOUS
 62
    30
 10
-99.0
 20
0.0
 30
0.0
  0
POINT
  5
114
  8
DEFPOINTS
  6
CONTINUOUS
 62
    30
 10
-99.0
 20
-263.24086699999998
 30
0.0
  0
CIRCLE
  5
115
  8
OUTLINE
  6
CONTINUOUS
 62
     3
 10
0.0
 20
0.0
 30
0.0
 40
90.0
  0
ARC
  5
116
  8
OUTLINE
  6
CONTINUOUS
 62
     3
 10
-7.6016659999999998
 20
-1.656806
 30
0.0
 40
106.614541
 50
274.088685
 51
0.8904209999999999
  0
ARC
  5
117
  8
OUTLINE
  6
CONTINUOUS
 62
     3
 10
7.6016659999999998
 20
-1.656806
 30
0.0
 40
106.614541
 50
179.109579
 51
265.911315
  0
LINE
  5
118
  8
OUTLINE
  6
CONTINUOUS
 62
     3
 10
-99.0
 20
0.0
 30
0.0
 11
-90.0
 21
0.0
 31
0.0
  0
LINE
  5
119
  8
OUTLINE
  6
CONTINUOUS
 62
     3
 10
99.0
 20
0.0
 30
0.0
 11
90.0
 21
0.0
 31
0.0
  0
TEXT
  5
121
  8
ETC
  6
CONTINUOUS
 62
    61
 10
245.82024518867379
 20
296.55625834044042
 30
0.0
 40
50.0
  1
P-100CVP3_2
 41
0.9
  0
TEXT
  5
122
  8
ETC
  6
CONTINUOUS
 62
    61
 10
232.27674518867369
 20
208.0868149328941
 30
0.0
 40
50.0
  1
システム部材
 41
0.9
  0
TEXT
  5
123
  8
ETC
  6
CONTINUOUS
 62
    61
 10
405.00469219735987
 20
143.51330643988791
 30
0.0
 40
50.0
  1
P-100CVP3
 41
0.9
  0
ENDSEC
  0
EOF
