  0
SECTION
  2
HEADER
  9
$ACADVER
  1
AC1009
  9
$INSBASE
 10
0.0
 20
0.0
 30
0.0
  9
$EXTMIN
 10
-469.50071568077141
 20
-496.99400690965558
 30
-0.0015257624927045
  9
$EXTMAX
 10
992.47742852018746
 20
445.08362601637242
 30
50.001525995323327
  9
$LIMMIN
 10
-2970.0
 20
-2100.0
  9
$LIMMAX
 10
2970.0
 20
2100.0
  9
$ORTHOMODE
 70
     1
  9
$REGENMODE
 70
     0
  9
$FILLMODE
 70
     1
  9
$QTEXTMODE
 70
     0
  9
$MIRRTEXT
 70
     0
  9
$DRAGMODE
 70
     2
  9
$LTSCALE
 40
20.0
  9
$OSMODE
 70
    37
  9
$ATTMODE
 70
     1
  9
$TEXTSIZE
 40
64.0
  9
$TRACEWID
 40
0.05
  9
$TEXTSTYLE
  7
STANDARD
  9
$CLAYER
  8
SIZE
  9
$CELTYPE
  6
CONTINUOUS
  9
$CECOLOR
 62
    30
  9
$DIMSCALE
 40
1.0
  9
$DIMASZ
 40
12.0
  9
$DIMEXO
 40
20.0
  9
$DIMDLI
 40
200.0
  9
$DIMRND
 40
0.0
  9
$DIMDLE
 40
0.0
  9
$DIMEXE
 40
20.0
  9
$DIMTP
 40
0.0
  9
$DIMTM
 40
0.0
  9
$DIMTXT
 40
64.0
  9
$DIMCEN
 40
0.09
  9
$DIMTSZ
 40
0.0
  9
$DIMTOL
 70
     0
  9
$DIMLIM
 70
     0
  9
$DIMTIH
 70
     0
  9
$DIMTOH
 70
     0
  9
$DIMSE1
 70
     0
  9
$DIMSE2
 70
     0
  9
$DIMTAD
 70
     1
  9
$DIMZIN
 70
     8
  9
$DIMBLK
  1
DOT1
  9
$DIMASO
 70
     1
  9
$DIMSHO
 70
     0
  9
$DIMPOST
  1

  9
$DIMAPOST
  1

  9
$DIMALT
 70
     0
  9
$DIMALTD
 70
     2
  9
$DIMALTF
 40
25.399999999999999
  9
$DIMLFAC
 40
1.0
  9
$DIMTOFL
 70
     1
  9
$DIMTVP
 40
0.0
  9
$DIMTIX
 70
     1
  9
$DIMSOXD
 70
     0
  9
$DIMSAH
 70
     1
  9
$DIMBLK1
  1
ORIGIN
  9
$DIMBLK2
  1
ORIGIN
  9
$DIMSTYLE
  2
STANDARD
  9
$DIMCLRD
 70
     7
  9
$DIMCLRE
 70
     7
  9
$DIMCLRT
 70
     7
  9
$DIMTFAC
 40
1.0
  9
$DIMGAP
 40
25.0
  9
$LUNITS
 70
     2
  9
$LUPREC
 70
     4
  9
$SKETCHINC
 40
0.1
  9
$FILLETRAD
 40
4.0
  9
$AUNITS
 70
     1
  9
$AUPREC
 70
     3
  9
$MENU
  1
ACAD
  9
$ELEVATION
 40
0.0
  9
$PELEVATION
 40
0.0
  9
$THICKNESS
 40
50.0
  9
$LIMCHECK
 70
     0
  9
$BLIPMODE
 70
     0
  9
$CHAMFERA
 40
0.0
  9
$CHAMFERB
 40
0.0
  9
$SKPOLY
 70
     0
  9
$TDCREATE
 40
2453138.8258560649
  9
$TDUPDATE
 40
2455048.4365407182
  9
$TDINDWG
 40
0.0809586111
  9
$TDUSRTIMER
 40
0.0809584259
  9
$USRTIMER
 70
     1
  9
$ANGBASE
 50
0.0
  9
$ANGDIR
 70
     0
  9
$PDMODE
 70
     3
  9
$PDSIZE
 40
-2.0
  9
$PLINEWID
 40
0.0
  9
$COORDS
 70
     0
  9
$SPLFRAME
 70
     0
  9
$SPLINETYPE
 70
     6
  9
$SPLINESEGS
 70
     8
  9
$ATTDIA
 70
     0
  9
$ATTREQ
 70
     1
  9
$HANDLING
 70
     1
  9
$HANDSEED
  5
309
  9
$SURFTAB1
 70
     6
  9
$SURFTAB2
 70
     6
  9
$SURFTYPE
 70
     6
  9
$SURFU
 70
     6
  9
$SURFV
 70
     6
  9
$UCSNAME
  2

  9
$UCSORG
 10
0.0
 20
0.0
 30
0.0
  9
$UCSXDIR
 10
1.0
 20
0.0
 30
0.0
  9
$UCSYDIR
 10
0.0
 20
1.0
 30
0.0
  9
$PUCSNAME
  2

  9
$PUCSORG
 10
0.0
 20
0.0
 30
0.0
  9
$PUCSXDIR
 10
1.0
 20
0.0
 30
0.0
  9
$PUCSYDIR
 10
0.0
 20
1.0
 30
0.0
  9
$USERI1
 70
     0
  9
$USERI2
 70
     0
  9
$USERI3
 70
     0
  9
$USERI4
 70
     0
  9
$USERI5
 70
     0
  9
$USERR1
 40
20.0
  9
$USERR2
 40
0.0
  9
$USERR3
 40
0.0
  9
$USERR4
 40
0.0
  9
$USERR5
 40
0.0
  9
$WORLDVIEW
 70
     1
  9
$SHADEDGE
 70
     3
  9
$SHADEDIF
 70
    70
  9
$TILEMODE
 70
     1
  9
$MAXACTVP
 70
    48
  9
$PLIMCHECK
 70
     0
  9
$PEXTMIN
 10
-1.0000000000000000E+020
 20
-1.0000000000000000E+020
 30
-1.0000000000000000E+020
  9
$PEXTMAX
 10
1.0000000000000000E+020
 20
1.0000000000000000E+020
 30
1.0000000000000000E+020
  9
$PLIMMIN
 10
0.0
 20
0.0
  9
$PLIMMAX
 10
12.0
 20
9.0
  9
$UNITMODE
 70
     0
  9
$VISRETAIN
 70
     0
  9
$PLINEGEN
 70
     0
  9
$PSLTSCALE
 70
     0
  0
ENDSEC
  0
SECTION
  2
TABLES
  0
TABLE
  2
VPORT
 70
     1
  0
VPORT
  2
*ACTIVE
 70
     0
 10
0.0
 20
0.0
 11
1.0
 21
1.0
 12
261.488356419708
 22
-25.955190446641609
 13
0.0
 23
0.0
 14
1.0
 24
1.0
 15
0.0
 25
0.0
 16
0.0
 26
0.0
 36
1.0
 17
0.0
 27
0.0
 37
0.0
 40
1183.3679610126489
 41
1.2435374149659859
 42
50.0
 43
0.0
 44
0.0
 50
0.0
 51
0.0
 71
     0
 72
  1000
 73
     1
 74
     0
 75
     0
 76
     0
 77
     0
 78
     0
  0
ENDTAB
  0
TABLE
  2
LTYPE
 70
     2
  0
LTYPE
  2
CONTINUOUS
 70
     0
  3
Ä└É³
 72
    65
 73
     0
 40
0.0
  0
LTYPE
  2
DASHDOT
 70
     0
  3
____ _ ____ _ ____ _ ____ _ ____ _ ____ _ ____
 72
    65
 73
     4
 40
5.5
 49
4.0
 49
-0.6
 49
0.3
 49
-0.6
  0
ENDTAB
  0
TABLE
  2
LAYER
 70
    12
  0
LAYER
  2
0
 70
     0
 62
     7
  6
CONTINUOUS
  0
LAYER
  2
SIZE
 70
     0
 62
    30
  6
CONTINUOUS
  0
LAYER
  2
BASIS
 70
     0
 62
     6
  6
DASHDOT
  0
LAYER
  2
OUTLINE
 70
     0
 62
     3
  6
CONTINUOUS
  0
LAYER
  2
DETAIL
 70
     0
 62
     5
  6
CONTINUOUS
  0
LAYER
  2
ARRANGE
 70
     0
 62
     1
  6
CONTINUOUS
  0
LAYER
  2
DEFPOINTS
 70
     0
 62
     7
  6
CONTINUOUS
  0
LAYER
  2
ETC
 70
     0
 62
    61
  6
CONTINUOUS
  0
LAYER
  2
FIX
 70
     0
 62
    11
  6
CONTINUOUS
  0
LAYER
  2
NOTE
 70
     0
 62
     4
  6
CONTINUOUS
  0
LAYER
  2
SERVICESPACE
 70
     0
 62
     2
  6
DASHDOT
  0
LAYER
  2
SYMBOLLINE
 70
     0
 62
    15
  6
CONTINUOUS
  0
ENDTAB
  0
TABLE
  2
STYLE
 70
     2
  0
STYLE
  2
STANDARD
 70
     0
 40
64.0
 41
0.9
 50
0.0
 71
     0
 42
64.0
  3
SIMPLEX.shx
  4
BIGFONT.shx
  0
STYLE
  2
ANNOTATIVE
 70
     0
 40
0.0
 41
1.0
 50
0.0
 71
     0
 42
0.2
  3
txt
  4

  0
ENDTAB
  0
TABLE
  2
VIEW
 70
     1
  0
VIEW
  2
ALL
 70
     0
 40
4282.6198079999967
 10
0.0
 20
41.309903999999989
 41
5940.0
 11
0.0
 21
0.0
 31
1.0
 12
0.0
 22
0.0
 32
0.0
 42
50.0
 43
0.0
 44
0.0
 50
0.0
 71
     0
  0
ENDTAB
  0
TABLE
  2
UCS
 70
     0
  0
ENDTAB
  0
TABLE
  2
APPID
 70
     4
  0
APPID
  2
ACAD
 70
     0
  0
APPID
  2
ACADANNOTATIVE
 70
     0
  0
APPID
  2
ACAD_MLEADERVER
 70
     0
  0
APPID
  2
AUTOCAD_POSTSCRIPT_FIGURE
 70
     0
  0
ENDTAB
  0
TABLE
  2
DIMSTYLE
 70
     2
  0
DIMSTYLE
  2
STANDARD
 70
     0
  3

  4

  5

  6

  7

 40
1.0
 41
0.18
 42
0.0625
 43
0.38
 44
0.18
 45
0.0
 46
0.0
 47
0.0
 48
0.0
140
0.18
141
0.09
142
0.0
143
25.399999999999999
144
1.0
145
0.0
146
1.0
147
0.09
 71
     0
 72
     0
 73
     1
 74
     1
 75
     0
 76
     0
 77
     0
 78
     0
170
     0
171
     2
172
     0
173
     0
174
     0
175
     0
176
     7
177
     7
178
     7
  0
DIMSTYLE
  2
ANNOTATIVE
 70
     0
  3

  4

  5

  6

  7

 40
1.0
 41
0.18
 42
0.0625
 43
0.38
 44
0.18
 45
0.0
 46
0.0
 47
0.0
 48
0.0
140
0.18
141
0.09
142
0.0
143
25.399999999999999
144
1.0
145
0.0
146
1.0
147
0.09
 71
     0
 72
     0
 73
     1
 74
     1
 75
     0
 76
     0
 77
     0
 78
     0
170
     0
171
     2
172
     0
173
     0
174
     0
175
     0
176
     0
177
     0
178
     0
  0
ENDTAB
  0
ENDSEC
  0
SECTION
  2
BLOCKS
  0
BLOCK
  8
0
  2
$MODEL_SPACE
 70
     0
 10
0.0
 20
0.0
 30
0.0
  3
$MODEL_SPACE
  1

  0
ENDBLK
  5
2B5
  8
0
  0
BLOCK
 67
     1
  8
0
  2
$PAPER_SPACE
 70
     0
 10
0.0
 20
0.0
 30
0.0
  3
$PAPER_SPACE
  1

  0
ENDBLK
  5
2B1
 67
     1
  8
0
  0
BLOCK
  8
0
  2
DOT1
 70
     0
 10
0.0
 20
0.0
 30
0.0
  3
DOT1
  1

  0
CIRCLE
  5
16E
  8
SIZE
  6
CONTINUOUS
 62
     7
 10
0.0
 20
0.0
 30
0.0
 40
3.0
  0
ENDBLK
  5
16F
  8
0
  0
BLOCK
  8
0
  2
_ORIGIN
 70
     0
 10
0.0
 20
0.0
 30
0.0
  3
_ORIGIN
  1

  0
CIRCLE
  5
172
  8
0
  6
CONTINUOUS
 62
     7
 10
0.0
 20
0.0
 30
0.0
 40
0.5
  0
LINE
  5
173
  8
0
  6
CONTINUOUS
 62
     7
 10
0.0
 20
0.0
 30
0.0
 11
-1.0
 21
0.0
 31
0.0
  0
ENDBLK
  5
174
  8
0
  0
ENDSEC
  0
SECTION
  2
ENTITIES
  0
LINE
  5
175
  8
BASIS
  6
DASHDOT
 62
     6
 39
50.0
 10
-126.3937679999998
 20
0.0
 30
0.0
 11
131.16852399999991
 21
0.0
 31
0.0
  0
LINE
  5
176
  8
BASIS
  6
DASHDOT
 62
     6
 39
50.0
 10
0.0
 20
-142.05361499999981
 30
0.0
 11
0.0
 21
126.1054
 31
0.0
  0
CIRCLE
  5
177
  8
ARRANGE
  6
CONTINUOUS
 62
     1
 39
50.0
 10
0.0
 20
0.0
 30
0.0
 40
40.0
  0
POINT
  5
178
  8
ARRANGE
  6
CONTINUOUS
 62
     1
 10
0.0
 20
0.0
 30
0.0
 39
50.0
  0
LINE
  5
179
  8
DETAIL
  6
CONTINUOUS
 62
     5
 10
-99.0
 20
0.0
 30
0.0
 11
-90.0
 21
0.0
 31
0.0
  0
LINE
  5
17A
  8
DETAIL
  6
CONTINUOUS
 62
     5
 10
99.0
 20
0.0
 30
0.0
 11
90.0
 21
0.0
 31
0.0
  0
CIRCLE
  5
17B
  8
DETAIL
  6
CONTINUOUS
 62
     5
 10
0.0
 20
0.0
 30
0.0
 40
90.0
  0
CIRCLE
  5
17C
  8
DETAIL
  6
CONTINUOUS
 62
     5
 10
0.0
 20
-5.265193
 30
0.0
 40
53.794513999999999
  0
ARC
  5
17D
  8
NOTE
  6
CONTINUOUS
 62
     4
 10
0.0
 20
0.0
 30
0.0
 40
78.0
 50
36.585361999999989
 51
49.961196999999999
  0
ARC
  5
17E
  8
NOTE
  6
CONTINUOUS
 62
     4
 10
0.0
 20
0.0
 30
0.0
 40
78.0
 50
122.803845
 51
142.47156099999981
  0
ARC
  5
17F
  8
NOTE
  6
CONTINUOUS
 62
     4
 10
0.0
 20
0.0
 30
0.0
 40
78.0
 50
216.145914
 51
232.77052900000001
  0
ARC
  5
180
  8
DETAIL
  6
CONTINUOUS
 62
     5
 10
0.0
 20
0.0
 30
0.0
 40
78.0
 50
307.83468799999991
 51
320.631664
  0
LINE
  5
181
  8
NOTE
  6
DASHDOT
 62
     4
 10
75.886403000000001
 20
-43.813034999999999
 30
0.0
 11
-80.440531999999976
 21
46.442363
 31
0.0
  0
LINE
  5
182
  8
NOTE
  6
DASHDOT
 62
     4
 10
-43.813034999999999
 20
-75.886403000000001
 30
0.0
 11
46.070583999999982
 21
79.796592000000004
 31
0.0
  0
CIRCLE
  5
183
  8
DETAIL
  6
CONTINUOUS
 62
     5
 10
69.242820999999992
 20
-40.067839999999983
 30
0.0
 40
2.5
  0
ARC
  5
184
  8
NOTE
  6
CONTINUOUS
 62
     4
 10
0.0
 20
0.0
 30
0.0
 40
80.0
 50
324.51121099999989
 51
339.71826299999992
  0
ARC
  5
185
  8
NOTE
  6
CONTINUOUS
 62
     4
 10
-0.027417
 20
-0.047525
 30
0.0
 40
80.0
 50
143.88503799999981
 51
159.25361100000001
  0
CIRCLE
  5
186
  8
DETAIL
  6
CONTINUOUS
 62
     5
 10
-69.336866000000001
 20
39.904950999999997
 30
0.0
 40
2.5
  0
ARC
  5
187
  8
NOTE
  6
DASHDOT
 62
     4
 10
0.0
 20
0.0
 30
0.0
 40
80.0
 50
234.511211
 51
249.71826299999989
  0
ARC
  5
188
  8
NOTE
  6
DASHDOT
 62
     4
 10
-0.047525
 20
0.027417
 30
0.0
 40
80.0
 50
53.885038000000002
 51
69.253610999999992
  0
LINE
  5
189
  8
NOTE
  6
DASHDOT
 62
     4
 10
65.760930999999999
 20
65.760930999999999
 30
0.0
 11
-65.760930999999999
 21
-65.760930999999999
 31
0.0
  0
LINE
  5
18A
  8
NOTE
  6
DASHDOT
 62
     4
 10
65.760930999999999
 20
-65.760930999999999
 30
0.0
 11
-65.760930999999999
 21
65.760930999999999
 31
0.0
  0
CIRCLE
  5
18B
  8
DETAIL
  6
CONTINUOUS
 62
     5
 10
39.904950999999997
 20
69.336866000000001
 30
0.0
 40
2.5
  0
CIRCLE
  5
18C
  8
DETAIL
  6
CONTINUOUS
 62
     5
 10
55.0
 20
55.0
 30
0.0
 40
4.25
  0
CIRCLE
  5
18D
  8
DETAIL
  6
CONTINUOUS
 62
     5
 10
-55.0
 20
55.0
 30
0.0
 40
4.25
  0
CIRCLE
  5
18E
  8
DETAIL
  6
CONTINUOUS
 62
     5
 10
-55.0
 20
-55.0
 30
0.0
 40
4.25
  0
CIRCLE
  5
18F
  8
DETAIL
  6
CONTINUOUS
 62
     5
 10
55.0
 20
-55.0
 30
0.0
 40
4.25
  0
CIRCLE
  5
190
  8
DETAIL
  6
CONTINUOUS
 62
     5
 10
-40.067839999999983
 20
-69.242820999999992
 30
0.0
 40
2.5
  0
LINE
  5
191
  8
SIZE
  6
CONTINUOUS
 62
    30
 10
90.0
 20
-20.0
 30
0.0
 11
90.0
 21
-274.98620599999992
 31
0.0
  0
LINE
  5
192
  8
SIZE
  6
CONTINUOUS
 62
    30
 10
-90.0
 20
-20.0
 30
0.0
 11
-90.0
 21
-274.98620599999992
 31
0.0
  0
LINE
  5
193
  8
SIZE
  6
CONTINUOUS
 62
    30
 10
102.0
 20
-254.98620600000001
 30
0.0
 11
114.0
 21
-254.98620600000001
 31
0.0
  0
LINE
  5
194
  8
SIZE
  6
CONTINUOUS
 62
    30
 10
-102.0
 20
-254.98620600000001
 30
0.0
 11
-114.0
 21
-254.98620600000001
 31
0.0
  0
LINE
  5
195
  8
SIZE
  6
CONTINUOUS
 62
    30
 10
90.0
 20
-254.98620600000001
 30
0.0
 11
-90.0
 21
-254.98620600000001
 31
0.0
  0
CIRCLE
  5
196
  8
SIZE
  6
CONTINUOUS
 62
    30
 10
90.0
 20
-254.98620600000001
 30
0.0
 40
6.0
  0
LINE
  5
197
  8
SIZE
  6
CONTINUOUS
 62
    30
 10
90.0
 20
-254.98620600000001
 30
0.0
 11
102.0
 21
-254.98620600000001
 31
0.0
  0
CIRCLE
  5
198
  8
SIZE
  6
CONTINUOUS
 62
    30
 10
-90.0
 20
-254.98620600000001
 30
0.0
 40
6.0
  0
LINE
  5
199
  8
SIZE
  6
CONTINUOUS
 62
    30
 10
-90.0
 20
-254.98620600000001
 30
0.0
 11
-102.0
 21
-254.98620600000001
 31
0.0
  0
TEXT
  5
19A
  8
SIZE
  6
CONTINUOUS
 62
    30
 10
-108.89142857142851
 20
-229.98620600000001
 30
0.0
 40
64.0
  1
âË180
 41
0.9
 72
     1
 11
0.0
 21
-229.98620600000001
 31
0.0
  0
LINE
  5
19B
  8
SIZE
  6
CONTINUOUS
 62
    30
 10
151.16852399999999
 20
0.0
 30
0.0
 11
311.03097000000002
 21
0.0
 31
0.0
  0
LINE
  5
19C
  8
SIZE
  6
CONTINUOUS
 62
    30
 10
20.0
 20
-108.0
 30
0.0
 11
311.03097000000002
 21
-108.0
 31
0.0
  0
LINE
  5
19D
  8
SIZE
  6
CONTINUOUS
 62
    30
 10
291.03097000000002
 20
-12.0
 30
0.0
 11
291.03097000000002
 21
-96.0
 31
0.0
  0
LINE
  5
19E
  8
SIZE
  6
CONTINUOUS
 62
    30
 10
291.03097000000002
 20
-323.34728200000001
 30
0.0
 11
291.03097000000002
 21
-108.0
 31
0.0
  0
TEXT
  5
19F
  8
SIZE
  6
CONTINUOUS
 62
    30
 10
266.03097000000002
 20
-298.34728157142848
 30
0.0
 40
64.0
  1
108
 50
90.0
 41
0.9
 72
     1
 11
266.03097000000002
 21
-229.7758529999999
 31
0.0
  0
CIRCLE
  5
1A0
  8
SIZE
  6
CONTINUOUS
 62
    30
 10
291.03097000000002
 20
0.0
 30
0.0
 40
6.0
  0
LINE
  5
1A1
  8
SIZE
  6
CONTINUOUS
 62
    30
 10
291.03097000000002
 20
0.0
 30
0.0
 11
291.03097000000002
 21
-12.0
 31
0.0
  0
CIRCLE
  5
1A2
  8
SIZE
  6
CONTINUOUS
 62
    30
 10
291.03097000000002
 20
-108.0
 30
0.0
 40
6.0
  0
LINE
  5
1A3
  8
SIZE
  6
CONTINUOUS
 62
    30
 10
291.03097000000002
 20
-108.0
 30
0.0
 11
291.03097000000002
 21
-96.0
 31
0.0
  0
ARC
  5
1A4
  8
DETAIL
  6
CONTINUOUS
 62
     5
 10
7.6016659999999989
 20
-1.656806
 30
0.0
 40
106.6145409999998
 50
179.10957899999991
 51
265.911315
  0
ARC
  5
1A5
  8
DETAIL
  6
CONTINUOUS
 62
     5
 10
-7.6016659999999989
 20
-1.656806
 30
0.0
 40
106.6145409999998
 50
274.08868499999988
 51
0.8904209999999999
  0
LINE
  5
1A6
  8
SIZE
  6
CONTINUOUS
 62
    30
 10
99.0
 20
-20.0
 30
0.0
 11
99.0
 21
-399.25831199999988
 31
0.0
  0
LINE
  5
1A7
  8
SIZE
  6
CONTINUOUS
 62
    30
 10
-99.0
 20
-20.0
 30
0.0
 11
-99.0
 21
-399.25831199999988
 31
0.0
  0
LINE
  5
1A8
  8
SIZE
  6
CONTINUOUS
 62
    30
 10
87.0
 20
-379.25831199999988
 30
0.0
 11
-87.0
 21
-379.25831199999988
 31
0.0
  0
CIRCLE
  5
1A9
  8
SIZE
  6
CONTINUOUS
 62
    30
 10
99.0
 20
-379.25831199999988
 30
0.0
 40
6.0
  0
LINE
  5
1AA
  8
SIZE
  6
CONTINUOUS
 62
    30
 10
99.0
 20
-379.25831199999988
 30
0.0
 11
87.0
 21
-379.25831199999988
 31
0.0
  0
CIRCLE
  5
1AB
  8
SIZE
  6
CONTINUOUS
 62
    30
 10
-99.0
 20
-379.25831199999988
 30
0.0
 40
6.0
  0
LINE
  5
1AC
  8
SIZE
  6
CONTINUOUS
 62
    30
 10
-99.0
 20
-379.25831199999988
 30
0.0
 11
-87.0
 21
-379.25831199999988
 31
0.0
  0
TEXT
  5
1AD
  8
SIZE
  6
CONTINUOUS
 62
    30
 10
-68.571428571428569
 20
-354.25831199999988
 30
0.0
 40
64.0
  1
198
 41
0.9
 72
     1
 11
0.0
 21
-354.25831199999988
 31
0.0
  0
CIRCLE
  5
1AE
  8
FIX
  6
CONTINUOUS
 62
    11
 39
50.0
 10
-55.0
 20
55.0
 30
0.0
 40
4.25
  0
CIRCLE
  5
1AF
  8
FIX
  6
CONTINUOUS
 62
    11
 39
50.0
 10
-69.339807999999991
 20
39.906711999999992
 30
0.0
 40
2.5
  0
CIRCLE
  5
1B0
  8
FIX
  6
CONTINUOUS
 62
    11
 39
50.0
 10
55.0
 20
55.0
 30
0.0
 40
4.25
  0
CIRCLE
  5
1B1
  8
FIX
  6
CONTINUOUS
 62
    11
 39
50.0
 10
-55.0
 20
-55.0
 30
0.0
 40
4.25
  0
CIRCLE
  5
1B2
  8
FIX
  6
CONTINUOUS
 62
    11
 39
50.0
 10
69.244927000000004
 20
-40.069012999999991
 30
0.0
 40
2.5
  0
CIRCLE
  5
1B3
  8
FIX
  6
CONTINUOUS
 62
    11
 39
50.0
 10
55.0
 20
-55.0
 30
0.0
 40
4.25
  0
CIRCLE
  5
1B4
  8
FIX
  6
CONTINUOUS
 62
    11
 39
50.0
 10
39.906711999999992
 20
69.339807999999991
 30
0.0
 40
2.5
  0
CIRCLE
  5
1B5
  8
FIX
  6
CONTINUOUS
 62
    11
 39
50.0
 10
-40.06658199999999
 20
-69.240720999999994
 30
0.0
 40
2.5
  0
LINE
  5
1B6
  8
SIZE
  6
CONTINUOUS
 62
    30
 10
79.903066000000024
 20
79.903066000000024
 30
0.0
 11
154.7883359999999
 21
154.7883359999999
 31
0.0
  0
LINE
  5
1B7
  8
SIZE
  6
CONTINUOUS
 62
    30
 10
0.0
 20
146.1054
 30
0.0
 11
0.0
 21
218.903764
 31
0.0
  0
ARC
  5
1B8
  8
SIZE
  6
CONTINUOUS
 62
    30
 10
0.0
 20
0.0
 30
0.0
 40
198.903764
 50
38.085563999999998
 51
41.542782000000003
  0
ARC
  5
1B9
  8
SIZE
  6
CONTINUOUS
 62
    30
 10
0.0
 20
0.0
 30
0.0
 40
198.903764
 50
93.457217999999969
 51
96.914435999999995
  0
ARC
  5
1BA
  8
SIZE
  6
CONTINUOUS
 62
    30
 10
0.0
 20
0.0
 30
0.0
 40
198.903764
 50
45.0
 51
90.0
  0
CIRCLE
  5
1BB
  8
SIZE
  6
CONTINUOUS
 62
    30
 10
140.64620099999999
 20
140.64620099999999
 30
0.0
 40
6.0
  0
LINE
  5
1BC
  8
SIZE
  6
CONTINUOUS
 62
    30
 10
140.64620099999999
 20
140.64620099999999
 30
0.0
 11
148.87165999999991
 21
131.90881999999991
 31
0.0
  0
CIRCLE
  5
1BD
  8
SIZE
  6
CONTINUOUS
 62
    30
 10
0.0
 20
198.903764
 30
0.0
 40
6.0
  0
LINE
  5
1BE
  8
SIZE
  6
CONTINUOUS
 62
    30
 10
0.0
 20
198.903764
 30
0.0
 11
-11.994538999999991
 21
198.54177999999999
 31
0.0
  0
TEXT
  5
1BF
  8
SIZE
  6
CONTINUOUS
 62
    30
 10
61.713671857142756
 20
208.24644599999991
 30
0.0
 40
64.0
  1
45üï
 41
0.9
 72
     1
 11
122.0565289999999
 21
208.24644599999991
 31
0.0
  0
LINE
  5
1C0
  8
SIZE
  6
CONTINUOUS
 62
    30
 10
0.0
 20
146.1054
 30
0.0
 11
0.0
 21
218.903764
 31
0.0
  0
LINE
  5
1C1
  8
SIZE
  6
CONTINUOUS
 62
    30
 10
-79.903066000000024
 20
79.903066000000024
 30
0.0
 11
-154.7883359999999
 21
154.7883359999999
 31
0.0
  0
ARC
  5
1C2
  8
SIZE
  6
CONTINUOUS
 62
    30
 10
0.0
 20
0.0
 30
0.0
 40
198.903764
 50
83.085564000000005
 51
86.54278199999996
  0
ARC
  5
1C3
  8
SIZE
  6
CONTINUOUS
 62
    30
 10
0.0
 20
0.0
 30
0.0
 40
198.903764
 50
138.4572179999999
 51
141.91443599999991
  0
ARC
  5
1C4
  8
SIZE
  6
CONTINUOUS
 62
    30
 10
0.0
 20
0.0
 30
0.0
 40
198.903764
 50
90.0
 51
135.0
  0
CIRCLE
  5
1C5
  8
SIZE
  6
CONTINUOUS
 62
    30
 10
0.0
 20
198.903764
 30
0.0
 40
6.0
  0
LINE
  5
1C6
  8
SIZE
  6
CONTINUOUS
 62
    30
 10
0.0
 20
198.903764
 30
0.0
 11
11.994538999999991
 21
198.54177999999999
 31
0.0
  0
CIRCLE
  5
1C7
  8
SIZE
  6
CONTINUOUS
 62
    30
 10
-140.64620099999999
 20
140.64620099999999
 30
0.0
 40
6.0
  0
LINE
  5
1C8
  8
SIZE
  6
CONTINUOUS
 62
    30
 10
-140.64620099999999
 20
140.64620099999999
 30
0.0
 11
-148.87165999999991
 21
131.90881999999991
 31
0.0
  0
TEXT
  5
1C9
  8
SIZE
  6
CONTINUOUS
 62
    30
 10
-113.9390091428571
 20
210.867099
 30
0.0
 40
64.0
  1
45üï
 41
0.9
 72
     1
 11
-53.596151999999996
 21
210.867099
 31
0.0
  0
LINE
  5
1CA
  8
SIZE
  6
CONTINUOUS
 62
    30
 10
56.07058399999999
 20
97.117099999999994
 30
0.0
 11
172.38789199999991
 21
298.58458799999988
 31
0.0
  0
LINE
  5
1CB
  8
SIZE
  6
CONTINUOUS
 62
    30
 10
0.0
 20
146.1054
 30
0.0
 11
0.0
 21
344.77578499999993
 31
0.0
  0
ARC
  5
1CC
  8
SIZE
  6
CONTINUOUS
 62
    30
 10
0.0
 20
0.0
 30
0.0
 40
324.77578499999993
 50
62.117117
 51
87.882882999999964
  0
CIRCLE
  5
1CD
  8
SIZE
  6
CONTINUOUS
 62
    30
 10
162.38789199999991
 20
281.26407999999998
 30
0.0
 40
6.0
  0
LINE
  5
1CE
  8
SIZE
  6
CONTINUOUS
 62
    30
 10
162.38789199999991
 20
281.26407999999998
 30
0.0
 11
151.886515
 21
287.07106599999992
 31
0.0
  0
CIRCLE
  5
1CF
  8
SIZE
  6
CONTINUOUS
 62
    30
 10
0.0
 20
324.77578499999993
 30
0.0
 40
6.0
  0
LINE
  5
1D0
  8
SIZE
  6
CONTINUOUS
 62
    30
 10
0.0
 20
324.77578499999993
 30
0.0
 11
11.997952
 21
324.55409400000002
 31
0.0
  0
TEXT
  5
1D1
  8
SIZE
  6
CONTINUOUS
 62
    30
 10
85.744698857142879
 20
356.270061
 30
0.0
 40
64.0
  1
30üï
 41
0.9
 72
     1
 11
146.08755600000001
 21
356.270061
 31
0.0
  0
LINE
  5
1D2
  8
SIZE
  6
CONTINUOUS
 62
    30
 10
0.0
 20
146.1054
 30
0.0
 11
0.0
 21
344.77578499999993
 31
0.0
  0
LINE
  5
1D3
  8
SIZE
  6
CONTINUOUS
 62
    30
 10
-97.761039999999994
 20
56.442363
 30
0.0
 11
-298.58458799999988
 21
172.38789199999991
 31
0.0
  0
ARC
  5
1D4
  8
SIZE
  6
CONTINUOUS
 62
    30
 10
0.0
 20
0.0
 30
0.0
 40
324.77578499999993
 50
85.765764999999988
 51
87.882882999999964
  0
ARC
  5
1D5
  8
SIZE
  6
CONTINUOUS
 62
    30
 10
0.0
 20
0.0
 30
0.0
 40
324.77578499999993
 50
152.11711699999981
 51
154.23423500000001
  0
ARC
  5
1D6
  8
SIZE
  6
CONTINUOUS
 62
    30
 10
0.0
 20
0.0
 30
0.0
 40
324.77578499999993
 50
90.0
 51
150.0
  0
CIRCLE
  5
1D7
  8
SIZE
  6
CONTINUOUS
 62
    30
 10
0.0
 20
324.77578499999993
 30
0.0
 40
6.0
  0
LINE
  5
1D8
  8
SIZE
  6
CONTINUOUS
 62
    30
 10
0.0
 20
324.77578499999993
 30
0.0
 11
11.997952
 21
324.55409400000002
 31
0.0
  0
CIRCLE
  5
1D9
  8
SIZE
  6
CONTINUOUS
 62
    30
 10
-281.26407999999998
 20
162.38789199999991
 30
0.0
 40
6.0
  0
LINE
  5
1DA
  8
SIZE
  6
CONTINUOUS
 62
    30
 10
-281.26407999999998
 20
162.38789199999991
 30
0.0
 11
-287.07106599999992
 21
151.886515
 31
0.0
  0
TEXT
  5
1DB
  8
SIZE
  6
CONTINUOUS
 62
    30
 10
-166.78531814285699
 20
347.426942
 30
0.0
 40
64.0
  1
60üï
 41
0.9
 72
     1
 11
-106.4424609999998
 21
347.426942
 31
0.0
  0
TEXT
  5
1DC
  8
NOTE
  6
CONTINUOUS
 62
     4
 10
-449.97993699999989
 20
30.706134999999978
 30
0.0
 40
64.0
  1
4-âË5
 41
0.9
  0
LINE
  5
1DD
  8
NOTE
  6
CONTINUOUS
 62
     4
 10
-469.21819399999998
 20
0.535859
 30
0.0
 11
-193.0233859999999
 21
0.535859
 31
0.0
  0
LINE
  5
1DE
  8
NOTE
  6
CONTINUOUS
 62
     4
 10
214.3755909999999
 20
118.14235600000001
 30
0.0
 11
572.59188700000004
 21
118.14235600000001
 31
0.0
  0
TEXT
  5
1DF
  8
NOTE
  6
CONTINUOUS
 62
     4
 10
233.6138489999999
 20
148.31263100000001
 30
0.0
 40
64.0
  1
4-âË8.5
 41
0.9
  0
LINE
  5
1E0
  8
NOTE
  6
CONTINUOUS
 62
     4
 39
50.0
 10
55.154328999999997
 20
55.154328999999997
 30
0.0
 11
214.3755909999999
 21
118.14235600000001
 31
0.0
  0
LINE
  5
1E1
  8
NOTE
  6
CONTINUOUS
 62
     4
 10
87.712546000000003
 20
78.391423000000003
 30
0.0
 11
55.154328999999997
 21
55.154328999999997
 31
0.0
  0
LINE
  5
1E2
  8
NOTE
  6
CONTINUOUS
 62
     4
 10
55.154328999999997
 20
55.154328999999997
 30
0.0
 11
94.969118999999964
 21
58.999133999999991
 31
0.0
  0
LINE
  5
1E3
  8
NOTE
  6
CONTINUOUS
 62
     4
 10
-69.281999999999996
 20
39.999980999999998
 30
0.0
 11
-193.0233859999999
 21
0.535859
 31
0.0
  0
LINE
  5
1E4
  8
NOTE
  6
CONTINUOUS
 62
     4
 10
-103.03888499999999
 20
18.541353000000001
 30
0.0
 11
-69.281999999999996
 21
39.999980999999998
 31
0.0
  0
LINE
  5
1E5
  8
NOTE
  6
CONTINUOUS
 62
     4
 10
-69.281999999999996
 20
39.999980999999998
 30
0.0
 11
-109.245634
 21
38.294707000000002
 31
0.0
  0
CIRCLE
  5
1E6
  8
OUTLINE
  6
CONTINUOUS
 62
     3
 10
0.0
 20
0.0
 30
0.0
 40
90.0
  0
LINE
  5
1E7
  8
OUTLINE
  6
CONTINUOUS
 62
     3
 10
-99.0
 20
0.0
 30
0.0
 11
-90.0
 21
0.0
 31
0.0
  0
LINE
  5
1E8
  8
OUTLINE
  6
CONTINUOUS
 62
     3
 10
99.0
 20
0.0
 30
0.0
 11
90.0
 21
0.0
 31
0.0
  0
ARC
  5
1E9
  8
OUTLINE
  6
CONTINUOUS
 62
     3
 10
-7.6016659999999989
 20
-1.656806
 30
0.0
 40
106.6145409999998
 50
274.08868499999988
 51
0.8904209999999999
  0
ARC
  5
1EA
  8
OUTLINE
  6
CONTINUOUS
 62
     3
 10
7.6016659999999989
 20
-1.656806
 30
0.0
 40
106.6145409999998
 50
179.10957899999991
 51
265.911315
  0
LINE
  5
1EB
  8
SIZE
  6
CONTINUOUS
 62
    30
 10
-315.62807099999992
 20
-247.23942199999991
 30
0.0
 11
-70.850804000000025
 21
-55.499220999999991
 31
0.0
  0
LINE
  5
1EC
  8
SIZE
  6
CONTINUOUS
 62
    30
 10
70.850804000000025
 20
55.499220999999991
 30
0.0
 11
80.297578000000001
 21
62.899117000000011
 31
0.0
  0
TEXT
  5
1ED
  8
SIZE
  6
CONTINUOUS
 62
    30
 10
-322.59189881744049
 20
-220.9375032140253
 30
0.0
 40
64.0
  1
âË156
 50
38.072497999999989
 41
0.9
 72
     1
 11
-237.94881000000001
 21
-154.63442699999979
 31
0.0
  0
LINE
  5
1EE
  8
SIZE
  6
CONTINUOUS
 62
    30
 10
61.404031000000003
 20
48.099325
 30
0.0
 11
-61.404031000000003
 21
-48.099325
 31
0.0
  0
CIRCLE
  5
1EF
  8
SIZE
  6
CONTINUOUS
 62
    30
 10
61.404031000000003
 20
48.099325
 30
0.0
 40
6.0
  0
LINE
  5
1F0
  8
SIZE
  6
CONTINUOUS
 62
    30
 10
61.404031000000003
 20
48.099325
 30
0.0
 11
70.850805000000022
 21
55.499220999999991
 31
0.0
  0
CIRCLE
  5
1F1
  8
SIZE
  6
CONTINUOUS
 62
    30
 10
-61.404031000000003
 20
-48.099325
 30
0.0
 40
6.0
  0
LINE
  5
1F2
  8
SIZE
  6
CONTINUOUS
 62
    30
 10
-61.404031000000003
 20
-48.099325
 30
0.0
 11
-70.850805000000022
 21
-55.499220999999991
 31
0.0
  0
LINE
  5
1F3
  8
SIZE
  6
CONTINUOUS
 62
    30
 10
-201.05138899999989
 20
-496.95686799999999
 30
0.0
 11
-34.503309000000002
 21
-85.284943999999967
 31
0.0
  0
LINE
  5
1F4
  8
SIZE
  6
CONTINUOUS
 62
    30
 10
34.503309000000002
 20
85.284943999999967
 30
0.0
 11
39.003740999999998
 21
96.409067000000022
 31
0.0
  0
TEXT
  5
1F5
  8
SIZE
  6
CONTINUOUS
 62
    30
 10
-220.19984483706131
 20
-477.62752548123672
 30
0.0
 40
64.0
  1
âË160
 50
67.973456999999996
 41
0.9
 72
     1
 11
-179.36162999999999
 21
-376.68405899999999
 31
0.0
  0
LINE
  5
1F6
  8
SIZE
  6
CONTINUOUS
 62
    30
 10
30.002877999999999
 20
74.160820999999999
 30
0.0
 11
-30.002877999999999
 21
-74.160820999999999
 31
0.0
  0
CIRCLE
  5
1F7
  8
SIZE
  6
CONTINUOUS
 62
    30
 10
30.002877999999999
 20
74.160820999999999
 30
0.0
 40
6.0
  0
LINE
  5
1F8
  8
SIZE
  6
CONTINUOUS
 62
    30
 10
30.002877999999999
 20
74.160820999999999
 30
0.0
 11
34.503309999999999
 21
85.284943999999967
 31
0.0
  0
CIRCLE
  5
1F9
  8
SIZE
  6
CONTINUOUS
 62
    30
 10
-30.002877999999999
 20
-74.160820999999999
 30
0.0
 40
6.0
  0
LINE
  5
1FA
  8
SIZE
  6
CONTINUOUS
 62
    30
 10
-30.002877999999999
 20
-74.160820999999999
 30
0.0
 11
-34.503309999999999
 21
-85.284943999999967
 31
0.0
  0
TEXT
  5
1FB
  8
ETC
  6
CONTINUOUS
 62
    61
 10
449.42684129015538
 20
395.00235436360163
 30
0.0
 40
50.0
  1
P-100CVP3_3
 41
0.9
  0
TEXT
  5
1FC
  8
ETC
  6
CONTINUOUS
 62
    61
 10
435.8833412901555
 20
306.5329109560551
 30
0.0
 40
50.0
  1
âVâXâeâÇòöìÌ
 41
0.9
  0
TEXT
  5
1FD
  8
ETC
  6
CONTINUOUS
 62
    61
 10
608.61128829884183
 20
241.95940246304909
 30
0.0
 40
50.0
  1
P-100CVP3
 41
0.9
  0
ENDSEC
  0
EOF
