  0
SECTION
  2
HEADER
  9
$ACADVER
  1
AC1009
  9
$INSBASE
 10
0.0
 20
0.0
 30
0.0
  9
$EXTMIN
 10
-371.19995399999988
 20
-415.47216100000003
 30
0.0
  9
$EXTMAX
 10
935.44291677648675
 20
524.75461700000005
 30
50.0
  9
$LIMMIN
 10
-2970.0
 20
-2100.0
  9
$LIMMAX
 10
2970.0
 20
2100.0
  9
$ORTHOMODE
 70
     1
  9
$REGENMODE
 70
     0
  9
$FILLMODE
 70
     1
  9
$QTEXTMODE
 70
     0
  9
$MIRRTEXT
 70
     0
  9
$DRAGMODE
 70
     2
  9
$LTSCALE
 40
20.0
  9
$OSMODE
 70
   167
  9
$ATTMODE
 70
     1
  9
$TEXTSIZE
 40
64.0
  9
$TRACEWID
 40
0.05
  9
$TEXTSTYLE
  7
STANDARD
  9
$CLAYER
  8
SIZE
  9
$CELTYPE
  6
CONTINUOUS
  9
$CECOLOR
 62
    30
  9
$DIMSCALE
 40
1.0
  9
$DIMASZ
 40
12.0
  9
$DIMEXO
 40
20.0
  9
$DIMDLI
 40
200.0
  9
$DIMRND
 40
0.0
  9
$DIMDLE
 40
0.0
  9
$DIMEXE
 40
20.0
  9
$DIMTP
 40
0.0
  9
$DIMTM
 40
0.0
  9
$DIMTXT
 40
64.0
  9
$DIMCEN
 40
0.09
  9
$DIMTSZ
 40
0.0
  9
$DIMTOL
 70
     0
  9
$DIMLIM
 70
     0
  9
$DIMTIH
 70
     0
  9
$DIMTOH
 70
     0
  9
$DIMSE1
 70
     0
  9
$DIMSE2
 70
     0
  9
$DIMTAD
 70
     1
  9
$DIMZIN
 70
     8
  9
$DIMBLK
  1
DOT1
  9
$DIMASO
 70
     1
  9
$DIMSHO
 70
     0
  9
$DIMPOST
  1

  9
$DIMAPOST
  1

  9
$DIMALT
 70
     0
  9
$DIMALTD
 70
     2
  9
$DIMALTF
 40
25.399999999999999
  9
$DIMLFAC
 40
1.0
  9
$DIMTOFL
 70
     1
  9
$DIMTVP
 40
0.0
  9
$DIMTIX
 70
     1
  9
$DIMSOXD
 70
     0
  9
$DIMSAH
 70
     1
  9
$DIMBLK1
  1
ORIGIN
  9
$DIMBLK2
  1
ORIGIN
  9
$DIMSTYLE
  2
STANDARD
  9
$DIMCLRD
 70
     7
  9
$DIMCLRE
 70
     7
  9
$DIMCLRT
 70
     7
  9
$DIMTFAC
 40
1.0
  9
$DIMGAP
 40
25.0
  9
$LUNITS
 70
     2
  9
$LUPREC
 70
     4
  9
$SKETCHINC
 40
0.1
  9
$FILLETRAD
 40
3.0
  9
$AUNITS
 70
     1
  9
$AUPREC
 70
     3
  9
$MENU
  1
ACAD
  9
$ELEVATION
 40
0.0
  9
$PELEVATION
 40
0.0
  9
$THICKNESS
 40
50.0
  9
$LIMCHECK
 70
     0
  9
$BLIPMODE
 70
     0
  9
$CHAMFERA
 40
0.0
  9
$CHAMFERB
 40
0.0
  9
$SKPOLY
 70
     0
  9
$TDCREATE
 40
2453019.6230103699
  9
$TDUPDATE
 40
2454576.6430873838
  9
$TDINDWG
 40
0.1607288079
  9
$TDUSRTIMER
 40
0.160726088
  9
$USRTIMER
 70
     1
  9
$ANGBASE
 50
0.0
  9
$ANGDIR
 70
     0
  9
$PDMODE
 70
     3
  9
$PDSIZE
 40
-2.0
  9
$PLINEWID
 40
0.0
  9
$COORDS
 70
     2
  9
$SPLFRAME
 70
     0
  9
$SPLINETYPE
 70
     6
  9
$SPLINESEGS
 70
     8
  9
$ATTDIA
 70
     0
  9
$ATTREQ
 70
     1
  9
$HANDLING
 70
 22529
  9
$HANDSEED
  5
353
  9
$SURFTAB1
 70
     6
  9
$SURFTAB2
 70
     6
  9
$SURFTYPE
 70
     6
  9
$SURFU
 70
     6
  9
$SURFV
 70
     6
  9
$UCSNAME
  2

  9
$UCSORG
 10
0.0
 20
0.0
 30
0.0
  9
$UCSXDIR
 10
1.0
 20
0.0
 30
0.0
  9
$UCSYDIR
 10
0.0
 20
1.0
 30
0.0
  9
$PUCSNAME
  2

  9
$PUCSORG
 10
0.0
 20
0.0
 30
0.0
  9
$PUCSXDIR
 10
1.0
 20
0.0
 30
0.0
  9
$PUCSYDIR
 10
0.0
 20
1.0
 30
0.0
  9
$USERI1
 70
     0
  9
$USERI2
 70
     0
  9
$USERI3
 70
     0
  9
$USERI4
 70
     0
  9
$USERI5
 70
     0
  9
$USERR1
 40
20.0
  9
$USERR2
 40
0.0
  9
$USERR3
 40
0.0
  9
$USERR4
 40
0.0
  9
$USERR5
 40
0.0
  9
$WORLDVIEW
 70
     1
  9
$SHADEDGE
 70
     3
  9
$SHADEDIF
 70
    70
  9
$TILEMODE
 70
     1
  9
$MAXACTVP
 70
    48
  9
$PLIMCHECK
 70
     0
  9
$PEXTMIN
 10
-1.0000000000000000E+020
 20
-1.0000000000000000E+020
 30
-1.0000000000000000E+020
  9
$PEXTMAX
 10
1.0000000000000000E+020
 20
1.0000000000000000E+020
 30
1.0000000000000000E+020
  9
$PLIMMIN
 10
0.0
 20
0.0
  9
$PLIMMAX
 10
12.0
 20
9.0
  9
$UNITMODE
 70
     0
  9
$VISRETAIN
 70
     0
  9
$PLINEGEN
 70
     0
  9
$PSLTSCALE
 70
     0
  0
ENDSEC
  0
SECTION
  2
TABLES
  0
TABLE
  2
VPORT
 70
     3
  0
VPORT
  2
*ACTIVE
 70
     0
 10
0.0
 20
0.0
 11
1.0
 21
1.0
 12
270.97255801542588
 22
55.499335929161468
 13
0.0
 23
0.0
 14
1.0
 24
1.0
 15
0.0
 25
0.0
 16
0.0
 26
0.0
 36
1.0
 17
0.0
 27
0.0
 37
0.0
 40
1019.872735408064
 41
1.670382165605095
 42
50.0
 43
0.0
 44
0.0
 50
0.0
 51
0.0
 71
     0
 72
  1000
 73
     1
 74
     0
 75
     0
 76
     0
 77
     0
 78
     0
  0
ENDTAB
  0
TABLE
  2
LTYPE
 70
     2
  0
LTYPE
  2
CONTINUOUS
 70
     0
  3
実線
 72
    65
 73
     0
 40
0.0
  0
LTYPE
  2
DASHDOT
 70
     0
  3
____ _ ____ _ ____ _ ____ _ ____ _ ____ _ ____
 72
    65
 73
     4
 40
5.5
 49
4.0
 49
-0.6
 49
0.3
 49
-0.6
  0
ENDTAB
  0
TABLE
  2
LAYER
 70
    12
  0
LAYER
  2
0
 70
     0
 62
     7
  6
CONTINUOUS
  0
LAYER
  2
SIZE
 70
     0
 62
    30
  6
CONTINUOUS
  0
LAYER
  2
BASIS
 70
     0
 62
     6
  6
DASHDOT
  0
LAYER
  2
OUTLINE
 70
     0
 62
     3
  6
CONTINUOUS
  0
LAYER
  2
DETAIL
 70
     0
 62
     5
  6
CONTINUOUS
  0
LAYER
  2
ARRANGE
 70
     0
 62
     1
  6
CONTINUOUS
  0
LAYER
  2
DEFPOINTS
 70
     0
 62
     7
  6
CONTINUOUS
  0
LAYER
  2
ETC
 70
     0
 62
    61
  6
CONTINUOUS
  0
LAYER
  2
FIX
 70
     0
 62
    11
  6
CONTINUOUS
  0
LAYER
  2
NOTE
 70
     0
 62
     4
  6
CONTINUOUS
  0
LAYER
  2
SERVICESPACE
 70
     0
 62
     2
  6
DASHDOT
  0
LAYER
  2
SYMBOLLINE
 70
     0
 62
    15
  6
CONTINUOUS
  0
ENDTAB
  0
TABLE
  2
STYLE
 70
     1
  0
STYLE
  2
STANDARD
 70
     0
 40
64.0
 41
0.9
 50
0.0
 71
     0
 42
64.0
  3
SIMPLEX.shx
  4
BIGFONT.shx
  0
ENDTAB
  0
TABLE
  2
VIEW
 70
     1
  0
VIEW
  2
ALL
 70
     0
 40
4282.6198079999976
 10
0.0
 20
41.309903999999989
 41
5940.0
 11
0.0
 21
0.0
 31
1.0
 12
0.0
 22
0.0
 32
0.0
 42
50.0
 43
0.0
 44
0.0
 50
0.0
 71
     0
  0
ENDTAB
  0
TABLE
  2
UCS
 70
     0
  0
ENDTAB
  0
TABLE
  2
APPID
 70
     2
  0
APPID
  2
ACAD
 70
     0
  0
APPID
  2
AUTOCAD_POSTSCRIPT_FIGURE
 70
     0
  0
ENDTAB
  0
TABLE
  2
DIMSTYLE
 70
     1
  0
DIMSTYLE
  2
STANDARD
 70
     0
  3

  4

  5

  6

  7

 40
1.0
 41
0.18
 42
0.0625
 43
0.38
 44
0.18
 45
0.0
 46
0.0
 47
0.0
 48
0.0
140
0.18
141
0.09
142
0.0
143
25.399999999999999
144
1.0
145
0.0
146
1.0
147
0.09
 71
     0
 72
     0
 73
     1
 74
     1
 75
     0
 76
     0
 77
     0
 78
     0
170
     0
171
     2
172
     0
173
     0
174
     0
175
     0
176
     7
177
     7
178
     7
  0
ENDTAB
  0
ENDSEC
  0
SECTION
  2
BLOCKS
  0
BLOCK
  8
0
  2
$MODEL_SPACE
 70
     0
 10
0.0
 20
0.0
 30
0.0
  3
$MODEL_SPACE
  1

  0
ENDBLK
  5
1DC
  8
0
  0
BLOCK
 67
     1
  8
0
  2
$PAPER_SPACE
 70
     0
 10
0.0
 20
0.0
 30
0.0
  3
$PAPER_SPACE
  1

  0
ENDBLK
  5
1D8
 67
     1
  8
0
  0
BLOCK
  8
0
  2
DOT1
 70
     0
 10
0.0
 20
0.0
 30
0.0
  3
DOT1
  1

  0
CIRCLE
  5
1F8
  8
SIZE
  6
CONTINUOUS
 62
     7
 10
0.0
 20
0.0
 30
0.0
 40
3.0
  0
ENDBLK
  5
1F9
  8
0
  0
BLOCK
  8
0
  2
_ORIGIN
 70
     0
 10
0.0
 20
0.0
 30
0.0
  3
_ORIGIN
  1

  0
CIRCLE
  5
1FC
  8
0
  6
CONTINUOUS
 62
     7
 10
0.0
 20
0.0
 30
0.0
 40
0.5
  0
LINE
  5
1FD
  8
0
  6
CONTINUOUS
 62
     7
 10
0.0
 20
0.0
 30
0.0
 11
-1.0
 21
0.0
 31
0.0
  0
ENDBLK
  5
1FE
  8
0
  0
ENDSEC
  0
SECTION
  2
ENTITIES
  0
POINT
  5
1FF
  8
ARRANGE
  6
CONTINUOUS
 62
     1
 10
0.0
 20
0.0
 30
0.0
  0
CIRCLE
  5
200
  8
ARRANGE
  6
CONTINUOUS
 62
     1
 10
0.0
 20
0.0
 30
0.0
 40
40.0
  0
LINE
  5
201
  8
NOTE
  6
CONTINUOUS
 62
     4
 10
13.5
 20
0.0
 30
0.0
 11
53.5
 21
0.0
 31
0.0
  0
LINE
  5
202
  8
NOTE
  6
CONTINUOUS
 62
     4
 10
33.5
 20
20.0
 30
0.0
 11
33.5
 21
-20.0
 31
0.0
  0
CIRCLE
  5
203
  8
FIX
  6
CONTINUOUS
 62
    11
 39
50.0
 10
33.5
 20
0.0
 30
0.0
 40
2.5
  0
CIRCLE
  5
204
  8
FIX
  6
CONTINUOUS
 62
    11
 39
50.0
 10
-72.5
 20
0.0
 30
0.0
 40
2.5
  0
LINE
  5
205
  8
NOTE
  6
CONTINUOUS
 62
     4
 10
-92.5
 20
0.0
 30
0.0
 11
-52.5
 21
0.0
 31
0.0
  0
LINE
  5
206
  8
NOTE
  6
CONTINUOUS
 62
     4
 10
-72.5
 20
20.0
 30
0.0
 11
-72.5
 21
-20.0
 31
0.0
  0
CIRCLE
  5
207
  8
FIX
  6
CONTINUOUS
 62
    11
 39
50.0
 10
-33.5
 20
0.0
 30
0.0
 40
2.5
  0
LINE
  5
208
  8
NOTE
  6
CONTINUOUS
 62
     4
 10
-53.5
 20
0.0
 30
0.0
 11
-13.5
 21
0.0
 31
0.0
  0
LINE
  5
209
  8
NOTE
  6
CONTINUOUS
 62
     4
 10
-33.5
 20
20.0
 30
0.0
 11
-33.5
 21
-20.0
 31
0.0
  0
CIRCLE
  5
20A
  8
FIX
  6
CONTINUOUS
 62
    11
 39
50.0
 10
72.5
 20
0.0
 30
0.0
 40
2.5
  0
LINE
  5
20B
  8
NOTE
  6
CONTINUOUS
 62
     4
 10
52.5
 20
0.0
 30
0.0
 11
92.5
 21
0.0
 31
0.0
  0
LINE
  5
20C
  8
NOTE
  6
CONTINUOUS
 62
     4
 10
72.5
 20
20.0
 30
0.0
 11
72.5
 21
-20.0
 31
0.0
  0
LINE
  5
20D
  8
NOTE
  6
CONTINUOUS
 62
     4
 10
35.0
 20
0.0
 30
0.0
 11
75.0
 21
0.0
 31
0.0
  0
LINE
  5
20E
  8
NOTE
  6
CONTINUOUS
 62
     4
 10
55.0
 20
20.0
 30
0.0
 11
55.0
 21
-20.0
 31
0.0
  0
CIRCLE
  5
20F
  8
FIX
  6
CONTINUOUS
 62
    11
 39
50.0
 10
55.0
 20
0.0
 30
0.0
 40
6.0
  0
CIRCLE
  5
210
  8
FIX
  6
CONTINUOUS
 62
    11
 39
50.0
 10
-55.0
 20
0.0
 30
0.0
 40
6.0
  0
LINE
  5
211
  8
NOTE
  6
CONTINUOUS
 62
     4
 10
-35.0
 20
0.0
 30
0.0
 11
-75.0
 21
0.0
 31
0.0
  0
LINE
  5
212
  8
NOTE
  6
CONTINUOUS
 62
     4
 10
-55.0
 20
20.0
 30
0.0
 11
-55.0
 21
-20.0
 31
0.0
  0
TEXT
  5
213
  8
NOTE
  6
CONTINUOUS
 62
     4
 10
188.54459800000001
 20
82.680083999999965
 30
0.0
 40
64.0
  1
4-φ5
 41
0.9
  0
TEXT
  5
214
  8
NOTE
  6
CONTINUOUS
 62
     4
 10
189.99411599999999
 20
196.22925000000001
 30
0.0
 40
64.0
  1
4-φ12
 41
0.9
  0
LINE
  5
215
  8
NOTE
  6
CONTINUOUS
 62
     4
 39
50.0
 10
55.0
 20
0.0
 30
0.0
 11
174.00922899999981
 21
168.6428019999999
 31
0.0
  0
LINE
  5
216
  8
NOTE
  6
CONTINUOUS
 62
     4
 39
50.0
 10
474.06403699999998
 20
168.6428019999999
 30
0.0
 11
174.00922899999981
 21
168.6428019999999
 31
0.0
  0
LINE
  5
217
  8
NOTE
  6
CONTINUOUS
 62
     4
 39
50.0
 10
430.08544699999987
 20
59.728611000000001
 30
0.0
 11
183.80328299999991
 21
59.728611000000001
 31
0.0
  0
LINE
  5
218
  8
NOTE
  6
CONTINUOUS
 62
     4
 10
68.154803999999999
 20
37.775007000000002
 30
0.0
 11
55.0
 21
0.0
 31
0.0
  0
LINE
  5
219
  8
NOTE
  6
CONTINUOUS
 62
     4
 10
55.0
 20
0.0
 30
0.0
 11
85.279898000000003
 21
26.136713
 31
0.0
  0
LINE
  5
21A
  8
DETAIL
  6
CONTINUOUS
 62
     5
 10
85.499982000000003
 20
0.000012
 30
0.0
 11
85.499982000000003
 21
3.000011999999999
 31
0.0
  0
LINE
  5
21B
  8
DETAIL
  6
CONTINUOUS
 62
     5
 10
85.499982000000003
 20
3.000011999999999
 30
0.0
 11
-85.499982000000003
 21
2.9999880000000001
 31
0.0
  0
LINE
  5
21C
  8
DETAIL
  6
CONTINUOUS
 62
     5
 10
86.5
 20
-8.0
 30
0.0
 11
86.5
 21
0.0
 31
0.0
  0
LINE
  5
21D
  8
BASIS
  6
DASHDOT
 62
     6
 10
0.0
 20
-133.72682800000001
 30
0.0
 11
0.0
 21
28.829015999999989
 31
0.0
  0
ARC
  5
21E
  8
DETAIL
  6
CONTINUOUS
 62
     5
 10
-0.000008
 20
58.0
 30
0.0
 40
165.0
 50
241.6688969999999
 51
297.88983100000002
  0
LINE
  5
21F
  8
DETAIL
  6
CONTINUOUS
 62
     5
 10
87.5
 20
-8.0
 30
0.0
 11
-87.5
 21
-8.0
 31
0.0
  0
LINE
  5
220
  8
DETAIL
  6
CONTINUOUS
 62
     5
 10
87.5
 20
-8.0
 30
0.0
 11
85.156797999999995
 21
-75.100790000000003
 31
0.0
  0
ARC
  5
221
  8
DETAIL
  6
CONTINUOUS
 62
     5
 10
70.165936000000002
 20
-74.577298999999982
 30
0.0
 40
15.0
 50
297.88983100000002
 51
358.00000799999998
  0
ARC
  5
222
  8
DETAIL
  6
CONTINUOUS
 62
     5
 10
-70.165936000000002
 20
-74.577298999999982
 30
0.0
 40
15.0
 50
181.99999199999999
 51
242.1101689999999
  0
LINE
  5
223
  8
DETAIL
  6
CONTINUOUS
 62
     5
 10
-87.5
 20
-8.0
 30
0.0
 11
-85.156797999999995
 21
-75.100790000000003
 31
0.0
  0
LINE
  5
224
  8
SIZE
  6
CONTINUOUS
 62
    30
 10
-110.0
 20
0.0
 30
0.0
 11
-302.19995399999988
 21
0.0
 31
0.0
  0
LINE
  5
225
  8
SIZE
  6
CONTINUOUS
 62
    30
 10
-20.0
 20
-107.0
 30
0.0
 11
-302.19995399999988
 21
-107.0
 31
0.0
  0
LINE
  5
226
  8
SIZE
  6
CONTINUOUS
 62
    30
 10
-282.19995399999982
 20
-12.0
 30
0.0
 11
-282.19995399999982
 21
-95.0
 31
0.0
  0
LINE
  5
227
  8
SIZE
  6
CONTINUOUS
 62
    30
 10
-282.19995399999982
 20
-315.85443199999992
 30
0.0
 11
-282.19995399999982
 21
-107.0
 31
0.0
  0
TEXT
  5
228
  8
SIZE
  6
CONTINUOUS
 62
    30
 10
-307.19995399999999
 20
-290.8544325714285
 30
0.0
 40
64.0
  1
107
 50
90.0
 41
0.9
 72
     1
 11
-307.19995399999999
 21
-222.28300400000001
 31
0.0
  0
CIRCLE
  5
229
  8
SIZE
  6
CONTINUOUS
 62
    30
 10
-282.19995399999982
 20
0.0
 30
0.0
 40
6.0
  0
LINE
  5
22A
  8
SIZE
  6
CONTINUOUS
 62
    30
 10
-282.19995399999982
 20
0.0
 30
0.0
 11
-282.19995399999982
 21
-12.0
 31
0.0
  0
CIRCLE
  5
22B
  8
SIZE
  6
CONTINUOUS
 62
    30
 10
-282.19995399999982
 20
-107.0
 30
0.0
 40
6.0
  0
LINE
  5
22C
  8
SIZE
  6
CONTINUOUS
 62
    30
 10
-282.19995399999982
 20
-107.0
 30
0.0
 11
-282.19995399999982
 21
-95.0
 31
0.0
  0
LINE
  5
22D
  8
DETAIL
  6
CONTINUOUS
 62
     5
 39
50.0
 10
86.5
 20
0.0
 30
0.0
 11
-86.5
 21
0.0
 31
0.0
  0
ARC
  5
22E
  8
DETAIL
  6
CONTINUOUS
 62
     5
 10
54.45896900000001
 20
-20.047893999999989
 30
0.0
 40
2.0478800000000001
 50
0.0
 51
180.0
  0
ARC
  5
22F
  8
DETAIL
  6
CONTINUOUS
 62
     5
 10
54.458959999999998
 20
-55.952133999999987
 30
0.0
 40
2.0478800000000001
 50
180.0
 51
0.0
  0
LINE
  5
230
  8
DETAIL
  6
CONTINUOUS
 62
     5
 10
56.506841000000001
 20
-55.952134999999991
 30
0.0
 11
56.506850999999997
 21
-20.047895
 31
0.0
  0
ARC
  5
231
  8
DETAIL
  6
CONTINUOUS
 62
     5
 10
60.512512000000001
 20
-19.915126999999991
 30
0.0
 40
1.915110999999998
 50
0.0
 51
180.0
  0
ARC
  5
232
  8
DETAIL
  6
CONTINUOUS
 62
     5
 10
60.512503000000002
 20
-56.084905000000013
 30
0.0
 40
1.915110999999998
 50
180.0
 51
0.0
  0
LINE
  5
233
  8
DETAIL
  6
CONTINUOUS
 62
     5
 10
62.427613999999998
 20
-56.084905000000013
 30
0.0
 11
62.427624000000002
 21
-19.915127999999982
 31
0.0
  0
LINE
  5
234
  8
DETAIL
  6
CONTINUOUS
 62
     5
 10
58.597391999999992
 20
-56.084904000000002
 30
0.0
 11
58.597402000000002
 21
-19.915126000000001
 31
0.0
  0
ARC
  5
235
  8
DETAIL
  6
CONTINUOUS
 62
     5
 10
66.138176000000001
 20
-19.767783999999981
 30
0.0
 40
1.767766999999999
 50
0.0
 51
180.0
  0
ARC
  5
236
  8
DETAIL
  6
CONTINUOUS
 62
     5
 10
66.138166999999996
 20
-56.232250999999991
 30
0.0
 40
1.767766999999999
 50
180.0
 51
0.0
  0
LINE
  5
237
  8
DETAIL
  6
CONTINUOUS
 62
     5
 10
67.905934000000002
 20
-56.232250999999991
 30
0.0
 11
67.905944999999988
 21
-19.767784999999989
 31
0.0
  0
LINE
  5
238
  8
DETAIL
  6
CONTINUOUS
 62
     5
 10
64.370400000000004
 20
-56.232250000000001
 30
0.0
 11
64.370411000000004
 21
-19.767783999999981
 31
0.0
  0
ARC
  5
239
  8
DETAIL
  6
CONTINUOUS
 62
     5
 10
71.293148000000002
 20
-19.606988000000001
 30
0.0
 40
1.6069690000000001
 50
120.11953799999991
 51
180.0
  0
ARC
  5
23A
  8
DETAIL
  6
CONTINUOUS
 62
     5
 10
71.293138999999996
 20
-56.393050000000002
 30
0.0
 40
1.6069690000000001
 50
180.0
 51
0.0
  0
LINE
  5
23B
  8
DETAIL
  6
CONTINUOUS
 62
     5
 10
72.900108000000003
 20
-56.393050000000002
 30
0.0
 11
72.900118000000006
 21
-19.606988000000001
 31
0.0
  0
LINE
  5
23C
  8
DETAIL
  6
CONTINUOUS
 62
     5
 10
69.68616999999999
 20
-56.393048999999991
 30
0.0
 11
69.686180000000007
 21
-19.606988000000001
 31
0.0
  0
ARC
  5
23D
  8
DETAIL
  6
CONTINUOUS
 62
     5
 10
75.938194999999979
 20
-19.433961
 30
0.0
 40
1.433940999999999
 50
0.0
 51
180.0
  0
ARC
  5
23E
  8
DETAIL
  6
CONTINUOUS
 62
     5
 10
75.938185000000004
 20
-56.566079000000002
 30
0.0
 40
1.433940999999999
 50
180.0
 51
0.0
  0
LINE
  5
23F
  8
DETAIL
  6
CONTINUOUS
 62
     5
 10
77.372127000000006
 20
-56.566080000000007
 30
0.0
 11
77.372136999999981
 21
-20.467061999999999
 31
0.0
  0
LINE
  5
240
  8
DETAIL
  6
CONTINUOUS
 62
     5
 10
74.504244
 20
-56.566079000000002
 30
0.0
 11
74.504255000000001
 21
-19.496292
 31
0.0
  0
ARC
  5
241
  8
DETAIL
  6
CONTINUOUS
 62
     5
 10
80.037964000000002
 20
-19.250021
 30
0.0
 40
1.25
 50
0.0
 51
180.0
  0
ARC
  5
242
  8
DETAIL
  6
CONTINUOUS
 62
     5
 10
80.037954999999982
 20
-56.750020999999997
 30
0.0
 40
1.25
 50
180.0
 51
0.0
  0
LINE
  5
243
  8
DETAIL
  6
CONTINUOUS
 62
     5
 10
81.287954999999982
 20
-56.75002199999998
 30
0.0
 11
81.287964999999986
 21
-21.871476000000001
 31
0.0
  0
LINE
  5
244
  8
DETAIL
  6
CONTINUOUS
 62
     5
 10
78.787955000000025
 20
-56.750020999999997
 30
0.0
 11
78.787964999999986
 21
-20.964249999999989
 31
0.0
  0
ARC
  5
245
  8
DETAIL
  6
CONTINUOUS
 62
     5
 10
83.561256
 20
-19.056567999999999
 30
0.0
 40
1.0565459999999991
 50
0.0
 51
180.0
  0
ARC
  5
246
  8
DETAIL
  6
CONTINUOUS
 62
     5
 10
83.561245999999997
 20
-56.943477000000001
 30
0.0
 40
1.0565459999999991
 50
180.0
 51
0.0
  0
LINE
  5
247
  8
DETAIL
  6
CONTINUOUS
 62
     5
 10
84.61779199999998
 20
-56.943477000000001
 30
0.0
 11
84.617801
 21
-23.138798999999992
 31
0.0
  0
LINE
  5
248
  8
DETAIL
  6
CONTINUOUS
 62
     5
 10
82.504700999999983
 20
-56.943475999999997
 30
0.0
 11
82.504710000000003
 21
-22.326698
 31
0.0
  0
LINE
  5
249
  8
DETAIL
  6
CONTINUOUS
 62
     5
 10
84.617801
 20
-23.138798999999992
 30
0.0
 11
84.617802999999995
 21
-19.056567999999999
 31
0.0
  0
LINE
  5
24A
  8
DETAIL
  6
CONTINUOUS
 62
     5
 10
82.504710000000003
 20
-22.326698
 30
0.0
 11
82.504711
 21
-19.056567999999999
 31
0.0
  0
LINE
  5
24B
  8
DETAIL
  6
CONTINUOUS
 62
     5
 10
81.287964999999986
 20
-21.871476000000001
 30
0.0
 11
81.287965999999983
 21
-19.250022000000001
 31
0.0
  0
LINE
  5
24C
  8
DETAIL
  6
CONTINUOUS
 62
     5
 10
78.787964999999986
 20
-20.964249999999989
 30
0.0
 11
78.787965999999983
 21
-19.250021
 31
0.0
  0
LINE
  5
24D
  8
DETAIL
  6
CONTINUOUS
 62
     5
 10
77.372136999999981
 20
-20.467061999999999
 30
0.0
 11
77.372136999999981
 21
-19.433962000000001
 31
0.0
  0
LINE
  5
24E
  8
DETAIL
  6
CONTINUOUS
 62
     5
 10
74.504255000000001
 20
-19.496292
 30
0.0
 11
74.504255000000001
 21
-19.433961
 31
0.0
  0
ARC
  5
24F
  8
DETAIL
  6
CONTINUOUS
 62
     5
 10
71.293148000000002
 20
-19.606988000000001
 30
0.0
 40
1.6069690000000001
 50
0.0
 51
25.082982000000001
  0
ARC
  5
250
  8
DETAIL
  6
CONTINUOUS
 62
     5
 10
71.293148000000002
 20
-19.606988000000001
 30
0.0
 40
1.6069690000000001
 50
25.082982000000001
 51
120.11953799999991
  0
ARC
  5
251
  8
DETAIL
  6
CONTINUOUS
 62
     5
 10
41.255431999999999
 20
-55.734240999999997
 30
0.0
 40
2.2657689999999979
 50
180.0
 51
0.0
  0
ARC
  5
252
  8
DETAIL
  6
CONTINUOUS
 62
     5
 10
34.205940999999981
 20
-20.349239999999991
 30
0.0
 40
2.349231999999998
 50
0.0
 51
180.0
  0
ARC
  5
253
  8
DETAIL
  6
CONTINUOUS
 62
     5
 10
34.20593199999999
 20
-55.650776999999991
 30
0.0
 40
2.349231999999998
 50
180.0
 51
0.0
  0
LINE
  5
254
  8
DETAIL
  6
CONTINUOUS
 62
     5
 10
31.856701000000001
 20
-55.650776
 30
0.0
 11
31.85671099999999
 21
-20.349239000000001
 31
0.0
  0
LINE
  5
255
  8
DETAIL
  6
CONTINUOUS
 62
     5
 10
36.555163999999991
 20
-55.650778000000003
 30
0.0
 11
36.555174000000001
 21
-20.349240999999999
 31
0.0
  0
ARC
  5
256
  8
DETAIL
  6
CONTINUOUS
 62
     5
 10
41.25544
 20
-20.265779999999999
 30
0.0
 40
2.2657689999999979
 50
0.0
 51
180.0
  0
LINE
  5
257
  8
DETAIL
  6
CONTINUOUS
 62
     5
 10
43.521200999999991
 20
-55.734242000000002
 30
0.0
 11
43.521211000000001
 21
-20.265781
 31
0.0
  0
LINE
  5
258
  8
DETAIL
  6
CONTINUOUS
 62
     5
 10
38.989662000000003
 20
-55.73424
 30
0.0
 11
38.989671999999992
 21
-20.265778999999991
 31
0.0
  0
ARC
  5
259
  8
DETAIL
  6
CONTINUOUS
 62
     5
 10
48.023620000000001
 20
-20.165075999999999
 30
0.0
 40
2.1650640000000001
 50
0.0
 51
180.0
  0
ARC
  5
25A
  8
DETAIL
  6
CONTINUOUS
 62
     5
 10
48.023610999999981
 20
-55.834949000000002
 30
0.0
 40
2.1650640000000001
 50
180.0
 51
0.0
  0
LINE
  5
25B
  8
DETAIL
  6
CONTINUOUS
 62
     5
 10
50.188675000000003
 20
-55.834949000000002
 30
0.0
 11
50.188684999999992
 21
-20.165077
 31
0.0
  0
LINE
  5
25C
  8
DETAIL
  6
CONTINUOUS
 62
     5
 10
45.858547999999992
 20
-55.834947999999997
 30
0.0
 11
45.858558000000002
 21
-20.165075000000002
 31
0.0
  0
LINE
  5
25D
  8
DETAIL
  6
CONTINUOUS
 62
     5
 10
52.411079999999998
 20
-55.952133999999987
 30
0.0
 11
52.411090999999999
 21
-20.047893999999989
 31
0.0
  0
LINE
  5
25E
  8
SIZE
  6
CONTINUOUS
 62
    30
 10
106.4999999999999
 20
0.0
 30
0.0
 11
239.634039
 21
0.0
 31
0.0
  0
LINE
  5
25F
  8
SIZE
  6
CONTINUOUS
 62
    30
 10
105.499982
 20
3.000011999999999
 30
0.0
 11
239.634039
 21
3.000011999999999
 31
0.0
  0
LINE
  5
260
  8
SIZE
  6
CONTINUOUS
 62
    30
 10
219.634039
 20
15.00001199999998
 30
0.0
 11
219.634039
 21
27.000011999999991
 31
0.0
  0
LINE
  5
261
  8
SIZE
  6
CONTINUOUS
 62
    30
 10
219.634039
 20
-12.0
 30
0.0
 11
219.634039
 21
-112.40000000000001
 31
0.0
  0
LINE
  5
262
  8
SIZE
  6
CONTINUOUS
 62
    30
 10
219.634039
 20
3.000011999999999
 30
0.0
 11
219.634039
 21
0.0
 31
0.0
  0
CIRCLE
  5
263
  8
SIZE
  6
CONTINUOUS
 62
    30
 10
219.634039
 20
3.000011999999999
 30
0.0
 40
6.0
  0
LINE
  5
264
  8
SIZE
  6
CONTINUOUS
 62
    30
 10
219.634039
 20
3.000011999999999
 30
0.0
 11
219.634039
 21
15.00001199999998
 31
0.0
  0
CIRCLE
  5
265
  8
SIZE
  6
CONTINUOUS
 62
    30
 10
219.634039
 20
0.0
 30
0.0
 40
6.0
  0
LINE
  5
266
  8
SIZE
  6
CONTINUOUS
 62
    30
 10
219.634039
 20
0.0
 30
0.0
 11
219.634039
 21
-12.0
 31
0.0
  0
TEXT
  5
267
  8
SIZE
  6
CONTINUOUS
 62
    30
 10
194.6340389999998
 20
-87.400000000000006
 30
0.0
 40
64.0
  1
3
 50
90.0
 41
0.9
 72
     1
 11
194.6340389999998
 21
-68.200000000000003
 31
0.0
  0
LINE
  5
268
  8
SIZE
  6
CONTINUOUS
 62
    30
 10
0.0
 20
48.829016000000003
 30
0.0
 11
0.0
 21
454.60607599999992
 31
0.0
  0
LINE
  5
269
  8
SIZE
  6
CONTINUOUS
 62
    30
 10
-33.5
 20
40.0
 30
0.0
 11
-33.5
 21
454.60607599999992
 31
0.0
  0
LINE
  5
26A
  8
SIZE
  6
CONTINUOUS
 62
    30
 10
12.0
 20
434.60607599999992
 30
0.0
 11
24.0
 21
434.60607599999992
 31
0.0
  0
LINE
  5
26B
  8
SIZE
  6
CONTINUOUS
 62
    30
 10
-45.499999999999993
 20
434.60607599999992
 30
0.0
 11
-283.04285699999991
 21
434.60607599999992
 31
0.0
  0
LINE
  5
26C
  8
SIZE
  6
CONTINUOUS
 62
    30
 10
0.0
 20
434.60607599999992
 30
0.0
 11
-33.5
 21
434.60607599999992
 31
0.0
  0
CIRCLE
  5
26D
  8
SIZE
  6
CONTINUOUS
 62
    30
 10
0.0
 20
434.60607599999992
 30
0.0
 40
6.0
  0
LINE
  5
26E
  8
SIZE
  6
CONTINUOUS
 62
    30
 10
0.0
 20
434.60607599999992
 30
0.0
 11
12.0
 21
434.60607599999992
 31
0.0
  0
CIRCLE
  5
26F
  8
SIZE
  6
CONTINUOUS
 62
    30
 10
-33.5
 20
434.60607599999992
 30
0.0
 40
6.0
  0
LINE
  5
270
  8
SIZE
  6
CONTINUOUS
 62
    30
 10
-33.5
 20
434.60607599999992
 30
0.0
 11
-45.499999999999993
 21
434.60607599999992
 31
0.0
  0
TEXT
  5
271
  8
SIZE
  6
CONTINUOUS
 62
    30
 10
-258.0428575714285
 20
459.60607599999992
 30
0.0
 40
64.0
  1
33.5
 41
0.9
 72
     1
 11
-170.27142900000001
 21
459.60607599999992
 31
0.0
  0
LINE
  5
272
  8
SIZE
  6
CONTINUOUS
 62
    30
 10
0.0
 20
48.829016000000003
 30
0.0
 11
0.0
 21
454.60607599999992
 31
0.0
  0
LINE
  5
273
  8
SIZE
  6
CONTINUOUS
 62
    30
 10
72.5
 20
40.0
 30
0.0
 11
72.5
 21
454.60607599999992
 31
0.0
  0
LINE
  5
274
  8
SIZE
  6
CONTINUOUS
 62
    30
 10
-12.0
 20
434.60607599999992
 30
0.0
 11
-24.0
 21
434.60607599999992
 31
0.0
  0
LINE
  5
275
  8
SIZE
  6
CONTINUOUS
 62
    30
 10
84.500000000000014
 20
434.60607599999992
 30
0.0
 11
322.04285699999991
 21
434.60607599999992
 31
0.0
  0
LINE
  5
276
  8
SIZE
  6
CONTINUOUS
 62
    30
 10
0.0
 20
434.60607599999992
 30
0.0
 11
72.5
 21
434.60607599999992
 31
0.0
  0
CIRCLE
  5
277
  8
SIZE
  6
CONTINUOUS
 62
    30
 10
0.0
 20
434.60607599999992
 30
0.0
 40
6.0
  0
LINE
  5
278
  8
SIZE
  6
CONTINUOUS
 62
    30
 10
0.0
 20
434.60607599999992
 30
0.0
 11
-12.0
 21
434.60607599999992
 31
0.0
  0
CIRCLE
  5
279
  8
SIZE
  6
CONTINUOUS
 62
    30
 10
72.5
 20
434.60607599999992
 30
0.0
 40
6.0
  0
LINE
  5
27A
  8
SIZE
  6
CONTINUOUS
 62
    30
 10
72.5
 20
434.60607599999992
 30
0.0
 11
84.500000000000014
 21
434.60607599999992
 31
0.0
  0
TEXT
  5
27B
  8
SIZE
  6
CONTINUOUS
 62
    30
 10
121.5000004285713
 20
459.60607599999992
 30
0.0
 40
64.0
  1
72.5
 41
0.9
 72
     1
 11
209.2714289999999
 21
459.60607599999992
 31
0.0
  0
LINE
  5
27C
  8
SIZE
  6
CONTINUOUS
 62
    30
 10
0.0
 20
48.829016000000003
 30
0.0
 11
0.0
 21
335.67604599999981
 31
0.0
  0
LINE
  5
27D
  8
SIZE
  6
CONTINUOUS
 62
    30
 10
-72.5
 20
40.0
 30
0.0
 11
-72.5
 21
335.67604599999981
 31
0.0
  0
LINE
  5
27E
  8
SIZE
  6
CONTINUOUS
 62
    30
 10
12.0
 20
315.67604599999999
 30
0.0
 11
24.0
 21
315.67604599999999
 31
0.0
  0
LINE
  5
27F
  8
SIZE
  6
CONTINUOUS
 62
    30
 10
-84.500000000000014
 20
315.67604599999999
 30
0.0
 11
-322.04285699999991
 21
315.67604599999999
 31
0.0
  0
LINE
  5
280
  8
SIZE
  6
CONTINUOUS
 62
    30
 10
0.0
 20
315.67604599999999
 30
0.0
 11
-72.5
 21
315.67604599999999
 31
0.0
  0
CIRCLE
  5
281
  8
SIZE
  6
CONTINUOUS
 62
    30
 10
0.0
 20
315.67604599999999
 30
0.0
 40
6.0
  0
LINE
  5
282
  8
SIZE
  6
CONTINUOUS
 62
    30
 10
0.0
 20
315.67604599999999
 30
0.0
 11
12.0
 21
315.67604599999999
 31
0.0
  0
CIRCLE
  5
283
  8
SIZE
  6
CONTINUOUS
 62
    30
 10
-72.5
 20
315.67604599999999
 30
0.0
 40
6.0
  0
LINE
  5
284
  8
SIZE
  6
CONTINUOUS
 62
    30
 10
-72.5
 20
315.67604599999999
 30
0.0
 11
-84.500000000000014
 21
315.67604599999999
 31
0.0
  0
TEXT
  5
285
  8
SIZE
  6
CONTINUOUS
 62
    30
 10
-297.0428575714285
 20
340.67604599999999
 30
0.0
 40
64.0
  1
72.5
 41
0.9
 72
     1
 11
-209.2714289999999
 21
340.67604599999999
 31
0.0
  0
LINE
  5
286
  8
SIZE
  6
CONTINUOUS
 62
    30
 10
0.0
 20
48.829016000000003
 30
0.0
 11
0.0
 21
335.67604599999981
 31
0.0
  0
LINE
  5
287
  8
SIZE
  6
CONTINUOUS
 62
    30
 10
33.5
 20
40.0
 30
0.0
 11
33.5
 21
335.67604599999981
 31
0.0
  0
LINE
  5
288
  8
SIZE
  6
CONTINUOUS
 62
    30
 10
-12.0
 20
315.67604599999999
 30
0.0
 11
-24.0
 21
315.67604599999999
 31
0.0
  0
LINE
  5
289
  8
SIZE
  6
CONTINUOUS
 62
    30
 10
45.499999999999993
 20
315.67604599999999
 30
0.0
 11
301.23098599999992
 21
315.67604599999999
 31
0.0
  0
LINE
  5
28A
  8
SIZE
  6
CONTINUOUS
 62
    30
 10
0.0
 20
315.67604599999999
 30
0.0
 11
33.5
 21
315.67604599999999
 31
0.0
  0
CIRCLE
  5
28B
  8
SIZE
  6
CONTINUOUS
 62
    30
 10
0.0
 20
315.67604599999999
 30
0.0
 40
6.0
  0
LINE
  5
28C
  8
SIZE
  6
CONTINUOUS
 62
    30
 10
0.0
 20
315.67604599999999
 30
0.0
 11
-12.0
 21
315.67604599999999
 31
0.0
  0
CIRCLE
  5
28D
  8
SIZE
  6
CONTINUOUS
 62
    30
 10
33.5
 20
315.67604599999999
 30
0.0
 40
6.0
  0
LINE
  5
28E
  8
SIZE
  6
CONTINUOUS
 62
    30
 10
33.5
 20
315.67604599999999
 30
0.0
 11
45.499999999999993
 21
315.67604599999999
 31
0.0
  0
TEXT
  5
28F
  8
SIZE
  6
CONTINUOUS
 62
    30
 10
100.6881284285713
 20
340.67604599999999
 30
0.0
 40
64.0
  1
33.5
 41
0.9
 72
     1
 11
188.4595569999999
 21
340.67604599999999
 31
0.0
  0
LINE
  5
290
  8
SIZE
  6
CONTINUOUS
 62
    30
 10
55.0
 20
40.0
 30
0.0
 11
55.0
 21
212.12175199999999
 31
0.0
  0
LINE
  5
291
  8
SIZE
  6
CONTINUOUS
 62
    30
 10
-55.0
 20
40.0
 30
0.0
 11
-55.0
 21
212.12175199999999
 31
0.0
  0
LINE
  5
292
  8
SIZE
  6
CONTINUOUS
 62
    30
 10
43.0
 20
192.1217519999999
 30
0.0
 11
-43.0
 21
192.1217519999999
 31
0.0
  0
LINE
  5
293
  8
SIZE
  6
CONTINUOUS
 62
    30
 10
-55.0
 20
192.1217519999999
 30
0.0
 11
-308.45142900000002
 21
192.1217519999999
 31
0.0
  0
CIRCLE
  5
294
  8
SIZE
  6
CONTINUOUS
 62
    30
 10
55.0
 20
192.1217519999999
 30
0.0
 40
6.0
  0
LINE
  5
295
  8
SIZE
  6
CONTINUOUS
 62
    30
 10
55.0
 20
192.1217519999999
 30
0.0
 11
43.0
 21
192.1217519999999
 31
0.0
  0
CIRCLE
  5
296
  8
SIZE
  6
CONTINUOUS
 62
    30
 10
-55.0
 20
192.1217519999999
 30
0.0
 40
6.0
  0
LINE
  5
297
  8
SIZE
  6
CONTINUOUS
 62
    30
 10
-55.0
 20
192.1217519999999
 30
0.0
 11
-43.0
 21
192.1217519999999
 31
0.0
  0
TEXT
  5
298
  8
SIZE
  6
CONTINUOUS
 62
    30
 10
-287.29142828571418
 20
217.1217519999999
 30
0.0
 40
64.0
  1
□110
 41
0.9
 72
     1
 11
-187.7257139999999
 21
217.1217519999999
 31
0.0
  0
LINE
  5
299
  8
DETAIL
  6
CONTINUOUS
 62
     5
 10
-86.5
 20
-8.0
 30
0.0
 11
-86.5
 21
0.0
 31
0.0
  0
LINE
  5
29A
  8
DETAIL
  6
CONTINUOUS
 62
     5
 10
-85.499982000000003
 20
0.000012
 30
0.0
 11
-85.499982000000003
 21
2.9999880000000001
 31
0.0
  0
LINE
  5
29B
  8
DETAIL
  6
CONTINUOUS
 62
     5
 10
-94.0
 20
-8.0
 30
0.0
 11
-94.0
 21
0.0
 31
0.0
  0
LINE
  5
29C
  8
DETAIL
  6
CONTINUOUS
 62
     5
 10
-86.5
 20
0.0
 30
0.0
 11
-94.0
 21
0.0
 31
0.0
  0
LINE
  5
29D
  8
DETAIL
  6
CONTINUOUS
 62
     5
 10
-87.5
 20
-8.0
 30
0.0
 11
-94.0
 21
-8.0
 31
0.0
  0
LINE
  5
29E
  8
DETAIL
  6
CONTINUOUS
 62
     5
 10
86.5
 20
0.0
 30
0.0
 11
94.0
 21
0.0
 31
0.0
  0
LINE
  5
29F
  8
DETAIL
  6
CONTINUOUS
 62
     5
 10
94.0
 20
-8.0
 30
0.0
 11
94.0
 21
0.0
 31
0.0
  0
LINE
  5
2A0
  8
DETAIL
  6
CONTINUOUS
 62
     5
 10
87.5
 20
-8.0
 30
0.0
 11
94.0
 21
-8.0
 31
0.0
  0
ARC
  5
2A1
  8
DETAIL
  6
CONTINUOUS
 62
     5
 10
0.0
 20
202.89999999999989
 30
0.0
 40
230.90000000000001
 50
245.97704300000001
 51
247.7576149999999
  0
LINE
  5
2A2
  8
DETAIL
  6
CONTINUOUS
 62
     5
 10
-52.411079999999998
 20
-55.952133999999987
 30
0.0
 11
-52.411090999999999
 21
-20.047893999999989
 31
0.0
  0
LINE
  5
2A3
  8
DETAIL
  6
CONTINUOUS
 62
     5
 10
-45.858547999999992
 20
-55.834947999999997
 30
0.0
 11
-45.858558000000002
 21
-20.165075000000002
 31
0.0
  0
LINE
  5
2A4
  8
DETAIL
  6
CONTINUOUS
 62
     5
 10
-50.188675000000003
 20
-55.834949000000002
 30
0.0
 11
-50.188684999999992
 21
-20.165077
 31
0.0
  0
ARC
  5
2A5
  8
DETAIL
  6
CONTINUOUS
 62
     5
 10
-48.023610999999981
 20
-55.834949000000002
 30
0.0
 40
2.1650640000000001
 50
180.0
 51
0.0
  0
ARC
  5
2A6
  8
DETAIL
  6
CONTINUOUS
 62
     5
 10
-48.023620000000001
 20
-20.165075999999999
 30
0.0
 40
2.1650640000000001
 50
0.0
 51
180.0
  0
LINE
  5
2A7
  8
DETAIL
  6
CONTINUOUS
 62
     5
 10
-38.989662000000003
 20
-55.73424
 30
0.0
 11
-38.989671999999992
 21
-20.265778999999991
 31
0.0
  0
LINE
  5
2A8
  8
DETAIL
  6
CONTINUOUS
 62
     5
 10
-43.521200999999991
 20
-55.734242000000002
 30
0.0
 11
-43.521211000000001
 21
-20.265781
 31
0.0
  0
ARC
  5
2A9
  8
DETAIL
  6
CONTINUOUS
 62
     5
 10
-41.25544
 20
-20.265779999999999
 30
0.0
 40
2.2657689999999979
 50
0.0
 51
180.0
  0
LINE
  5
2AA
  8
DETAIL
  6
CONTINUOUS
 62
     5
 10
-36.555163999999991
 20
-55.650778000000003
 30
0.0
 11
-36.555174000000001
 21
-20.349240999999999
 31
0.0
  0
LINE
  5
2AB
  8
DETAIL
  6
CONTINUOUS
 62
     5
 10
-31.856701000000001
 20
-55.650776
 30
0.0
 11
-31.85671099999999
 21
-20.349239000000001
 31
0.0
  0
ARC
  5
2AC
  8
DETAIL
  6
CONTINUOUS
 62
     5
 10
-34.20593199999999
 20
-55.650776999999991
 30
0.0
 40
2.349231999999998
 50
180.0
 51
0.0
  0
ARC
  5
2AD
  8
DETAIL
  6
CONTINUOUS
 62
     5
 10
-34.205940999999981
 20
-20.349239999999991
 30
0.0
 40
2.349231999999998
 50
0.0
 51
180.0
  0
ARC
  5
2AE
  8
DETAIL
  6
CONTINUOUS
 62
     5
 10
-41.255431999999999
 20
-55.734240999999997
 30
0.0
 40
2.2657689999999979
 50
180.0
 51
0.0
  0
LINE
  5
2AF
  8
DETAIL
  6
CONTINUOUS
 62
     5
 10
-56.506841000000001
 20
-55.952134999999991
 30
0.0
 11
-56.506850999999997
 21
-20.047895
 31
0.0
  0
ARC
  5
2B0
  8
DETAIL
  6
CONTINUOUS
 62
     5
 10
-54.458959999999998
 20
-55.952133999999987
 30
0.0
 40
2.0478800000000001
 50
180.0
 51
0.0
  0
ARC
  5
2B1
  8
DETAIL
  6
CONTINUOUS
 62
     5
 10
-54.45896900000001
 20
-20.047893999999989
 30
0.0
 40
2.0478800000000001
 50
0.0
 51
180.0
  0
ARC
  5
2B2
  8
OUTLINE
  6
CONTINUOUS
 62
     3
 10
0.0
 20
202.89999999999989
 30
0.0
 40
230.90000000000001
 50
245.97704300000001
 51
247.7576149999999
  0
LINE
  5
2B3
  8
OUTLINE
  6
CONTINUOUS
 62
     3
 10
87.5
 20
-8.0
 30
0.0
 11
-87.5
 21
-8.0
 31
0.0
  0
LINE
  5
2B4
  8
OUTLINE
  6
CONTINUOUS
 62
     3
 39
50.0
 10
86.5
 20
0.0
 30
0.0
 11
-86.5
 21
0.0
 31
0.0
  0
LINE
  5
2B5
  8
OUTLINE
  6
CONTINUOUS
 62
     3
 10
85.499982000000003
 20
3.000011999999999
 30
0.0
 11
-85.499982000000003
 21
2.9999880000000001
 31
0.0
  0
ARC
  5
2B6
  8
OUTLINE
  6
CONTINUOUS
 62
     3
 10
-0.000008
 20
58.0
 30
0.0
 40
165.0
 50
241.6688969999999
 51
297.88983100000002
  0
ARC
  5
2B7
  8
OUTLINE
  6
CONTINUOUS
 62
     3
 10
-70.165936000000002
 20
-74.577298999999982
 30
0.0
 40
15.0
 50
181.99999199999999
 51
242.1101689999999
  0
LINE
  5
2B8
  8
OUTLINE
  6
CONTINUOUS
 62
     3
 10
-87.5
 20
-8.0
 30
0.0
 11
-94.0
 21
-8.0
 31
0.0
  0
LINE
  5
2B9
  8
OUTLINE
  6
CONTINUOUS
 62
     3
 10
-86.5
 20
0.0
 30
0.0
 11
-94.0
 21
0.0
 31
0.0
  0
LINE
  5
2BA
  8
OUTLINE
  6
CONTINUOUS
 62
     3
 10
-94.0
 20
-8.0
 30
0.0
 11
-94.0
 21
0.0
 31
0.0
  0
LINE
  5
2BB
  8
OUTLINE
  6
CONTINUOUS
 62
     3
 10
-87.5
 20
-8.0
 30
0.0
 11
-85.156797999999995
 21
-75.100790000000003
 31
0.0
  0
LINE
  5
2BC
  8
OUTLINE
  6
CONTINUOUS
 62
     3
 10
-85.499982000000003
 20
0.000012
 30
0.0
 11
-85.499982000000003
 21
2.9999880000000001
 31
0.0
  0
ARC
  5
2BD
  8
OUTLINE
  6
CONTINUOUS
 62
     3
 10
70.165936000000002
 20
-74.577298999999982
 30
0.0
 40
15.0
 50
297.88983100000002
 51
358.00000799999998
  0
LINE
  5
2BE
  8
OUTLINE
  6
CONTINUOUS
 62
     3
 10
87.5
 20
-8.0
 30
0.0
 11
94.0
 21
-8.0
 31
0.0
  0
LINE
  5
2BF
  8
OUTLINE
  6
CONTINUOUS
 62
     3
 10
94.0
 20
-8.0
 30
0.0
 11
94.0
 21
0.0
 31
0.0
  0
LINE
  5
2C0
  8
OUTLINE
  6
CONTINUOUS
 62
     3
 10
86.5
 20
0.0
 30
0.0
 11
94.0
 21
0.0
 31
0.0
  0
LINE
  5
2C1
  8
OUTLINE
  6
CONTINUOUS
 62
     3
 10
87.5
 20
-8.0
 30
0.0
 11
85.156797999999995
 21
-75.100790000000003
 31
0.0
  0
LINE
  5
2C2
  8
OUTLINE
  6
CONTINUOUS
 62
     3
 10
85.499982000000003
 20
0.000012
 30
0.0
 11
85.499982000000003
 21
3.000011999999999
 31
0.0
  0
ARC
  5
2C3
  8
OUTLINE
  6
CONTINUOUS
 62
     3
 10
0.0
 20
202.89999999999989
 30
0.0
 40
230.90000000000001
 50
292.24238500000001
 51
294.02295699999991
  0
LINE
  5
2C4
  8
SIZE
  6
CONTINUOUS
 62
    30
 10
94.0
 20
-28.0
 30
0.0
 11
94.0
 21
-415.47216100000003
 31
0.0
  0
LINE
  5
2C5
  8
SIZE
  6
CONTINUOUS
 62
    30
 10
-94.0
 20
-28.0
 30
0.0
 11
-94.0
 21
-415.47216100000003
 31
0.0
  0
LINE
  5
2C6
  8
SIZE
  6
CONTINUOUS
 62
    30
 10
82.0
 20
-395.47216099999991
 30
0.0
 11
-82.0
 21
-395.47216099999991
 31
0.0
  0
CIRCLE
  5
2C7
  8
SIZE
  6
CONTINUOUS
 62
    30
 10
94.0
 20
-395.47216099999991
 30
0.0
 40
6.0
  0
LINE
  5
2C8
  8
SIZE
  6
CONTINUOUS
 62
    30
 10
94.0
 20
-395.47216099999991
 30
0.0
 11
82.0
 21
-395.47216099999991
 31
0.0
  0
CIRCLE
  5
2C9
  8
SIZE
  6
CONTINUOUS
 62
    30
 10
-94.0
 20
-395.47216099999991
 30
0.0
 40
6.0
  0
LINE
  5
2CA
  8
SIZE
  6
CONTINUOUS
 62
    30
 10
-94.0
 20
-395.47216099999991
 30
0.0
 11
-82.0
 21
-395.47216099999991
 31
0.0
  0
TEXT
  5
2CB
  8
SIZE
  6
CONTINUOUS
 62
    30
 10
-68.571428571428555
 20
-370.47216099999991
 30
0.0
 40
64.0
  1
188
 41
0.9
 72
     1
 11
0.0
 21
-370.47216099999991
 31
0.0
  0
LINE
  5
2CC
  8
SIZE
  6
CONTINUOUS
 62
    30
 10
87.5
 20
-28.0
 30
0.0
 11
87.5
 21
-296.62648200000001
 31
0.0
  0
LINE
  5
2CD
  8
SIZE
  6
CONTINUOUS
 62
    30
 10
-87.5
 20
-28.0
 30
0.0
 11
-87.5
 21
-296.62648200000001
 31
0.0
  0
LINE
  5
2CE
  8
SIZE
  6
CONTINUOUS
 62
    30
 10
-75.5
 20
-276.6264819999999
 30
0.0
 11
75.5
 21
-276.6264819999999
 31
0.0
  0
LINE
  5
2CF
  8
SIZE
  6
CONTINUOUS
 62
    30
 10
87.5
 20
-276.6264819999999
 30
0.0
 11
344.24285699999979
 21
-276.6264819999999
 31
0.0
  0
CIRCLE
  5
2D0
  8
SIZE
  6
CONTINUOUS
 62
    30
 10
-87.5
 20
-276.6264819999999
 30
0.0
 40
6.0
  0
LINE
  5
2D1
  8
SIZE
  6
CONTINUOUS
 62
    30
 10
-87.5
 20
-276.6264819999999
 30
0.0
 11
-75.5
 21
-276.6264819999999
 31
0.0
  0
CIRCLE
  5
2D2
  8
SIZE
  6
CONTINUOUS
 62
    30
 10
87.5
 20
-276.6264819999999
 30
0.0
 40
6.0
  0
LINE
  5
2D3
  8
SIZE
  6
CONTINUOUS
 62
    30
 10
87.5
 20
-276.6264819999999
 30
0.0
 11
75.5
 21
-276.6264819999999
 31
0.0
  0
TEXT
  5
2D4
  8
SIZE
  6
CONTINUOUS
 62
    30
 10
112.9800004285714
 20
-251.6264819999999
 30
0.0
 40
64.0
  1
φ175
 41
0.9
 72
     1
 11
221.87142900000001
 21
-251.6264819999999
 31
0.0
  0
LINE
  5
2D5
  8
NOTE
  6
CONTINUOUS
 62
     4
 39
50.0
 10
72.5
 20
0.0
 30
0.0
 11
183.80328299999991
 21
59.728611000000001
 31
0.0
  0
LINE
  5
2D6
  8
NOTE
  6
CONTINUOUS
 62
     4
 10
101.16217399999999
 20
27.901250000000001
 30
0.0
 11
72.5
 21
0.0
 31
0.0
  0
LINE
  5
2D7
  8
NOTE
  6
CONTINUOUS
 62
     4
 10
72.5
 20
0.0
 30
0.0
 11
111.2727959999999
 21
9.8321039999999993
 31
0.0
  0
ARC
  5
2D8
  8
DETAIL
  6
CONTINUOUS
 62
     5
 10
0.0
 20
202.89999999999989
 30
0.0
 40
230.90000000000001
 50
292.24238500000001
 51
294.02295699999991
  0
LINE
  5
2D9
  8
SIZE
  6
CONTINUOUS
 62
    30
 10
-114.0
 20
0.0
 30
0.0
 11
-185.9291179999999
 21
0.0
 31
0.0
  0
LINE
  5
2DA
  8
SIZE
  6
CONTINUOUS
 62
    30
 10
-103.561256
 20
-18.000022000000001
 30
0.0
 11
-185.9291179999999
 21
-18.000022000000001
 31
0.0
  0
LINE
  5
2DB
  8
SIZE
  6
CONTINUOUS
 62
    30
 10
-165.92911799999979
 20
-30.000021999999991
 30
0.0
 11
-165.92911799999979
 21
-42.000021999999987
 31
0.0
  0
LINE
  5
2DC
  8
SIZE
  6
CONTINUOUS
 62
    30
 10
-165.92911799999979
 20
12.0
 30
0.0
 11
-165.92911799999979
 21
156.28571400000001
 31
0.0
  0
LINE
  5
2DD
  8
SIZE
  6
CONTINUOUS
 62
    30
 10
-165.92911799999979
 20
-18.000022000000001
 30
0.0
 11
-165.92911799999979
 21
0.0
 31
0.0
  0
CIRCLE
  5
2DE
  8
SIZE
  6
CONTINUOUS
 62
    30
 10
-165.92911799999979
 20
-18.000022000000001
 30
0.0
 40
6.0
  0
LINE
  5
2DF
  8
SIZE
  6
CONTINUOUS
 62
    30
 10
-165.92911799999979
 20
-18.000022000000001
 30
0.0
 11
-165.92911799999979
 21
-30.000021999999991
 31
0.0
  0
CIRCLE
  5
2E0
  8
SIZE
  6
CONTINUOUS
 62
    30
 10
-165.92911799999979
 20
0.0
 30
0.0
 40
6.0
  0
LINE
  5
2E1
  8
SIZE
  6
CONTINUOUS
 62
    30
 10
-165.92911799999979
 20
0.0
 30
0.0
 11
-165.92911799999979
 21
12.0
 31
0.0
  0
TEXT
  5
2E2
  8
SIZE
  6
CONTINUOUS
 62
    30
 10
-190.9291179999999
 20
48.999999857142868
 30
0.0
 40
64.0
  1
18
 50
90.0
 41
0.9
 72
     1
 11
-190.9291179999999
 21
90.142857000000006
 31
0.0
  0
LINE
  5
2E3
  8
SIZE
  6
CONTINUOUS
 62
    30
 10
-74.458968999999982
 20
-18.000014
 30
0.0
 11
-185.9291179999999
 21
-18.000014
 31
0.0
  0
LINE
  5
2E4
  8
SIZE
  6
CONTINUOUS
 62
    30
 10
-74.458960000000005
 20
-58.000014
 30
0.0
 11
-185.9291179999999
 21
-58.000014
 31
0.0
  0
LINE
  5
2E5
  8
SIZE
  6
CONTINUOUS
 62
    30
 10
-165.92911799999979
 20
-6.0000140000000002
 30
0.0
 11
-165.92911799999979
 21
5.999985999999998
 31
0.0
  0
LINE
  5
2E6
  8
SIZE
  6
CONTINUOUS
 62
    30
 10
-165.92911799999979
 20
-70.000014000000007
 30
0.0
 11
-165.92911799999979
 21
-255.42917399999999
 31
0.0
  0
LINE
  5
2E7
  8
SIZE
  6
CONTINUOUS
 62
    30
 10
-165.92911799999979
 20
-18.000014
 30
0.0
 11
-165.92911799999979
 21
-58.000014
 31
0.0
  0
CIRCLE
  5
2E8
  8
SIZE
  6
CONTINUOUS
 62
    30
 10
-165.92911799999979
 20
-18.000014
 30
0.0
 40
6.0
  0
LINE
  5
2E9
  8
SIZE
  6
CONTINUOUS
 62
    30
 10
-165.92911799999979
 20
-18.000014
 30
0.0
 11
-165.92911799999979
 21
-6.0000140000000002
 31
0.0
  0
CIRCLE
  5
2EA
  8
SIZE
  6
CONTINUOUS
 62
    30
 10
-165.92911799999979
 20
-58.000014
 30
0.0
 40
6.0
  0
LINE
  5
2EB
  8
SIZE
  6
CONTINUOUS
 62
    30
 10
-165.92911799999979
 20
-58.000014
 30
0.0
 11
-165.92911799999979
 21
-70.000014000000007
 31
0.0
  0
TEXT
  5
2EC
  8
SIZE
  6
CONTINUOUS
 62
    30
 10
-190.9291179999999
 20
-230.4291744285714
 30
0.0
 40
64.0
  1
40
 50
90.0
 41
0.9
 72
     1
 11
-190.9291179999999
 21
-183.800603
 31
0.0
  0
TEXT
  5
2ED
  8
ETC
  6
CONTINUOUS
 62
    61
 10
462.39601599999997
 20
416.70331099999999
 30
0.0
 40
40.0
  1
システム部材
 41
0.9
  0
TEXT
  5
2EE
  8
ETC
  6
CONTINUOUS
 62
    61
 10
465.33903600000002
 20
484.754617
 30
0.0
 40
40.0
  1
P-100CVS5_1
 41
0.9
  0
ARC
  5
2EF
  8
DETAIL
  6
CONTINUOUS
 62
     5
 10
-27.007486
 20
-20.349239999999991
 30
0.0
 40
2.349231999999998
 50
0.0
 51
180.0
  0
ARC
  5
2F0
  8
DETAIL
  6
CONTINUOUS
 62
     5
 10
-27.007477999999999
 20
-55.650776999999991
 30
0.0
 40
2.349231999999998
 50
180.0
 51
0.0
  0
LINE
  5
2F1
  8
DETAIL
  6
CONTINUOUS
 62
     5
 10
-24.658245999999991
 20
-55.650776
 30
0.0
 11
-24.658256000000002
 21
-20.349239000000001
 31
0.0
  0
LINE
  5
2F2
  8
DETAIL
  6
CONTINUOUS
 62
     5
 10
-29.356708999999992
 20
-55.650778000000003
 30
0.0
 11
-29.356718999999998
 21
-20.349240999999999
 31
0.0
  0
LINE
  5
2F3
  8
DETAIL
  6
CONTINUOUS
 62
     5
 10
-14.959792
 20
-55.650778000000003
 30
0.0
 11
-14.95980199999998
 21
-20.349240999999999
 31
0.0
  0
LINE
  5
2F4
  8
DETAIL
  6
CONTINUOUS
 62
     5
 10
-10.261328000000001
 20
-55.650776
 30
0.0
 11
-10.26133799999999
 21
-20.349239000000001
 31
0.0
  0
ARC
  5
2F5
  8
DETAIL
  6
CONTINUOUS
 62
     5
 10
-12.61056
 20
-55.650776999999991
 30
0.0
 40
2.349231999999998
 50
180.0
 51
0.0
  0
ARC
  5
2F6
  8
DETAIL
  6
CONTINUOUS
 62
     5
 10
-12.610569
 20
-20.349239999999991
 30
0.0
 40
2.349231999999998
 50
0.0
 51
180.0
  0
ARC
  5
2F7
  8
DETAIL
  6
CONTINUOUS
 62
     5
 10
-19.809023
 20
-20.349239999999991
 30
0.0
 40
2.349231999999998
 50
0.0
 51
180.0
  0
ARC
  5
2F8
  8
DETAIL
  6
CONTINUOUS
 62
     5
 10
-19.809014999999992
 20
-55.650776999999991
 30
0.0
 40
2.349231999999998
 50
180.0
 51
0.0
  0
LINE
  5
2F9
  8
DETAIL
  6
CONTINUOUS
 62
     5
 10
-17.459782999999991
 20
-55.650776
 30
0.0
 11
-17.459792999999991
 21
-20.349239000000001
 31
0.0
  0
LINE
  5
2FA
  8
DETAIL
  6
CONTINUOUS
 62
     5
 10
-22.158245999999991
 20
-55.650778000000003
 30
0.0
 11
-22.158256000000002
 21
-20.349240999999999
 31
0.0
  0
LINE
  5
2FB
  8
DETAIL
  6
CONTINUOUS
 62
     5
 10
-7.7613279999999989
 20
-55.650778000000003
 30
0.0
 11
-7.7613380000000003
 21
-20.349240999999999
 31
0.0
  0
LINE
  5
2FC
  8
DETAIL
  6
CONTINUOUS
 62
     5
 10
-3.0628649999999991
 20
-55.650776
 30
0.0
 11
-3.062875
 21
-20.349239000000001
 31
0.0
  0
ARC
  5
2FD
  8
DETAIL
  6
CONTINUOUS
 62
     5
 10
-5.4120970000000002
 20
-55.650776999999991
 30
0.0
 40
2.349231999999998
 50
180.0
 51
0.0
  0
ARC
  5
2FE
  8
DETAIL
  6
CONTINUOUS
 62
     5
 10
-5.4121050000000004
 20
-20.349239999999991
 30
0.0
 40
2.349231999999998
 50
0.0
 51
180.0
  0
ARC
  5
2FF
  8
DETAIL
  6
CONTINUOUS
 62
     5
 10
5.4121050000000004
 20
-20.349239999999991
 30
0.0
 40
2.349231999999998
 50
0.0
 51
180.0
  0
ARC
  5
300
  8
DETAIL
  6
CONTINUOUS
 62
     5
 10
5.4120970000000002
 20
-55.650776999999991
 30
0.0
 40
2.349231999999998
 50
180.0
 51
0.0
  0
LINE
  5
301
  8
DETAIL
  6
CONTINUOUS
 62
     5
 10
3.0628649999999991
 20
-55.650776
 30
0.0
 11
3.062875
 21
-20.349239000000001
 31
0.0
  0
LINE
  5
302
  8
DETAIL
  6
CONTINUOUS
 62
     5
 10
7.7613279999999989
 20
-55.650778000000003
 30
0.0
 11
7.7613380000000003
 21
-20.349240999999999
 31
0.0
  0
LINE
  5
303
  8
DETAIL
  6
CONTINUOUS
 62
     5
 10
22.158245999999991
 20
-55.650778000000003
 30
0.0
 11
22.158256000000002
 21
-20.349240999999999
 31
0.0
  0
LINE
  5
304
  8
DETAIL
  6
CONTINUOUS
 62
     5
 10
17.459782999999991
 20
-55.650776
 30
0.0
 11
17.459792999999991
 21
-20.349239000000001
 31
0.0
  0
ARC
  5
305
  8
DETAIL
  6
CONTINUOUS
 62
     5
 10
19.809014999999992
 20
-55.650776999999991
 30
0.0
 40
2.349231999999998
 50
180.0
 51
0.0
  0
ARC
  5
306
  8
DETAIL
  6
CONTINUOUS
 62
     5
 10
19.809023
 20
-20.349239999999991
 30
0.0
 40
2.349231999999998
 50
0.0
 51
180.0
  0
ARC
  5
307
  8
DETAIL
  6
CONTINUOUS
 62
     5
 10
12.610569
 20
-20.349239999999991
 30
0.0
 40
2.349231999999998
 50
0.0
 51
180.0
  0
ARC
  5
308
  8
DETAIL
  6
CONTINUOUS
 62
     5
 10
12.61056
 20
-55.650776999999991
 30
0.0
 40
2.349231999999998
 50
180.0
 51
0.0
  0
LINE
  5
309
  8
DETAIL
  6
CONTINUOUS
 62
     5
 10
10.261328000000001
 20
-55.650776
 30
0.0
 11
10.26133799999999
 21
-20.349239000000001
 31
0.0
  0
LINE
  5
30A
  8
DETAIL
  6
CONTINUOUS
 62
     5
 10
14.959792
 20
-55.650778000000003
 30
0.0
 11
14.95980199999998
 21
-20.349240999999999
 31
0.0
  0
LINE
  5
30B
  8
DETAIL
  6
CONTINUOUS
 62
     5
 10
29.356708999999992
 20
-55.650778000000003
 30
0.0
 11
29.356718999999998
 21
-20.349240999999999
 31
0.0
  0
LINE
  5
30C
  8
DETAIL
  6
CONTINUOUS
 62
     5
 10
24.658245999999991
 20
-55.650776
 30
0.0
 11
24.658256000000002
 21
-20.349239000000001
 31
0.0
  0
ARC
  5
30D
  8
DETAIL
  6
CONTINUOUS
 62
     5
 10
27.007477999999999
 20
-55.650776999999991
 30
0.0
 40
2.349231999999998
 50
180.0
 51
0.0
  0
ARC
  5
30E
  8
DETAIL
  6
CONTINUOUS
 62
     5
 10
27.007486
 20
-20.349239999999991
 30
0.0
 40
2.349231999999998
 50
0.0
 51
180.0
  0
TEXT
  5
30F
  8
ETC
  6
CONTINUOUS
 62
    61
 10
594.09393807192691
 20
362.89824634433342
 30
0.0
 40
40.0
  1
P-100CVS5
 41
0.9
  0
TEXT
  5
310
  8
ETC
  6
CONTINUOUS
 62
    61
 10
592.58577391934409
 20
305.62460564084472
 30
0.0
 40
40.0
  1
P-100CVSQ5
 41
0.9
  0
ENDSEC
  0
EOF
