  0
SECTION
  2
HEADER
  9
$ACADVER
  1
AC1009
  9
$INSBASE
 10
0.0
 20
0.0
 30
0.0
  9
$EXTMIN
 10
-406.5078567207201
 20
-306.01500278107778
 30
-0.0015257624927045
  9
$EXTMAX
 10
799.87336335455984
 20
364.9749833449896
 30
50.001525995323327
  9
$LIMMIN
 10
-2970.0
 20
-2100.0
  9
$LIMMAX
 10
2970.0
 20
2100.0
  9
$ORTHOMODE
 70
     0
  9
$REGENMODE
 70
     0
  9
$FILLMODE
 70
     1
  9
$QTEXTMODE
 70
     0
  9
$MIRRTEXT
 70
     0
  9
$DRAGMODE
 70
     2
  9
$LTSCALE
 40
20.0
  9
$OSMODE
 70
    47
  9
$ATTMODE
 70
     1
  9
$TEXTSIZE
 40
64.0
  9
$TRACEWID
 40
0.05
  9
$TEXTSTYLE
  7
STANDARD
  9
$CLAYER
  8
OUTLINE
  9
$CELTYPE
  6
CONTINUOUS
  9
$CECOLOR
 62
     3
  9
$DIMSCALE
 40
1.0
  9
$DIMASZ
 40
12.0
  9
$DIMEXO
 40
20.0
  9
$DIMDLI
 40
200.0
  9
$DIMRND
 40
0.0
  9
$DIMDLE
 40
0.0
  9
$DIMEXE
 40
20.0
  9
$DIMTP
 40
0.0
  9
$DIMTM
 40
0.0
  9
$DIMTXT
 40
64.0
  9
$DIMCEN
 40
0.09
  9
$DIMTSZ
 40
0.0
  9
$DIMTOL
 70
     0
  9
$DIMLIM
 70
     0
  9
$DIMTIH
 70
     0
  9
$DIMTOH
 70
     0
  9
$DIMSE1
 70
     0
  9
$DIMSE2
 70
     0
  9
$DIMTAD
 70
     1
  9
$DIMZIN
 70
     8
  9
$DIMBLK
  1
DOT1
  9
$DIMASO
 70
     1
  9
$DIMSHO
 70
     0
  9
$DIMPOST
  1

  9
$DIMAPOST
  1

  9
$DIMALT
 70
     0
  9
$DIMALTD
 70
     2
  9
$DIMALTF
 40
25.399999999999999
  9
$DIMLFAC
 40
1.0
  9
$DIMTOFL
 70
     1
  9
$DIMTVP
 40
0.0
  9
$DIMTIX
 70
     1
  9
$DIMSOXD
 70
     0
  9
$DIMSAH
 70
     1
  9
$DIMBLK1
  1
ORIGIN
  9
$DIMBLK2
  1
ORIGIN
  9
$DIMSTYLE
  2
STANDARD
  9
$DIMCLRD
 70
     7
  9
$DIMCLRE
 70
     7
  9
$DIMCLRT
 70
     7
  9
$DIMTFAC
 40
1.0
  9
$DIMGAP
 40
25.0
  9
$LUNITS
 70
     2
  9
$LUPREC
 70
     4
  9
$SKETCHINC
 40
0.1
  9
$FILLETRAD
 40
4.0
  9
$AUNITS
 70
     1
  9
$AUPREC
 70
     3
  9
$MENU
  1
ACAD
  9
$ELEVATION
 40
0.0
  9
$PELEVATION
 40
0.0
  9
$THICKNESS
 40
50.0
  9
$LIMCHECK
 70
     0
  9
$BLIPMODE
 70
     0
  9
$CHAMFERA
 40
0.0
  9
$CHAMFERB
 40
0.0
  9
$SKPOLY
 70
     0
  9
$TDCREATE
 40
2453019.6230103709
  9
$TDUPDATE
 40
2455070.4359793519
  9
$TDINDWG
 40
0.0697552662
  9
$TDUSRTIMER
 40
0.069755081
  9
$USRTIMER
 70
     1
  9
$ANGBASE
 50
0.0
  9
$ANGDIR
 70
     0
  9
$PDMODE
 70
     3
  9
$PDSIZE
 40
-2.0
  9
$PLINEWID
 40
0.0
  9
$COORDS
 70
     0
  9
$SPLFRAME
 70
     0
  9
$SPLINETYPE
 70
     6
  9
$SPLINESEGS
 70
     8
  9
$ATTDIA
 70
     0
  9
$ATTREQ
 70
     1
  9
$HANDLING
 70
     1
  9
$HANDSEED
  5
281
  9
$SURFTAB1
 70
     6
  9
$SURFTAB2
 70
     6
  9
$SURFTYPE
 70
     6
  9
$SURFU
 70
     6
  9
$SURFV
 70
     6
  9
$UCSNAME
  2

  9
$UCSORG
 10
0.0
 20
0.0
 30
0.0
  9
$UCSXDIR
 10
1.0
 20
0.0
 30
0.0
  9
$UCSYDIR
 10
0.0
 20
1.0
 30
0.0
  9
$PUCSNAME
  2

  9
$PUCSORG
 10
0.0
 20
0.0
 30
0.0
  9
$PUCSXDIR
 10
1.0
 20
0.0
 30
0.0
  9
$PUCSYDIR
 10
0.0
 20
1.0
 30
0.0
  9
$USERI1
 70
     0
  9
$USERI2
 70
     0
  9
$USERI3
 70
     0
  9
$USERI4
 70
     0
  9
$USERI5
 70
     0
  9
$USERR1
 40
20.0
  9
$USERR2
 40
0.0
  9
$USERR3
 40
0.0
  9
$USERR4
 40
0.0
  9
$USERR5
 40
0.0
  9
$WORLDVIEW
 70
     1
  9
$SHADEDGE
 70
     3
  9
$SHADEDIF
 70
    70
  9
$TILEMODE
 70
     1
  9
$MAXACTVP
 70
    48
  9
$PLIMCHECK
 70
     0
  9
$PEXTMIN
 10
-1.0000000000000000E+020
 20
-1.0000000000000000E+020
 30
-1.0000000000000000E+020
  9
$PEXTMAX
 10
1.0000000000000000E+020
 20
1.0000000000000000E+020
 30
1.0000000000000000E+020
  9
$PLIMMIN
 10
0.0
 20
0.0
  9
$PLIMMAX
 10
12.0
 20
9.0
  9
$UNITMODE
 70
     0
  9
$VISRETAIN
 70
     0
  9
$PLINEGEN
 70
     0
  9
$PSLTSCALE
 70
     0
  0
ENDSEC
  0
SECTION
  2
TABLES
  0
TABLE
  2
VPORT
 70
     1
  0
VPORT
  2
*ACTIVE
 70
     0
 10
0.0
 20
0.0
 11
1.0
 21
1.0
 12
292.76334668523401
 22
-4.9673215318774728
 13
0.0
 23
0.0
 14
1.0
 24
1.0
 15
0.0
 25
0.0
 16
0.0
 26
0.0
 36
1.0
 17
0.0
 27
0.0
 37
0.0
 40
1090.8660329080069
 41
1.776671408250355
 42
50.0
 43
0.0
 44
0.0
 50
0.0
 51
0.0
 71
     0
 72
  1000
 73
     1
 74
     0
 75
     0
 76
     0
 77
     0
 78
     0
  0
ENDTAB
  0
TABLE
  2
LTYPE
 70
     2
  0
LTYPE
  2
CONTINUOUS
 70
     0
  3
実線
 72
    65
 73
     0
 40
0.0
  0
LTYPE
  2
DASHDOT
 70
     0
  3
____ _ ____ _ ____ _ ____ _ ____ _ ____ _ ____
 72
    65
 73
     4
 40
5.5
 49
4.0
 49
-0.6
 49
0.3
 49
-0.6
  0
ENDTAB
  0
TABLE
  2
LAYER
 70
    12
  0
LAYER
  2
0
 70
     0
 62
     7
  6
CONTINUOUS
  0
LAYER
  2
OUTLINE
 70
     0
 62
     3
  6
CONTINUOUS
  0
LAYER
  2
SIZE
 70
     0
 62
    30
  6
CONTINUOUS
  0
LAYER
  2
BASIS
 70
     0
 62
     6
  6
DASHDOT
  0
LAYER
  2
DETAIL
 70
     0
 62
     5
  6
CONTINUOUS
  0
LAYER
  2
ARRANGE
 70
     0
 62
     1
  6
CONTINUOUS
  0
LAYER
  2
DEFPOINTS
 70
     0
 62
     7
  6
CONTINUOUS
  0
LAYER
  2
ETC
 70
     0
 62
    61
  6
CONTINUOUS
  0
LAYER
  2
FIX
 70
     0
 62
    11
  6
CONTINUOUS
  0
LAYER
  2
NOTE
 70
     0
 62
     4
  6
CONTINUOUS
  0
LAYER
  2
SERVICESPACE
 70
     0
 62
     2
  6
DASHDOT
  0
LAYER
  2
SYMBOLLINE
 70
     0
 62
    15
  6
CONTINUOUS
  0
ENDTAB
  0
TABLE
  2
STYLE
 70
     2
  0
STYLE
  2
STANDARD
 70
     0
 40
64.0
 41
0.9
 50
0.0
 71
     0
 42
64.0
  3
SIMPLEX.shx
  4
BIGFONT.shx
  0
STYLE
  2
ANNOTATIVE
 70
     0
 40
0.0
 41
1.0
 50
0.0
 71
     0
 42
0.2
  3
txt
  4

  0
ENDTAB
  0
TABLE
  2
VIEW
 70
     1
  0
VIEW
  2
ALL
 70
     0
 40
4282.6198079999967
 10
0.0
 20
41.309903999999989
 41
5940.0
 11
0.0
 21
0.0
 31
1.0
 12
0.0
 22
0.0
 32
0.0
 42
50.0
 43
0.0
 44
0.0
 50
0.0
 71
     0
  0
ENDTAB
  0
TABLE
  2
UCS
 70
     0
  0
ENDTAB
  0
TABLE
  2
APPID
 70
     4
  0
APPID
  2
ACAD
 70
     0
  0
APPID
  2
ACADANNOTATIVE
 70
     0
  0
APPID
  2
ACAD_MLEADERVER
 70
     0
  0
APPID
  2
AUTOCAD_POSTSCRIPT_FIGURE
 70
     0
  0
ENDTAB
  0
TABLE
  2
DIMSTYLE
 70
     2
  0
DIMSTYLE
  2
STANDARD
 70
     0
  3

  4

  5

  6

  7

 40
1.0
 41
0.18
 42
0.0625
 43
0.38
 44
0.18
 45
0.0
 46
0.0
 47
0.0
 48
0.0
140
0.18
141
0.09
142
0.0
143
25.399999999999999
144
1.0
145
0.0
146
1.0
147
0.09
 71
     0
 72
     0
 73
     1
 74
     1
 75
     0
 76
     0
 77
     0
 78
     0
170
     0
171
     2
172
     0
173
     0
174
     0
175
     0
176
     7
177
     7
178
     7
  0
DIMSTYLE
  2
ANNOTATIVE
 70
     0
  3

  4

  5

  6

  7

 40
1.0
 41
0.18
 42
0.0625
 43
0.38
 44
0.18
 45
0.0
 46
0.0
 47
0.0
 48
0.0
140
0.18
141
0.09
142
0.0
143
25.399999999999999
144
1.0
145
0.0
146
1.0
147
0.09
 71
     0
 72
     0
 73
     1
 74
     1
 75
     0
 76
     0
 77
     0
 78
     0
170
     0
171
     2
172
     0
173
     0
174
     0
175
     0
176
     0
177
     0
178
     0
  0
ENDTAB
  0
ENDSEC
  0
SECTION
  2
BLOCKS
  0
BLOCK
  8
0
  2
$MODEL_SPACE
 70
     0
 10
0.0
 20
0.0
 30
0.0
  3
$MODEL_SPACE
  1

  0
ENDBLK
  5
22D
  8
0
  0
BLOCK
 67
     1
  8
0
  2
$PAPER_SPACE
 70
     0
 10
0.0
 20
0.0
 30
0.0
  3
$PAPER_SPACE
  1

  0
ENDBLK
  5
229
 67
     1
  8
0
  0
BLOCK
  8
0
  2
DOT1
 70
     0
 10
0.0
 20
0.0
 30
0.0
  3
DOT1
  1

  0
CIRCLE
  5
11F
  8
SIZE
  6
CONTINUOUS
 62
     7
 10
0.0
 20
0.0
 30
0.0
 40
3.0
  0
ENDBLK
  5
120
  8
0
  0
BLOCK
  8
0
  2
_ORIGIN
 70
     0
 10
0.0
 20
0.0
 30
0.0
  3
_ORIGIN
  1

  0
CIRCLE
  5
123
  8
0
  6
CONTINUOUS
 62
     7
 10
0.0
 20
0.0
 30
0.0
 40
0.5
  0
LINE
  5
124
  8
0
  6
CONTINUOUS
 62
     7
 10
0.0
 20
0.0
 30
0.0
 11
-1.0
 21
0.0
 31
0.0
  0
ENDBLK
  5
125
  8
0
  0
ENDSEC
  0
SECTION
  2
ENTITIES
  0
LINE
  5
126
  8
BASIS
  6
DASHDOT
 62
     6
 10
-116.2689
 20
0.0
 30
0.0
 11
121.8722239999999
 21
0.0
 31
0.0
  0
LINE
  5
127
  8
BASIS
  6
DASHDOT
 62
     6
 10
0.0
 20
-126.605211
 30
0.0
 11
0.0
 21
118.438672
 31
0.0
  0
POINT
  5
128
  8
ARRANGE
  6
CONTINUOUS
 62
     1
 10
0.0
 20
0.0
 30
0.0
  0
CIRCLE
  5
129
  8
ARRANGE
  6
CONTINUOUS
 62
     1
 10
0.0
 20
0.0
 30
0.0
 40
40.0
  0
CIRCLE
  5
12A
  8
DETAIL
  6
CONTINUOUS
 62
     5
 10
0.0
 20
0.0
 30
0.0
 40
87.5
  0
LINE
  5
12B
  8
SIZE
  6
CONTINUOUS
 62
    30
 10
94.0
 20
-24.0
 30
0.0
 11
94.0
 21
-305.84287
 31
0.0
  0
LINE
  5
12C
  8
SIZE
  6
CONTINUOUS
 62
    30
 10
-94.0
 20
-24.0
 30
0.0
 11
-94.0
 21
-305.84287
 31
0.0
  0
LINE
  5
12D
  8
SIZE
  6
CONTINUOUS
 62
    30
 10
82.0
 20
-285.84287
 30
0.0
 11
-82.0
 21
-285.84287
 31
0.0
  0
CIRCLE
  5
12E
  8
SIZE
  6
CONTINUOUS
 62
    30
 10
94.0
 20
-285.84287
 30
0.0
 40
6.0
  0
LINE
  5
12F
  8
SIZE
  6
CONTINUOUS
 62
    30
 10
94.0
 20
-285.84287
 30
0.0
 11
82.0
 21
-285.84287
 31
0.0
  0
CIRCLE
  5
130
  8
SIZE
  6
CONTINUOUS
 62
    30
 10
-94.0
 20
-285.84287
 30
0.0
 40
6.0
  0
LINE
  5
131
  8
SIZE
  6
CONTINUOUS
 62
    30
 10
-94.0
 20
-285.84287
 30
0.0
 11
-82.0
 21
-285.84287
 31
0.0
  0
TEXT
  5
132
  8
SIZE
  6
CONTINUOUS
 62
    30
 10
-68.571428571428555
 20
-260.84287
 30
0.0
 40
64.0
  1
188
 41
0.9
 72
     1
 11
0.0
 21
-260.84287
 31
0.0
  0
LINE
  5
133
  8
DETAIL
  6
CONTINUOUS
 62
     5
 10
-94.0
 20
-4.0
 30
0.0
 11
-87.408523999999986
 21
-4.0
 31
0.0
  0
LINE
  5
134
  8
DETAIL
  6
CONTINUOUS
 62
     5
 10
87.408523999999986
 20
-4.0
 30
0.0
 11
94.0
 21
-4.0
 31
0.0
  0
ARC
  5
135
  8
DETAIL
  6
CONTINUOUS
 62
     5
 10
0.0
 20
-7.918366999999999
 30
0.0
 40
94.081632999999997
 50
177.61302099999989
 51
2.3869790000000002
  0
ARC
  5
136
  8
DETAIL
  6
CONTINUOUS
 62
     5
 10
0.0
 20
-7.9176950000000001
 30
0.0
 40
93.282304999999994
 50
177.5929679999999
 51
2.4070320000000001
  0
LINE
  5
137
  8
SIZE
  6
CONTINUOUS
 62
    30
 10
87.5
 20
20.0
 30
0.0
 11
87.5
 21
284.16696400000001
 31
0.0
  0
LINE
  5
138
  8
SIZE
  6
CONTINUOUS
 62
    30
 10
-87.5
 20
20.0
 30
0.0
 11
-87.5
 21
284.16696400000001
 31
0.0
  0
LINE
  5
139
  8
SIZE
  6
CONTINUOUS
 62
    30
 10
99.500000000000014
 20
264.16696399999989
 30
0.0
 11
111.4999999999999
 21
264.16696399999989
 31
0.0
  0
LINE
  5
13A
  8
SIZE
  6
CONTINUOUS
 62
    30
 10
-99.500000000000014
 20
264.16696399999989
 30
0.0
 11
-111.4999999999999
 21
264.16696399999989
 31
0.0
  0
LINE
  5
13B
  8
SIZE
  6
CONTINUOUS
 62
    30
 10
87.5
 20
264.16696399999989
 30
0.0
 11
-87.5
 21
264.16696399999989
 31
0.0
  0
CIRCLE
  5
13C
  8
SIZE
  6
CONTINUOUS
 62
    30
 10
87.5
 20
264.16696399999989
 30
0.0
 40
6.0
  0
LINE
  5
13D
  8
SIZE
  6
CONTINUOUS
 62
    30
 10
87.5
 20
264.16696399999989
 30
0.0
 11
99.500000000000014
 21
264.16696399999989
 31
0.0
  0
CIRCLE
  5
13E
  8
SIZE
  6
CONTINUOUS
 62
    30
 10
-87.5
 20
264.16696399999989
 30
0.0
 40
6.0
  0
LINE
  5
13F
  8
SIZE
  6
CONTINUOUS
 62
    30
 10
-87.5
 20
264.16696399999989
 30
0.0
 11
-99.500000000000014
 21
264.16696399999989
 31
0.0
  0
TEXT
  5
140
  8
SIZE
  6
CONTINUOUS
 62
    30
 10
-108.89142857142851
 20
289.16696399999989
 30
0.0
 40
64.0
  1
φ175
 41
0.9
 72
     1
 11
0.0
 21
289.16696399999989
 31
0.0
  0
CIRCLE
  5
141
  8
OUTLINE
  6
CONTINUOUS
 62
     3
 10
0.0
 20
0.0
 30
0.0
 40
87.5
  0
CIRCLE
  5
142
  8
DETAIL
  6
CONTINUOUS
 62
     5
 10
0.0
 20
0.0
 30
0.0
 40
50.5
  0
CIRCLE
  5
143
  8
DETAIL
  6
CONTINUOUS
 62
     5
 10
0.0
 20
0.0
 30
0.0
 40
65.0
  0
CIRCLE
  5
144
  8
DETAIL
  6
CONTINUOUS
 62
     5
 10
0.0
 20
0.0
 30
0.0
 40
63.0
  0
CIRCLE
  5
145
  8
FIX
  6
CONTINUOUS
 62
    11
 39
50.0
 10
55.0
 20
55.0
 30
0.0
 40
6.0
  0
LINE
  5
146
  8
NOTE
  6
CONTINUOUS
 62
     4
 10
55.0
 20
35.0
 30
0.0
 11
55.0
 21
75.0
 31
0.0
  0
LINE
  5
147
  8
NOTE
  6
CONTINUOUS
 62
     4
 10
35.0
 20
55.0
 30
0.0
 11
75.0
 21
55.0
 31
0.0
  0
CIRCLE
  5
148
  8
DETAIL
  6
CONTINUOUS
 62
     5
 10
55.0
 20
55.0
 30
0.0
 40
6.0
  0
CIRCLE
  5
149
  8
FIX
  6
CONTINUOUS
 62
    11
 39
50.0
 10
55.0
 20
-55.0
 30
0.0
 40
6.0
  0
CIRCLE
  5
14A
  8
DETAIL
  6
CONTINUOUS
 62
     5
 10
55.0
 20
-55.0
 30
0.0
 40
6.0
  0
LINE
  5
14B
  8
NOTE
  6
CONTINUOUS
 62
     4
 10
55.0
 20
-35.0
 30
0.0
 11
55.0
 21
-75.0
 31
0.0
  0
LINE
  5
14C
  8
NOTE
  6
CONTINUOUS
 62
     4
 10
35.0
 20
-55.0
 30
0.0
 11
75.0
 21
-55.0
 31
0.0
  0
CIRCLE
  5
14D
  8
FIX
  6
CONTINUOUS
 62
    11
 39
50.0
 10
-55.0
 20
55.0
 30
0.0
 40
6.0
  0
CIRCLE
  5
14E
  8
DETAIL
  6
CONTINUOUS
 62
     5
 10
-55.0
 20
55.0
 30
0.0
 40
6.0
  0
LINE
  5
14F
  8
NOTE
  6
CONTINUOUS
 62
     4
 10
-55.0
 20
35.0
 30
0.0
 11
-55.0
 21
75.0
 31
0.0
  0
LINE
  5
150
  8
NOTE
  6
CONTINUOUS
 62
     4
 10
-35.0
 20
55.0
 30
0.0
 11
-75.0
 21
55.0
 31
0.0
  0
CIRCLE
  5
151
  8
FIX
  6
CONTINUOUS
 62
    11
 39
50.0
 10
-55.0
 20
-55.0
 30
0.0
 40
6.0
  0
LINE
  5
152
  8
NOTE
  6
CONTINUOUS
 62
     4
 10
-55.0
 20
-35.0
 30
0.0
 11
-55.0
 21
-75.0
 31
0.0
  0
LINE
  5
153
  8
NOTE
  6
CONTINUOUS
 62
     4
 10
-35.0
 20
-55.0
 30
0.0
 11
-75.0
 21
-55.0
 31
0.0
  0
CIRCLE
  5
154
  8
DETAIL
  6
CONTINUOUS
 62
     5
 10
-55.0
 20
-55.0
 30
0.0
 40
6.0
  0
LINE
  5
155
  8
SIZE
  6
CONTINUOUS
 62
    30
 10
-95.0
 20
55.0
 30
0.0
 11
-262.51595299999991
 21
55.0
 31
0.0
  0
LINE
  5
156
  8
SIZE
  6
CONTINUOUS
 62
    30
 10
-95.0
 20
-55.0
 30
0.0
 11
-262.51595299999991
 21
-55.0
 31
0.0
  0
LINE
  5
157
  8
SIZE
  6
CONTINUOUS
 62
    30
 10
-242.51595299999991
 20
67.0
 30
0.0
 11
-242.51595299999991
 21
79.0
 31
0.0
  0
LINE
  5
158
  8
SIZE
  6
CONTINUOUS
 62
    30
 10
-242.51595299999991
 20
-67.0
 30
0.0
 11
-242.51595299999991
 21
-79.0
 31
0.0
  0
LINE
  5
159
  8
SIZE
  6
CONTINUOUS
 62
    30
 10
-242.51595299999991
 20
55.0
 30
0.0
 11
-242.51595299999991
 21
-55.0
 31
0.0
  0
CIRCLE
  5
15A
  8
SIZE
  6
CONTINUOUS
 62
    30
 10
-242.51595299999991
 20
55.0
 30
0.0
 40
6.0
  0
LINE
  5
15B
  8
SIZE
  6
CONTINUOUS
 62
    30
 10
-242.51595299999991
 20
55.0
 30
0.0
 11
-242.51595299999991
 21
67.0
 31
0.0
  0
CIRCLE
  5
15C
  8
SIZE
  6
CONTINUOUS
 62
    30
 10
-242.51595299999991
 20
-55.0
 30
0.0
 40
6.0
  0
LINE
  5
15D
  8
SIZE
  6
CONTINUOUS
 62
    30
 10
-242.51595299999991
 20
-55.0
 30
0.0
 11
-242.51595299999991
 21
-67.0
 31
0.0
  0
TEXT
  5
15E
  8
SIZE
  6
CONTINUOUS
 62
    30
 10
-267.51595299999991
 20
-99.565714285714293
 30
0.0
 40
64.0
  1
□110
 50
90.0
 41
0.9
 72
     1
 11
-267.51595299999991
 21
0.0
 31
0.0
  0
LINE
  5
15F
  8
NOTE
  6
CONTINUOUS
 62
     4
 39
50.0
 10
-119.789036
 20
140.6066229999999
 30
0.0
 11
-406.33575500000001
 21
140.6066229999999
 31
0.0
  0
TEXT
  5
160
  8
NOTE
  6
CONTINUOUS
 62
     4
 10
-403.59082799999999
 20
168.19307000000001
 30
0.0
 40
64.0
  1
4-φ12
 41
0.9
  0
LINE
  5
161
  8
NOTE
  6
CONTINUOUS
 62
     4
 39
50.0
 10
-55.0
 20
55.0
 30
0.0
 11
-119.789036
 21
140.6066229999999
 31
0.0
  0
LINE
  5
162
  8
NOTE
  6
CONTINUOUS
 62
     4
 10
-86.649593999999979
 20
79.460237000000006
 30
0.0
 11
-55.0
 21
55.0
 31
0.0
  0
LINE
  5
163
  8
NOTE
  6
CONTINUOUS
 62
     4
 10
-55.0
 20
55.0
 30
0.0
 11
-70.179233999999994
 21
92.007983999999993
 31
0.0
  0
TEXT
  5
164
  8
SIZE
  6
CONTINUOUS
 62
    30
 10
330.72411399999982
 20
-160.0780849999999
 30
0.0
 40
64.0
  1
（フタ部）
 50
90.0
 41
0.9
  0
LINE
  5
165
  8
SIZE
  6
CONTINUOUS
 62
    30
 10
153.59881200000001
 20
-170.588762
 30
0.0
 11
186.52325400000001
 21
-207.15506099999999
 31
0.0
  0
LINE
  5
166
  8
SIZE
  6
CONTINUOUS
 62
    30
 10
153.59881200000001
 20
170.588762
 30
0.0
 11
186.52325400000001
 21
207.15506099999999
 31
0.0
  0
ARC
  5
167
  8
SIZE
  6
CONTINUOUS
 62
    30
 10
0.0
 20
0.0
 30
0.0
 40
258.75462999999991
 50
314.65738599999992
 51
45.342613999999998
  0
CIRCLE
  5
168
  8
SIZE
  6
CONTINUOUS
 62
    30
 10
173.1406419999999
 20
-192.29216400000001
 30
0.0
 40
6.0
  0
LINE
  5
169
  8
SIZE
  6
CONTINUOUS
 62
    30
 10
173.1406419999999
 20
-192.29216400000001
 30
0.0
 11
181.8697929999999
 21
-184.05797100000001
 31
0.0
  0
CIRCLE
  5
16A
  8
SIZE
  6
CONTINUOUS
 62
    30
 10
173.1406419999999
 20
192.29216400000001
 30
0.0
 40
6.0
  0
LINE
  5
16B
  8
SIZE
  6
CONTINUOUS
 62
    30
 10
173.1406419999999
 20
192.29216400000001
 30
0.0
 11
181.8697929999999
 21
184.05797100000001
 31
0.0
  0
TEXT
  5
16C
  8
SIZE
  6
CONTINUOUS
 62
    30
 10
233.75462999999999
 20
-60.342857142857149
 30
0.0
 40
64.0
  1
96°
 50
90.0
 41
0.9
 72
     1
 11
233.75462999999999
 21
0.0
 31
0.0
  0
LINE
  5
16D
  8
BASIS
  6
DASHDOT
 62
     6
 10
-43.60790699999999
 20
-48.431486999999997
 30
0.0
 11
140.2161989999999
 21
155.725866
 31
0.0
  0
LINE
  5
16E
  8
BASIS
  6
DASHDOT
 62
     6
 10
-37.99384899999999
 20
42.196443999999993
 30
0.0
 11
140.2161989999999
 21
-155.725866
 31
0.0
  0
TEXT
  5
16F
  8
ETC
  6
CONTINUOUS
 62
    61
 10
276.17556496159591
 20
256.61855932561241
 30
0.0
 40
40.0
  1
システム部材
 41
0.9
  0
TEXT
  5
170
  8
ETC
  6
CONTINUOUS
 62
    61
 10
279.11858396159602
 20
324.66986532561248
 30
0.0
 40
40.0
  1
P-100CVSD5_3
 41
0.9
  0
TEXT
  5
171
  8
ETC
  6
CONTINUOUS
 62
    61
 10
418.22441545434481
 20
202.75267317985711
 30
0.0
 40
40.0
  1
P-100CVSD5
 41
0.9
  0
TEXT
  5
172
  8
ETC
  6
CONTINUOUS
 62
    61
 10
420.68166947761142
 20
148.7276012625864
 30
0.0
 40
40.0
  1
P-100CVSQD5
 41
0.9
  0
LINE
  5
174
  8
OUTLINE
  6
CONTINUOUS
 62
     3
 39
50.0
 10
-87.408523999999986
 20
-4.0
 30
0.0
 11
-94.000000336240234
 21
-3.9999993891799539
 31
0.0
  0
LINE
  5
175
  8
OUTLINE
  6
CONTINUOUS
 62
     3
 39
50.0
 10
87.408523999999986
 20
-4.0
 30
0.0
 11
94.000000336240234
 21
-3.99999938918012
 31
0.0
  0
ARC
  5
176
  8
OUTLINE
  6
CONTINUOUS
 62
     3
 39
50.0
 10
-0.0000001808510665
 20
-7.9183671734693819
 30
0.0
 40
94.081632826530594
 50
177.61302088986139
 51
2.3869787378256482
  0
ENDSEC
  0
EOF
