  0
SECTION
  2
HEADER
  9
$ACADVER
  1
AC1009
  9
$INSBASE
 10
0.0
 20
0.0
 30
0.0
  9
$EXTMIN
 10
-315.87064958395422
 20
-494.11009577348699
 30
-0.0015257624927045
  9
$EXTMAX
 10
911.81031416846599
 20
256.9885330239631
 30
50.001525995323327
  9
$LIMMIN
 10
-2970.0
 20
-2100.0
  9
$LIMMAX
 10
2970.0
 20
2100.0
  9
$ORTHOMODE
 70
     1
  9
$REGENMODE
 70
     0
  9
$FILLMODE
 70
     1
  9
$QTEXTMODE
 70
     0
  9
$MIRRTEXT
 70
     0
  9
$DRAGMODE
 70
     2
  9
$LTSCALE
 40
20.0
  9
$OSMODE
 70
    47
  9
$ATTMODE
 70
     1
  9
$TEXTSIZE
 40
64.0
  9
$TRACEWID
 40
0.05
  9
$TEXTSTYLE
  7
STANDARD
  9
$CLAYER
  8
OUTLINE
  9
$CELTYPE
  6
CONTINUOUS
  9
$CECOLOR
 62
     3
  9
$DIMSCALE
 40
1.0
  9
$DIMASZ
 40
12.0
  9
$DIMEXO
 40
20.0
  9
$DIMDLI
 40
200.0
  9
$DIMRND
 40
0.0
  9
$DIMDLE
 40
0.0
  9
$DIMEXE
 40
20.0
  9
$DIMTP
 40
0.0
  9
$DIMTM
 40
0.0
  9
$DIMTXT
 40
64.0
  9
$DIMCEN
 40
0.09
  9
$DIMTSZ
 40
0.0
  9
$DIMTOL
 70
     0
  9
$DIMLIM
 70
     0
  9
$DIMTIH
 70
     0
  9
$DIMTOH
 70
     0
  9
$DIMSE1
 70
     0
  9
$DIMSE2
 70
     0
  9
$DIMTAD
 70
     1
  9
$DIMZIN
 70
     8
  9
$DIMBLK
  1
DOT1
  9
$DIMASO
 70
     1
  9
$DIMSHO
 70
     0
  9
$DIMPOST
  1

  9
$DIMAPOST
  1

  9
$DIMALT
 70
     0
  9
$DIMALTD
 70
     2
  9
$DIMALTF
 40
25.399999999999999
  9
$DIMLFAC
 40
1.0
  9
$DIMTOFL
 70
     1
  9
$DIMTVP
 40
0.0
  9
$DIMTIX
 70
     1
  9
$DIMSOXD
 70
     0
  9
$DIMSAH
 70
     1
  9
$DIMBLK1
  1
ORIGIN
  9
$DIMBLK2
  1
ORIGIN
  9
$DIMSTYLE
  2
STANDARD
  9
$DIMCLRD
 70
     7
  9
$DIMCLRE
 70
     7
  9
$DIMCLRT
 70
     7
  9
$DIMTFAC
 40
1.0
  9
$DIMGAP
 40
25.0
  9
$LUNITS
 70
     2
  9
$LUPREC
 70
     4
  9
$SKETCHINC
 40
0.1
  9
$FILLETRAD
 40
4.0
  9
$AUNITS
 70
     1
  9
$AUPREC
 70
     3
  9
$MENU
  1
ACAD
  9
$ELEVATION
 40
0.0
  9
$PELEVATION
 40
0.0
  9
$THICKNESS
 40
50.0
  9
$LIMCHECK
 70
     0
  9
$BLIPMODE
 70
     0
  9
$CHAMFERA
 40
0.0
  9
$CHAMFERB
 40
0.0
  9
$SKPOLY
 70
     0
  9
$TDCREATE
 40
2453019.6230103709
  9
$TDUPDATE
 40
2455070.436871829
  9
$TDINDWG
 40
0.0862555324
  9
$TDUSRTIMER
 40
0.0862555324
  9
$USRTIMER
 70
     1
  9
$ANGBASE
 50
0.0
  9
$ANGDIR
 70
     0
  9
$PDMODE
 70
     3
  9
$PDSIZE
 40
-2.0
  9
$PLINEWID
 40
0.0
  9
$COORDS
 70
     0
  9
$SPLFRAME
 70
     0
  9
$SPLINETYPE
 70
     6
  9
$SPLINESEGS
 70
     8
  9
$ATTDIA
 70
     0
  9
$ATTREQ
 70
     1
  9
$HANDLING
 70
     1
  9
$HANDSEED
  5
575
  9
$SURFTAB1
 70
     6
  9
$SURFTAB2
 70
     6
  9
$SURFTYPE
 70
     6
  9
$SURFU
 70
     6
  9
$SURFV
 70
     6
  9
$UCSNAME
  2

  9
$UCSORG
 10
0.0
 20
0.0
 30
0.0
  9
$UCSXDIR
 10
1.0
 20
0.0
 30
0.0
  9
$UCSYDIR
 10
0.0
 20
1.0
 30
0.0
  9
$PUCSNAME
  2

  9
$PUCSORG
 10
0.0
 20
0.0
 30
0.0
  9
$PUCSXDIR
 10
1.0
 20
0.0
 30
0.0
  9
$PUCSYDIR
 10
0.0
 20
1.0
 30
0.0
  9
$USERI1
 70
     0
  9
$USERI2
 70
     0
  9
$USERI3
 70
     0
  9
$USERI4
 70
     0
  9
$USERI5
 70
     0
  9
$USERR1
 40
20.0
  9
$USERR2
 40
0.0
  9
$USERR3
 40
0.0
  9
$USERR4
 40
0.0
  9
$USERR5
 40
0.0
  9
$WORLDVIEW
 70
     1
  9
$SHADEDGE
 70
     3
  9
$SHADEDIF
 70
    70
  9
$TILEMODE
 70
     1
  9
$MAXACTVP
 70
    48
  9
$PLIMCHECK
 70
     0
  9
$PEXTMIN
 10
-1.0000000000000000E+020
 20
-1.0000000000000000E+020
 30
-1.0000000000000000E+020
  9
$PEXTMAX
 10
1.0000000000000000E+020
 20
1.0000000000000000E+020
 30
1.0000000000000000E+020
  9
$PLIMMIN
 10
0.0
 20
0.0
  9
$PLIMMAX
 10
12.0
 20
9.0
  9
$UNITMODE
 70
     0
  9
$VISRETAIN
 70
     0
  9
$PLINEGEN
 70
     0
  9
$PSLTSCALE
 70
     0
  0
ENDSEC
  0
SECTION
  2
TABLES
  0
TABLE
  2
VPORT
 70
     1
  0
VPORT
  2
*ACTIVE
 70
     0
 10
0.0
 20
0.0
 11
1.0
 21
1.0
 12
397.10212784977222
 22
-208.52764411528511
 13
0.0
 23
0.0
 14
1.0
 24
1.0
 15
0.0
 25
0.0
 16
0.0
 26
0.0
 36
1.0
 17
0.0
 27
0.0
 37
0.0
 40
1211.1509778589941
 41
1.776671408250355
 42
50.0
 43
0.0
 44
0.0
 50
0.0
 51
0.0
 71
     0
 72
  1000
 73
     1
 74
     0
 75
     0
 76
     0
 77
     0
 78
     0
  0
ENDTAB
  0
TABLE
  2
LTYPE
 70
     2
  0
LTYPE
  2
CONTINUOUS
 70
     0
  3
実線
 72
    65
 73
     0
 40
0.0
  0
LTYPE
  2
DASHDOT
 70
     0
  3
____ _ ____ _ ____ _ ____ _ ____ _ ____ _ ____
 72
    65
 73
     4
 40
5.5
 49
4.0
 49
-0.6
 49
0.3
 49
-0.6
  0
ENDTAB
  0
TABLE
  2
LAYER
 70
    12
  0
LAYER
  2
0
 70
     0
 62
     7
  6
CONTINUOUS
  0
LAYER
  2
OUTLINE
 70
     0
 62
     3
  6
CONTINUOUS
  0
LAYER
  2
SIZE
 70
     0
 62
    30
  6
CONTINUOUS
  0
LAYER
  2
BASIS
 70
     0
 62
     6
  6
DASHDOT
  0
LAYER
  2
DETAIL
 70
     0
 62
     5
  6
CONTINUOUS
  0
LAYER
  2
ARRANGE
 70
     0
 62
     1
  6
CONTINUOUS
  0
LAYER
  2
DEFPOINTS
 70
     0
 62
     7
  6
CONTINUOUS
  0
LAYER
  2
ETC
 70
     0
 62
    61
  6
CONTINUOUS
  0
LAYER
  2
FIX
 70
     0
 62
    11
  6
CONTINUOUS
  0
LAYER
  2
NOTE
 70
     0
 62
     4
  6
CONTINUOUS
  0
LAYER
  2
SERVICESPACE
 70
     0
 62
     2
  6
DASHDOT
  0
LAYER
  2
SYMBOLLINE
 70
     0
 62
    15
  6
CONTINUOUS
  0
ENDTAB
  0
TABLE
  2
STYLE
 70
     2
  0
STYLE
  2
STANDARD
 70
     0
 40
64.0
 41
0.9
 50
0.0
 71
     0
 42
64.0
  3
SIMPLEX.shx
  4
BIGFONT.shx
  0
STYLE
  2
ANNOTATIVE
 70
     0
 40
0.0
 41
1.0
 50
0.0
 71
     0
 42
0.2
  3
txt
  4

  0
ENDTAB
  0
TABLE
  2
VIEW
 70
     1
  0
VIEW
  2
ALL
 70
     0
 40
4282.6198079999967
 10
0.0
 20
41.309903999999989
 41
5940.0
 11
0.0
 21
0.0
 31
1.0
 12
0.0
 22
0.0
 32
0.0
 42
50.0
 43
0.0
 44
0.0
 50
0.0
 71
     0
  0
ENDTAB
  0
TABLE
  2
UCS
 70
     0
  0
ENDTAB
  0
TABLE
  2
APPID
 70
     4
  0
APPID
  2
ACAD
 70
     0
  0
APPID
  2
ACADANNOTATIVE
 70
     0
  0
APPID
  2
ACAD_MLEADERVER
 70
     0
  0
APPID
  2
AUTOCAD_POSTSCRIPT_FIGURE
 70
     0
  0
ENDTAB
  0
TABLE
  2
DIMSTYLE
 70
     2
  0
DIMSTYLE
  2
STANDARD
 70
     0
  3

  4

  5

  6

  7

 40
1.0
 41
0.18
 42
0.0625
 43
0.38
 44
0.18
 45
0.0
 46
0.0
 47
0.0
 48
0.0
140
0.18
141
0.09
142
0.0
143
25.399999999999999
144
1.0
145
0.0
146
1.0
147
0.09
 71
     0
 72
     0
 73
     1
 74
     1
 75
     0
 76
     0
 77
     0
 78
     0
170
     0
171
     2
172
     0
173
     0
174
     0
175
     0
176
     7
177
     7
178
     7
  0
DIMSTYLE
  2
ANNOTATIVE
 70
     0
  3

  4

  5

  6

  7

 40
1.0
 41
0.18
 42
0.0625
 43
0.38
 44
0.18
 45
0.0
 46
0.0
 47
0.0
 48
0.0
140
0.18
141
0.09
142
0.0
143
25.399999999999999
144
1.0
145
0.0
146
1.0
147
0.09
 71
     0
 72
     0
 73
     1
 74
     1
 75
     0
 76
     0
 77
     0
 78
     0
170
     0
171
     2
172
     0
173
     0
174
     0
175
     0
176
     0
177
     0
178
     0
  0
ENDTAB
  0
ENDSEC
  0
SECTION
  2
BLOCKS
  0
BLOCK
  8
0
  2
$MODEL_SPACE
 70
     0
 10
0.0
 20
0.0
 30
0.0
  3
$MODEL_SPACE
  1

  0
ENDBLK
  5
521
  8
0
  0
BLOCK
 67
     1
  8
0
  2
$PAPER_SPACE
 70
     0
 10
0.0
 20
0.0
 30
0.0
  3
$PAPER_SPACE
  1

  0
ENDBLK
  5
51D
 67
     1
  8
0
  0
BLOCK
  8
0
  2
DOT1
 70
     0
 10
0.0
 20
0.0
 30
0.0
  3
DOT1
  1

  0
CIRCLE
  5
361
  8
SIZE
  6
CONTINUOUS
 62
     7
 10
0.0
 20
0.0
 30
0.0
 40
3.0
  0
ENDBLK
  5
362
  8
0
  0
BLOCK
  8
0
  2
_ORIGIN
 70
     0
 10
0.0
 20
0.0
 30
0.0
  3
_ORIGIN
  1

  0
CIRCLE
  5
365
  8
0
  6
CONTINUOUS
 62
     7
 10
0.0
 20
0.0
 30
0.0
 40
0.5
  0
LINE
  5
366
  8
0
  6
CONTINUOUS
 62
     7
 10
0.0
 20
0.0
 30
0.0
 11
-1.0
 21
0.0
 31
0.0
  0
ENDBLK
  5
367
  8
0
  0
ENDSEC
  0
SECTION
  2
ENTITIES
  0
POINT
  5
368
  8
ARRANGE
  6
CONTINUOUS
 62
     1
 10
0.0000000000000142
 20
0.0
 30
0.0
  0
CIRCLE
  5
369
  8
ARRANGE
  6
CONTINUOUS
 62
     1
 10
0.0000000000000142
 20
0.0
 30
0.0
 40
40.0
  0
LINE
  5
36A
  8
NOTE
  6
CONTINUOUS
 62
     4
 10
0.0000000000000142
 20
35.0
 30
0.0
 11
0.0000000000000142
 21
75.0
 31
0.0
  0
LINE
  5
36B
  8
NOTE
  6
CONTINUOUS
 62
     4
 10
19.999999999999979
 20
55.0
 30
0.0
 11
-20.0
 21
55.0
 31
0.0
  0
CIRCLE
  5
36C
  8
FIX
  6
CONTINUOUS
 62
    11
 39
50.0
 10
0.0000000000000142
 20
55.0
 30
0.0
 40
6.0
  0
CIRCLE
  5
36D
  8
FIX
  6
CONTINUOUS
 62
    11
 39
50.0
 10
0.0000000000000142
 20
-55.0
 30
0.0
 40
6.0
  0
LINE
  5
36E
  8
NOTE
  6
CONTINUOUS
 62
     4
 10
0.0000000000000142
 20
-35.0
 30
0.0
 11
0.0000000000000142
 21
-75.0
 31
0.0
  0
LINE
  5
36F
  8
NOTE
  6
CONTINUOUS
 62
     4
 10
19.999999999999979
 20
-55.0
 30
0.0
 11
-20.0
 21
-55.0
 31
0.0
  0
TEXT
  5
370
  8
NOTE
  6
CONTINUOUS
 62
     4
 10
119.9478929999997
 20
192.698621
 30
0.0
 40
64.0
  1
4-φ12
 41
0.9
  0
LINE
  5
371
  8
NOTE
  6
CONTINUOUS
 62
     4
 39
50.0
 10
0.0000000000000142
 20
55.0
 30
0.0
 11
107.49951999999981
 21
165.11217400000001
 31
0.0
  0
LINE
  5
372
  8
NOTE
  6
CONTINUOUS
 62
     4
 39
50.0
 10
404.01781299999988
 20
165.11217400000001
 30
0.0
 11
107.49951999999981
 21
165.11217400000001
 31
0.0
  0
LINE
  5
373
  8
NOTE
  6
CONTINUOUS
 62
     4
 10
34.46318399999992
 20
75.304900000000004
 30
0.0
 11
0.0000000000000142
 21
55.0
 31
0.0
  0
LINE
  5
374
  8
NOTE
  6
CONTINUOUS
 62
     4
 10
0.0000000000000142
 20
55.0
 30
0.0
 11
19.693542000000011
 21
89.816151999999974
 31
0.0
  0
LINE
  5
375
  8
DETAIL
  6
CONTINUOUS
 62
     5
 10
0.0000000000000142
 20
0.0
 30
0.0
 11
0.0000000000000142
 21
-90.591499999999996
 31
0.0
  0
LINE
  5
376
  8
DETAIL
  6
CONTINUOUS
 62
     5
 10
-9.4999999999999911
 20
-94.091499999999996
 30
0.0
 11
-3.5
 21
-94.091499999999996
 31
0.0
  0
LINE
  5
377
  8
DETAIL
  6
CONTINUOUS
 62
     5
 10
0.0000120000000123
 20
85.499981999999989
 30
0.0
 11
3.0000120000000119
 21
85.499981999999989
 31
0.0
  0
LINE
  5
378
  8
DETAIL
  6
CONTINUOUS
 62
     5
 10
3.0000120000000119
 20
85.499981999999989
 30
0.0
 11
2.9999989999999879
 21
-4.0
 31
0.0
  0
LINE
  5
379
  8
DETAIL
  6
CONTINUOUS
 62
     5
 10
-8.0
 20
86.5
 30
0.0
 11
0.0000000000000142
 21
86.5
 31
0.0
  0
LINE
  5
37A
  8
BASIS
  6
DASHDOT
 62
     6
 10
-133.72682800000001
 20
0.0
 30
0.0
 11
28.829015999999982
 21
0.0
 31
0.0
  0
ARC
  5
37B
  8
DETAIL
  6
CONTINUOUS
 62
     5
 10
-19.606988000000001
 20
-67.002478999999994
 30
0.0
 40
1.6069690000000001
 50
295.08298199999967
 51
30.119538000000141
  0
ARC
  5
37C
  8
DETAIL
  6
CONTINUOUS
 62
     5
 10
-19.606988000000001
 20
-67.002478999999994
 30
0.0
 40
1.6069690000000001
 50
270.0
 51
295.08298199999967
  0
LINE
  5
37D
  8
DETAIL
  6
CONTINUOUS
 62
     5
 10
-19.496292
 20
-70.213585999999992
 30
0.0
 11
-19.433960999999989
 21
-70.213585999999992
 31
0.0
  0
LINE
  5
37E
  8
DETAIL
  6
CONTINUOUS
 62
     5
 10
-20.467061999999991
 20
-73.081468000000001
 30
0.0
 11
-19.433962000000001
 21
-73.081468000000001
 31
0.0
  0
LINE
  5
37F
  8
DETAIL
  6
CONTINUOUS
 62
     5
 10
-20.964249999999989
 20
-74.497297000000003
 30
0.0
 11
-19.250021
 21
-74.497297000000003
 31
0.0
  0
LINE
  5
380
  8
DETAIL
  6
CONTINUOUS
 62
     5
 10
-21.871476000000001
 20
-76.997295999999963
 30
0.0
 11
-19.250021
 21
-76.997297000000003
 31
0.0
  0
LINE
  5
381
  8
DETAIL
  6
CONTINUOUS
 62
     5
 10
-22.326698
 20
-78.214042000000006
 30
0.0
 11
-19.16847499999999
 21
-78.214043000000004
 31
0.0
  0
ARC
  5
382
  8
DETAIL
  6
CONTINUOUS
 62
     5
 10
57.999999999999908
 20
-0.0000080000000011
 30
0.0
 40
165.0
 50
152.1101689999997
 51
208.33110300000021
  0
LINE
  5
383
  8
DETAIL
  6
CONTINUOUS
 62
     5
 10
-8.0
 20
87.5
 30
0.0
 11
-8.0
 21
-4.4624000000000024
 31
0.0
  0
LINE
  5
384
  8
DETAIL
  6
CONTINUOUS
 62
     5
 10
-55.585184999999989
 20
20.223292000000001
 30
0.0
 11
-20.5
 21
20.223292000000001
 31
0.0
  0
LINE
  5
385
  8
DETAIL
  6
CONTINUOUS
 62
     5
 10
-55.585184999999989
 20
25.052921000000001
 30
0.0
 11
-20.414815000000011
 21
25.052921000000001
 31
0.0
  0
ARC
  5
386
  8
DETAIL
  6
CONTINUOUS
 62
     5
 10
-55.585184999999989
 20
22.638107000000002
 30
0.0
 40
2.414814999999999
 50
90.0
 51
270.0
  0
ARC
  5
387
  8
DETAIL
  6
CONTINUOUS
 62
     5
 10
-20.414815000000011
 20
22.638107000000002
 30
0.0
 40
2.414814999999999
 50
270.0
 51
90.0
  0
LINE
  5
388
  8
DETAIL
  6
CONTINUOUS
 62
     5
 10
-55.537981000000009
 20
12.726632999999991
 30
0.0
 11
-20.5
 21
12.726632999999991
 31
0.0
  0
LINE
  5
389
  8
DETAIL
  6
CONTINUOUS
 62
     5
 10
-55.537981000000009
 20
17.650672
 30
0.0
 11
-20.5
 21
17.650672
 31
0.0
  0
ARC
  5
38A
  8
DETAIL
  6
CONTINUOUS
 62
     5
 10
-55.537981000000009
 20
15.188653
 30
0.0
 40
2.4620189999999962
 50
90.0
 51
270.0
  0
ARC
  5
38B
  8
DETAIL
  6
CONTINUOUS
 62
     5
 10
-20.462019000000009
 20
15.188653
 30
0.0
 40
2.4620189999999962
 50
270.0
 51
90.0
  0
LINE
  5
38C
  8
DETAIL
  6
CONTINUOUS
 62
     5
 10
-55.509513000000013
 20
5.1331210000000018
 30
0.0
 11
-20.5
 21
5.1331210000000018
 31
0.0
  0
LINE
  5
38D
  8
DETAIL
  6
CONTINUOUS
 62
     5
 10
-55.509513000000013
 20
10.114094999999979
 30
0.0
 11
-20.5
 21
10.114094999999979
 31
0.0
  0
ARC
  5
38E
  8
DETAIL
  6
CONTINUOUS
 62
     5
 10
-55.509513000000013
 20
7.6236079999999902
 30
0.0
 40
2.490486999999999
 50
90.0
 51
270.0
  0
ARC
  5
38F
  8
DETAIL
  6
CONTINUOUS
 62
     5
 10
-20.490487000000002
 20
7.6236079999999902
 30
0.0
 40
2.490486999999999
 50
270.0
 51
90.0
  0
LINE
  5
390
  8
DETAIL
  6
CONTINUOUS
 62
     5
 10
-55.5
 20
2.5005469999999899
 30
0.0
 11
-20.5
 21
2.5005469999999899
 31
0.0
  0
ARC
  5
391
  8
DETAIL
  6
CONTINUOUS
 62
     5
 10
-55.5
 20
0.0005469999999903
 30
0.0
 40
2.5
 50
90.0
 51
270.0
  0
ARC
  5
392
  8
DETAIL
  6
CONTINUOUS
 62
     5
 10
-20.5
 20
0.0005469999999903
 30
0.0
 40
2.5
 50
270.0
 51
90.0
  0
LINE
  5
393
  8
DETAIL
  6
CONTINUOUS
 62
     5
 10
-56.943475999999997
 20
-78.214031999999975
 30
0.0
 11
-22.326698
 21
-78.214042000000006
 31
0.0
  0
LINE
  5
394
  8
DETAIL
  6
CONTINUOUS
 62
     5
 10
-56.943477000000001
 20
-80.327123
 30
0.0
 11
-19.83015799999999
 21
-80.327134000000001
 31
0.0
  0
ARC
  5
395
  8
DETAIL
  6
CONTINUOUS
 62
     5
 10
-56.943477000000001
 20
-79.270578
 30
0.0
 40
1.0565459999999991
 50
90.0
 51
270.0
  0
LINE
  5
396
  8
DETAIL
  6
CONTINUOUS
 62
     5
 10
-56.750020999999997
 20
-74.497286000000003
 30
0.0
 11
-20.964249999999989
 21
-74.497297000000003
 31
0.0
  0
LINE
  5
397
  8
DETAIL
  6
CONTINUOUS
 62
     5
 10
-56.750021999999973
 20
-76.997286000000003
 30
0.0
 11
-21.871476000000001
 21
-76.997295999999963
 31
0.0
  0
ARC
  5
398
  8
DETAIL
  6
CONTINUOUS
 62
     5
 10
-56.750020999999997
 20
-75.747286000000003
 30
0.0
 40
1.25
 50
90.0
 51
270.0
  0
ARC
  5
399
  8
DETAIL
  6
CONTINUOUS
 62
     5
 10
-19.250021
 20
-75.747295999999963
 30
0.0
 40
1.25
 50
34.364191000000353
 51
90.0
  0
LINE
  5
39A
  8
DETAIL
  6
CONTINUOUS
 62
     5
 10
-56.566079000000002
 20
-70.213576000000003
 30
0.0
 11
-19.496292
 21
-70.213585999999992
 31
0.0
  0
LINE
  5
39B
  8
DETAIL
  6
CONTINUOUS
 62
     5
 10
-56.566080000000007
 20
-73.081457999999998
 30
0.0
 11
-20.467061999999991
 21
-73.081468000000001
 31
0.0
  0
ARC
  5
39C
  8
DETAIL
  6
CONTINUOUS
 62
     5
 10
-56.566079000000002
 20
-71.647516999999979
 30
0.0
 40
1.433940999999999
 50
90.0
 51
270.0
  0
ARC
  5
39D
  8
DETAIL
  6
CONTINUOUS
 62
     5
 10
-19.433960999999989
 20
-71.647525999999985
 30
0.0
 40
1.433940999999999
 50
270.0
 51
90.0
  0
LINE
  5
39E
  8
DETAIL
  6
CONTINUOUS
 62
     5
 10
-56.393048999999991
 20
-65.395500999999996
 30
0.0
 11
-19.606988000000001
 21
-65.395511999999982
 31
0.0
  0
LINE
  5
39F
  8
DETAIL
  6
CONTINUOUS
 62
     5
 10
-56.393050000000002
 20
-68.609438999999981
 30
0.0
 11
-19.606988000000001
 21
-68.609449999999995
 31
0.0
  0
ARC
  5
3A0
  8
DETAIL
  6
CONTINUOUS
 62
     5
 10
-56.393050000000002
 20
-67.002470000000002
 30
0.0
 40
1.6069690000000001
 50
90.0
 51
270.0
  0
ARC
  5
3A1
  8
DETAIL
  6
CONTINUOUS
 62
     5
 10
-19.606988000000001
 20
-67.002478999999994
 30
0.0
 40
1.6069690000000001
 50
30.119538000000141
 51
90.0
  0
LINE
  5
3A2
  8
DETAIL
  6
CONTINUOUS
 62
     5
 10
-56.232250000000001
 20
-60.079731999999993
 30
0.0
 11
-19.76778399999997
 21
-60.079742000000003
 31
0.0
  0
LINE
  5
3A3
  8
DETAIL
  6
CONTINUOUS
 62
     5
 10
-56.232250999999991
 20
-63.615266000000013
 30
0.0
 11
-19.767784999999989
 21
-63.615276000000001
 31
0.0
  0
ARC
  5
3A4
  8
DETAIL
  6
CONTINUOUS
 62
     5
 10
-56.232250999999991
 20
-61.847498999999992
 30
0.0
 40
1.767766999999999
 50
90.0
 51
270.0
  0
ARC
  5
3A5
  8
DETAIL
  6
CONTINUOUS
 62
     5
 10
-19.76778399999997
 20
-61.847507999999991
 30
0.0
 40
1.767766999999999
 50
270.0
 51
90.0
  0
LINE
  5
3A6
  8
DETAIL
  6
CONTINUOUS
 62
     5
 10
-56.084904000000002
 20
-54.306722999999998
 30
0.0
 11
-19.915126000000001
 21
-54.30673299999998
 31
0.0
  0
LINE
  5
3A7
  8
DETAIL
  6
CONTINUOUS
 62
     5
 10
-56.084905000000013
 20
-58.136944999999997
 30
0.0
 11
-19.915127999999989
 21
-58.136955999999991
 31
0.0
  0
ARC
  5
3A8
  8
DETAIL
  6
CONTINUOUS
 62
     5
 10
-56.084905000000013
 20
-56.221833999999987
 30
0.0
 40
1.915110999999996
 50
90.0
 51
270.0
  0
ARC
  5
3A9
  8
DETAIL
  6
CONTINUOUS
 62
     5
 10
-19.915126999999991
 20
-56.221843
 30
0.0
 40
1.915110999999996
 50
270.0
 51
90.0
  0
LINE
  5
3AA
  8
DETAIL
  6
CONTINUOUS
 62
     5
 10
-55.952133999999987
 20
-48.120412000000002
 30
0.0
 11
-20.047893999999989
 21
-48.120421999999998
 31
0.0
  0
LINE
  5
3AB
  8
DETAIL
  6
CONTINUOUS
 62
     5
 10
-55.952134999999991
 20
-52.216172
 30
0.0
 11
-20.04789499999999
 21
-52.216182000000003
 31
0.0
  0
ARC
  5
3AC
  8
DETAIL
  6
CONTINUOUS
 62
     5
 10
-55.952133999999987
 20
-50.168292000000001
 30
0.0
 40
2.0478800000000001
 50
90.0
 51
270.0
  0
ARC
  5
3AD
  8
DETAIL
  6
CONTINUOUS
 62
     5
 10
-20.047893999999989
 20
-50.168300999999992
 30
0.0
 40
2.0478800000000001
 50
270.0
 51
90.0
  0
LINE
  5
3AE
  8
DETAIL
  6
CONTINUOUS
 62
     5
 10
-55.834947999999997
 20
-41.567878999999998
 30
0.0
 11
-20.165075000000002
 21
-41.567889000000008
 31
0.0
  0
LINE
  5
3AF
  8
DETAIL
  6
CONTINUOUS
 62
     5
 10
-55.834949000000002
 20
-45.898006000000002
 30
0.0
 11
-20.165076999999989
 21
-45.898015999999998
 31
0.0
  0
ARC
  5
3B0
  8
DETAIL
  6
CONTINUOUS
 62
     5
 10
-55.834949000000002
 20
-43.732942000000008
 30
0.0
 40
2.1650640000000001
 50
90.0
 51
270.0
  0
ARC
  5
3B1
  8
DETAIL
  6
CONTINUOUS
 62
     5
 10
-20.165075999999999
 20
-43.732950999999993
 30
0.0
 40
2.1650640000000001
 50
270.0
 51
90.0
  0
LINE
  5
3B2
  8
DETAIL
  6
CONTINUOUS
 62
     5
 10
-55.734240000000007
 20
-34.698993999999999
 30
0.0
 11
-20.265778999999998
 21
-34.699003999999988
 31
0.0
  0
LINE
  5
3B3
  8
DETAIL
  6
CONTINUOUS
 62
     5
 10
-55.734242000000009
 20
-39.230531999999997
 30
0.0
 11
-20.265781
 21
-39.230542999999997
 31
0.0
  0
ARC
  5
3B4
  8
DETAIL
  6
CONTINUOUS
 62
     5
 10
-55.734240999999997
 20
-36.964762999999998
 30
0.0
 40
2.265768999999997
 50
90.0
 51
270.0
  0
ARC
  5
3B5
  8
DETAIL
  6
CONTINUOUS
 62
     5
 10
-20.265779999999999
 20
-36.964772000000004
 30
0.0
 40
2.265768999999997
 50
270.0
 51
90.0
  0
LINE
  5
3B6
  8
DETAIL
  6
CONTINUOUS
 62
     5
 10
-55.650778000000003
 20
-32.264494999999989
 30
0.0
 11
-20.349240999999999
 21
-32.264505
 31
0.0
  0
LINE
  5
3B7
  8
DETAIL
  6
CONTINUOUS
 62
     5
 10
-55.650776000000008
 20
-27.566032
 30
0.0
 11
-20.34923899999999
 21
-27.566041999999989
 31
0.0
  0
ARC
  5
3B8
  8
DETAIL
  6
CONTINUOUS
 62
     5
 10
-55.650776999999991
 20
-29.915264000000001
 30
0.0
 40
2.3492319999999962
 50
90.0
 51
270.0
  0
ARC
  5
3B9
  8
DETAIL
  6
CONTINUOUS
 62
     5
 10
-20.349240000000002
 20
-29.915272000000009
 30
0.0
 40
2.3492319999999962
 50
270.0
 51
90.0
  0
LINE
  5
3BA
  8
DETAIL
  6
CONTINUOUS
 62
     5
 10
-55.585191000000009
 20
-20.223279999999988
 30
0.0
 11
-20.414819999999992
 21
-20.223289999999999
 31
0.0
  0
LINE
  5
3BB
  8
DETAIL
  6
CONTINUOUS
 62
     5
 10
-55.585192999999997
 20
-25.052909
 30
0.0
 11
-20.414822000000001
 21
-25.052918999999999
 31
0.0
  0
ARC
  5
3BC
  8
DETAIL
  6
CONTINUOUS
 62
     5
 10
-55.585191999999999
 20
-22.638095
 30
0.0
 40
2.414814999999999
 50
90.0
 51
270.0
  0
ARC
  5
3BD
  8
DETAIL
  6
CONTINUOUS
 62
     5
 10
-20.414821
 20
-22.638103000000001
 30
0.0
 40
2.414814999999999
 50
270.0
 51
90.0
  0
LINE
  5
3BE
  8
DETAIL
  6
CONTINUOUS
 62
     5
 10
-55.53798399999998
 20
-12.726621
 30
0.0
 11
-20.5
 21
-12.726630999999999
 31
0.0
  0
LINE
  5
3BF
  8
DETAIL
  6
CONTINUOUS
 62
     5
 10
-55.537985999999997
 20
-17.650659999999991
 30
0.0
 11
-20.5
 21
-17.650670000000009
 31
0.0
  0
ARC
  5
3C0
  8
DETAIL
  6
CONTINUOUS
 62
     5
 10
-55.537984999999999
 20
-15.188641000000009
 30
0.0
 40
2.4620189999999962
 50
90.0
 51
270.0
  0
ARC
  5
3C1
  8
DETAIL
  6
CONTINUOUS
 62
     5
 10
-20.462023999999971
 20
-15.188649
 30
0.0
 40
2.4620189999999962
 50
270.0
 51
90.0
  0
LINE
  5
3C2
  8
DETAIL
  6
CONTINUOUS
 62
     5
 10
-55.509515
 20
-5.1331089999999966
 30
0.0
 11
-20.5
 21
-5.1331189999999998
 31
0.0
  0
LINE
  5
3C3
  8
DETAIL
  6
CONTINUOUS
 62
     5
 10
-55.509516000000019
 20
-10.11408300000001
 30
0.0
 11
-20.5
 21
-10.11409299999999
 31
0.0
  0
ARC
  5
3C4
  8
DETAIL
  6
CONTINUOUS
 62
     5
 10
-55.509515
 20
-7.6235959999999992
 30
0.0
 40
2.490486999999999
 50
90.0
 51
270.0
  0
ARC
  5
3C5
  8
DETAIL
  6
CONTINUOUS
 62
     5
 10
-20.49048899999999
 20
-7.6236040000000003
 30
0.0
 40
2.490486999999999
 50
270.0
 51
90.0
  0
LINE
  5
3C6
  8
DETAIL
  6
CONTINUOUS
 62
     5
 10
-55.5
 20
-2.4994530000000088
 30
0.0
 11
-20.5
 21
-2.4994530000000088
 31
0.0
  0
LINE
  5
3C7
  8
DETAIL
  6
CONTINUOUS
 62
     5
 10
-8.0
 20
87.5
 30
0.0
 11
-75.100790000000003
 21
85.156797999999895
 31
0.0
  0
ARC
  5
3C8
  8
DETAIL
  6
CONTINUOUS
 62
     5
 10
-74.577298999999982
 20
70.165936000000016
 30
0.0
 40
15.0
 50
91.999992000000319
 51
152.1101689999997
  0
ARC
  5
3C9
  8
DETAIL
  6
CONTINUOUS
 62
     5
 10
-74.577298999999982
 20
-70.165936000000002
 30
0.0
 40
15.0
 50
207.8898309999999
 51
268.0000079999997
  0
LINE
  5
3CA
  8
DETAIL
  6
CONTINUOUS
 62
     5
 10
-23.136825000000009
 20
-86.971412999999998
 30
0.0
 11
-75.100790000000003
 21
-85.156797999999995
 31
0.0
  0
LINE
  5
3CB
  8
DETAIL
  6
CONTINUOUS
 62
     5
 39
50.0
 10
0.0000000000000142
 20
86.5
 30
0.0
 11
0.0000000000000142
 21
-4.0
 31
0.0
  0
ARC
  5
3CC
  8
DETAIL
  6
CONTINUOUS
 62
     5
 10
-20.047893999999989
 20
50.1683009999999
 30
0.0
 40
2.0478800000000001
 50
270.0
 51
90.0
  0
ARC
  5
3CD
  8
DETAIL
  6
CONTINUOUS
 62
     5
 10
-55.952133999999987
 20
50.168292000000001
 30
0.0
 40
2.0478800000000001
 50
90.0
 51
270.0
  0
LINE
  5
3CE
  8
DETAIL
  6
CONTINUOUS
 62
     5
 10
-55.952134999999991
 20
52.216171999999901
 30
0.0
 11
-20.04789499999999
 21
52.216182000000003
 31
0.0
  0
ARC
  5
3CF
  8
DETAIL
  6
CONTINUOUS
 62
     5
 10
-19.915126999999991
 20
56.221843
 30
0.0
 40
1.915110999999996
 50
270.0
 51
90.0
  0
ARC
  5
3D0
  8
DETAIL
  6
CONTINUOUS
 62
     5
 10
-56.084905000000013
 20
56.221833999999902
 30
0.0
 40
1.915110999999996
 50
90.0
 51
270.0
  0
LINE
  5
3D1
  8
DETAIL
  6
CONTINUOUS
 62
     5
 10
-56.084905000000013
 20
58.136944999999891
 30
0.0
 11
-19.915127999999989
 21
58.136955999999898
 31
0.0
  0
LINE
  5
3D2
  8
DETAIL
  6
CONTINUOUS
 62
     5
 10
-56.084904000000002
 20
54.306723000000012
 30
0.0
 11
-19.915126000000001
 21
54.306732999999873
 31
0.0
  0
ARC
  5
3D3
  8
DETAIL
  6
CONTINUOUS
 62
     5
 10
-19.76778399999997
 20
61.84750799999992
 30
0.0
 40
1.767766999999999
 50
270.0
 51
90.0
  0
ARC
  5
3D4
  8
DETAIL
  6
CONTINUOUS
 62
     5
 10
-56.232250999999991
 20
61.8474989999999
 30
0.0
 40
1.767766999999999
 50
90.0
 51
270.0
  0
LINE
  5
3D5
  8
DETAIL
  6
CONTINUOUS
 62
     5
 10
-56.232250999999991
 20
63.615266000000013
 30
0.0
 11
-19.767784999999989
 21
63.615275999999866
 31
0.0
  0
LINE
  5
3D6
  8
DETAIL
  6
CONTINUOUS
 62
     5
 10
-56.232250000000001
 20
60.079731999999872
 30
0.0
 11
-19.76778399999997
 21
60.079741999999989
 31
0.0
  0
ARC
  5
3D7
  8
DETAIL
  6
CONTINUOUS
 62
     5
 10
-19.606988000000001
 20
67.002478999999866
 30
0.0
 40
1.6069690000000001
 50
270.0
 51
329.88046199999991
  0
ARC
  5
3D8
  8
DETAIL
  6
CONTINUOUS
 62
     5
 10
-56.393050000000002
 20
67.002469999999903
 30
0.0
 40
1.6069690000000001
 50
90.0
 51
270.0
  0
LINE
  5
3D9
  8
DETAIL
  6
CONTINUOUS
 62
     5
 10
-56.393050000000002
 20
68.609438999999909
 30
0.0
 11
-19.606988000000001
 21
68.60944999999991
 31
0.0
  0
LINE
  5
3DA
  8
DETAIL
  6
CONTINUOUS
 62
     5
 10
-56.393048999999991
 20
65.395500999999996
 30
0.0
 11
-19.606988000000001
 21
65.395512000000011
 31
0.0
  0
ARC
  5
3DB
  8
DETAIL
  6
CONTINUOUS
 62
     5
 10
-19.433960999999989
 20
71.6475259999999
 30
0.0
 40
1.433940999999999
 50
270.0
 51
90.0
  0
ARC
  5
3DC
  8
DETAIL
  6
CONTINUOUS
 62
     5
 10
-56.566079000000002
 20
71.647516999999866
 30
0.0
 40
1.433940999999999
 50
90.0
 51
270.0
  0
LINE
  5
3DD
  8
DETAIL
  6
CONTINUOUS
 62
     5
 10
-56.566080000000007
 20
73.081457999999913
 30
0.0
 11
-20.467061999999991
 21
73.081467999999859
 31
0.0
  0
LINE
  5
3DE
  8
DETAIL
  6
CONTINUOUS
 62
     5
 10
-56.566079000000002
 20
70.213576000000003
 30
0.0
 11
-19.496292
 21
70.213585999999921
 31
0.0
  0
ARC
  5
3DF
  8
DETAIL
  6
CONTINUOUS
 62
     5
 10
-19.250021
 20
75.747295999999864
 30
0.0
 40
1.25
 50
270.0
 51
90.0
  0
ARC
  5
3E0
  8
DETAIL
  6
CONTINUOUS
 62
     5
 10
-56.750020999999997
 20
75.747286000000003
 30
0.0
 40
1.25
 50
90.0
 51
270.0
  0
LINE
  5
3E1
  8
DETAIL
  6
CONTINUOUS
 62
     5
 10
-56.750021999999973
 20
76.997286000000003
 30
0.0
 11
-21.871476000000001
 21
76.997295999999864
 31
0.0
  0
LINE
  5
3E2
  8
DETAIL
  6
CONTINUOUS
 62
     5
 10
-56.750020999999997
 20
74.497286000000003
 30
0.0
 11
-20.964249999999989
 21
74.497297000000003
 31
0.0
  0
ARC
  5
3E3
  8
DETAIL
  6
CONTINUOUS
 62
     5
 10
-19.056567999999992
 20
79.270587000000006
 30
0.0
 40
1.0565459999999991
 50
270.0
 51
90.0
  0
ARC
  5
3E4
  8
DETAIL
  6
CONTINUOUS
 62
     5
 10
-56.943477000000001
 20
79.270577999999844
 30
0.0
 40
1.0565459999999991
 50
90.0
 51
270.0
  0
LINE
  5
3E5
  8
DETAIL
  6
CONTINUOUS
 62
     5
 10
-56.943477000000001
 20
80.327123
 30
0.0
 11
-23.138798999999999
 21
80.327133000000003
 31
0.0
  0
LINE
  5
3E6
  8
DETAIL
  6
CONTINUOUS
 62
     5
 10
-56.943475999999997
 20
78.214031999999861
 30
0.0
 11
-22.326698
 21
78.214041999999864
 31
0.0
  0
LINE
  5
3E7
  8
DETAIL
  6
CONTINUOUS
 62
     5
 10
-23.138798999999999
 20
80.327133000000003
 30
0.0
 11
-19.056567999999992
 21
80.327134000000001
 31
0.0
  0
LINE
  5
3E8
  8
DETAIL
  6
CONTINUOUS
 62
     5
 10
-22.326698
 20
78.214041999999864
 30
0.0
 11
-19.056567999999992
 21
78.214043000000004
 31
0.0
  0
LINE
  5
3E9
  8
DETAIL
  6
CONTINUOUS
 62
     5
 10
-21.871476000000001
 20
76.997295999999864
 30
0.0
 11
-19.250022000000001
 21
76.997297000000003
 31
0.0
  0
LINE
  5
3EA
  8
DETAIL
  6
CONTINUOUS
 62
     5
 10
-20.964249999999989
 20
74.497297000000003
 30
0.0
 11
-19.250021
 21
74.497297000000003
 31
0.0
  0
LINE
  5
3EB
  8
DETAIL
  6
CONTINUOUS
 62
     5
 10
-20.467061999999991
 20
73.081467999999859
 30
0.0
 11
-19.433962000000001
 21
73.081467999999859
 31
0.0
  0
LINE
  5
3EC
  8
DETAIL
  6
CONTINUOUS
 62
     5
 10
-19.496292
 20
70.213585999999921
 30
0.0
 11
-19.433960999999989
 21
70.213585999999921
 31
0.0
  0
ARC
  5
3ED
  8
DETAIL
  6
CONTINUOUS
 62
     5
 10
-19.606988000000001
 20
67.002478999999866
 30
0.0
 40
1.6069690000000001
 50
64.917018000000283
 51
90.0
  0
ARC
  5
3EE
  8
DETAIL
  6
CONTINUOUS
 62
     5
 10
-19.606988000000001
 20
67.002478999999866
 30
0.0
 40
1.6069690000000001
 50
329.88046199999991
 51
64.917018000000283
  0
ARC
  5
3EF
  8
DETAIL
  6
CONTINUOUS
 62
     5
 10
-55.734240999999997
 20
36.964762999999998
 30
0.0
 40
2.265768999999997
 50
90.0
 51
270.0
  0
ARC
  5
3F0
  8
DETAIL
  6
CONTINUOUS
 62
     5
 10
-20.349240000000002
 20
29.915272000000002
 30
0.0
 40
2.3492319999999962
 50
270.0
 51
90.0
  0
ARC
  5
3F1
  8
DETAIL
  6
CONTINUOUS
 62
     5
 10
-55.650776999999991
 20
29.915264000000001
 30
0.0
 40
2.3492319999999962
 50
90.0
 51
270.0
  0
LINE
  5
3F2
  8
DETAIL
  6
CONTINUOUS
 62
     5
 10
-55.650776000000008
 20
27.566032000000011
 30
0.0
 11
-20.34923899999999
 21
27.566041999999982
 31
0.0
  0
LINE
  5
3F3
  8
DETAIL
  6
CONTINUOUS
 62
     5
 10
-55.650778000000003
 20
32.264494999999982
 30
0.0
 11
-20.349240999999999
 21
32.264505
 31
0.0
  0
ARC
  5
3F4
  8
DETAIL
  6
CONTINUOUS
 62
     5
 10
-20.265779999999999
 20
36.964771999999989
 30
0.0
 40
2.265768999999997
 50
270.0
 51
90.0
  0
LINE
  5
3F5
  8
DETAIL
  6
CONTINUOUS
 62
     5
 10
-55.734242000000009
 20
39.230531999999997
 30
0.0
 11
-20.265781
 21
39.230542999999997
 31
0.0
  0
LINE
  5
3F6
  8
DETAIL
  6
CONTINUOUS
 62
     5
 10
-55.734240000000007
 20
34.698993999999999
 30
0.0
 11
-20.265778999999998
 21
34.69900399999996
 31
0.0
  0
ARC
  5
3F7
  8
DETAIL
  6
CONTINUOUS
 62
     5
 10
-20.165075999999999
 20
43.732950999999993
 30
0.0
 40
2.1650640000000001
 50
270.0
 51
90.0
  0
ARC
  5
3F8
  8
DETAIL
  6
CONTINUOUS
 62
     5
 10
-55.834949000000002
 20
43.732941999999987
 30
0.0
 40
2.1650640000000001
 50
90.0
 51
270.0
  0
LINE
  5
3F9
  8
DETAIL
  6
CONTINUOUS
 62
     5
 10
-55.834949000000002
 20
45.898006000000009
 30
0.0
 11
-20.165076999999989
 21
45.898015999999892
 31
0.0
  0
LINE
  5
3FA
  8
DETAIL
  6
CONTINUOUS
 62
     5
 10
-55.834947999999997
 20
41.567878999999998
 30
0.0
 11
-20.165075000000002
 21
41.567889000000022
 31
0.0
  0
LINE
  5
3FB
  8
DETAIL
  6
CONTINUOUS
 62
     5
 10
-55.952133999999987
 20
48.120411999999902
 30
0.0
 11
-20.047893999999989
 21
48.120421999999991
 31
0.0
  0
LINE
  5
3FC
  8
SIZE
  6
CONTINUOUS
 62
    30
 10
0.0000000000000142
 20
106.4999999999998
 30
0.0
 11
0.0000000000000142
 21
180.47506799999991
 31
0.0
  0
LINE
  5
3FD
  8
SIZE
  6
CONTINUOUS
 62
    30
 10
3.0000120000000119
 20
105.4999819999999
 30
0.0
 11
3.0000120000000119
 21
180.47506799999991
 31
0.0
  0
LINE
  5
3FE
  8
SIZE
  6
CONTINUOUS
 62
    30
 10
-11.999999999999989
 20
160.47506799999971
 30
0.0
 11
-24.000000000000011
 21
160.47506799999971
 31
0.0
  0
LINE
  5
3FF
  8
SIZE
  6
CONTINUOUS
 62
    30
 10
15.00001199999998
 20
160.47506799999971
 30
0.0
 11
27.000011999999991
 21
160.47506799999971
 31
0.0
  0
LINE
  5
400
  8
SIZE
  6
CONTINUOUS
 62
    30
 10
0.0000000000000142
 20
160.47506799999971
 30
0.0
 11
3.0000120000000119
 21
160.47506799999971
 31
0.0
  0
CIRCLE
  5
401
  8
SIZE
  6
CONTINUOUS
 62
    30
 10
0.0000000000000142
 20
160.47506799999971
 30
0.0
 40
6.0
  0
LINE
  5
402
  8
SIZE
  6
CONTINUOUS
 62
    30
 10
0.0000000000000142
 20
160.47506799999971
 30
0.0
 11
-11.999999999999989
 21
160.47506799999971
 31
0.0
  0
CIRCLE
  5
403
  8
SIZE
  6
CONTINUOUS
 62
    30
 10
3.0000120000000119
 20
160.47506799999971
 30
0.0
 40
6.0
  0
LINE
  5
404
  8
SIZE
  6
CONTINUOUS
 62
    30
 10
3.0000120000000119
 20
160.47506799999971
 30
0.0
 11
15.00001199999998
 21
160.47506799999971
 31
0.0
  0
TEXT
  5
405
  8
SIZE
  6
CONTINUOUS
 62
    30
 10
-17.699993999999979
 20
185.47506799999991
 30
0.0
 40
64.0
  1
3
 41
0.9
 72
     1
 11
1.5000060000000131
 21
185.47506799999991
 31
0.0
  0
ARC
  5
406
  8
DETAIL
  6
CONTINUOUS
 62
     5
 10
-3.5
 20
-90.591499999999996
 30
0.0
 40
3.5
 50
270.0
 51
0.0
  0
LINE
  5
407
  8
DETAIL
  6
CONTINUOUS
 62
     5
 10
-6.3998169999999908
 20
-4.0
 30
0.0
 11
2.9999989999999879
 21
-4.0
 31
0.0
  0
ARC
  5
408
  8
DETAIL
  6
CONTINUOUS
 62
     5
 10
-6.3998169999999908
 20
-7.0
 30
0.0
 40
3.0
 50
90.0
 51
181.90542599999981
  0
LINE
  5
409
  8
OUTLINE
  6
CONTINUOUS
 62
     3
 39
50.0
 10
0.0000000000000142
 20
86.5
 30
0.0
 11
0.0000000000000142
 21
-4.0
 31
0.0
  0
LINE
  5
40A
  8
OUTLINE
  6
CONTINUOUS
 62
     3
 10
0.0000000000000142
 20
0.0
 30
0.0
 11
0.0000000000000142
 21
-90.591499999999996
 31
0.0
  0
ARC
  5
40B
  8
OUTLINE
  6
CONTINUOUS
 62
     3
 10
-3.5
 20
-90.591499999999996
 30
0.0
 40
3.5
 50
270.0
 51
0.0
  0
LINE
  5
40C
  8
OUTLINE
  6
CONTINUOUS
 62
     3
 10
-9.4999999999999911
 20
-94.091499999999996
 30
0.0
 11
-3.5
 21
-94.091499999999996
 31
0.0
  0
LINE
  5
40D
  8
OUTLINE
  6
CONTINUOUS
 62
     3
 10
-8.0
 20
87.5
 30
0.0
 11
-8.0
 21
-4.4624000000000024
 31
0.0
  0
LINE
  5
40E
  8
OUTLINE
  6
CONTINUOUS
 62
     3
 10
3.0000120000000119
 20
85.499981999999989
 30
0.0
 11
2.9999989999999879
 21
-4.0
 31
0.0
  0
ARC
  5
40F
  8
OUTLINE
  6
CONTINUOUS
 62
     3
 10
-6.3998169999999908
 20
-7.0
 30
0.0
 40
3.0
 50
90.0
 51
181.90542599999981
  0
LINE
  5
410
  8
OUTLINE
  6
CONTINUOUS
 62
     3
 10
-6.3998169999999908
 20
-4.0
 30
0.0
 11
2.9999989999999879
 21
-4.0
 31
0.0
  0
LINE
  5
411
  8
OUTLINE
  6
CONTINUOUS
 62
     3
 10
-8.0
 20
86.5
 30
0.0
 11
0.0000000000000142
 21
86.5
 31
0.0
  0
LINE
  5
412
  8
OUTLINE
  6
CONTINUOUS
 62
     3
 10
0.0000120000000123
 20
85.499981999999989
 30
0.0
 11
3.0000120000000119
 21
85.499981999999989
 31
0.0
  0
ARC
  5
413
  8
OUTLINE
  6
CONTINUOUS
 62
     3
 10
57.999999999999908
 20
-0.0000080000000011
 30
0.0
 40
165.0
 50
152.1101689999997
 51
208.33110300000021
  0
ARC
  5
414
  8
OUTLINE
  6
CONTINUOUS
 62
     3
 10
-74.577298999999982
 20
-70.165936000000002
 30
0.0
 40
15.0
 50
207.8898309999999
 51
268.0000079999997
  0
ARC
  5
415
  8
OUTLINE
  6
CONTINUOUS
 62
     3
 10
-74.577298999999982
 20
70.165936000000016
 30
0.0
 40
15.0
 50
91.999992000000319
 51
152.1101689999997
  0
LINE
  5
416
  8
SIZE
  6
CONTINUOUS
 62
    30
 10
39.999999999999922
 20
55.0
 30
0.0
 11
332.90587299999987
 21
55.0
 31
0.0
  0
LINE
  5
417
  8
SIZE
  6
CONTINUOUS
 62
    30
 10
39.999999999999922
 20
-55.0
 30
0.0
 11
332.90587299999987
 21
-55.0
 31
0.0
  0
LINE
  5
418
  8
SIZE
  6
CONTINUOUS
 62
    30
 10
312.90587299999987
 20
43.0
 30
0.0
 11
312.90587299999987
 21
-43.0
 31
0.0
  0
LINE
  5
419
  8
SIZE
  6
CONTINUOUS
 62
    30
 10
312.90587299999987
 20
-55.0
 30
0.0
 11
312.90587299999987
 21
-308.45142899999991
 31
0.0
  0
CIRCLE
  5
41A
  8
SIZE
  6
CONTINUOUS
 62
    30
 10
312.90587299999987
 20
55.0
 30
0.0
 40
6.0
  0
LINE
  5
41B
  8
SIZE
  6
CONTINUOUS
 62
    30
 10
312.90587299999987
 20
55.0
 30
0.0
 11
312.90587299999987
 21
43.0
 31
0.0
  0
CIRCLE
  5
41C
  8
SIZE
  6
CONTINUOUS
 62
    30
 10
312.90587299999987
 20
-55.0
 30
0.0
 40
6.0
  0
LINE
  5
41D
  8
SIZE
  6
CONTINUOUS
 62
    30
 10
312.90587299999987
 20
-55.0
 30
0.0
 11
312.90587299999987
 21
-43.0
 31
0.0
  0
TEXT
  5
41E
  8
SIZE
  6
CONTINUOUS
 62
    30
 10
287.90587299999987
 20
-287.29142828571418
 30
0.0
 40
64.0
  1
□110
 50
90.0
 41
0.9
 72
     1
 11
287.90587299999987
 21
-187.7257139999999
 31
0.0
  0
LINE
  5
41F
  8
DETAIL
  6
CONTINUOUS
 62
     5
 10
-28.000000000000011
 20
-102.0
 30
0.0
 11
-9.4999999999999911
 21
-94.091499999999996
 31
0.0
  0
ARC
  5
420
  8
DETAIL
  6
CONTINUOUS
 62
     5
 10
-231.91012599999999
 20
-12.757381000000001
 30
0.0
 40
222.5838819999999
 50
336.36308999999977
 51
1.456500000000126
  0
ARC
  5
421
  8
DETAIL
  6
CONTINUOUS
 62
     5
 10
-19.250021
 20
-75.747297000000003
 30
0.0
 40
1.25
 50
270.0
 51
292.63718999999998
  0
ARC
  5
422
  8
OUTLINE
  6
CONTINUOUS
 62
     3
 10
-231.91012599999999
 20
-12.757381000000001
 30
0.0
 40
222.5838819999999
 50
336.36308999999977
 51
1.456500000000126
  0
LINE
  5
423
  8
OUTLINE
  6
CONTINUOUS
 62
     3
 10
-28.000000000000011
 20
-102.0
 30
0.0
 11
-9.4999999999999911
 21
-94.091499999999996
 31
0.0
  0
LINE
  5
424
  8
SIZE
  6
CONTINUOUS
 62
    30
 10
0.0000000000000142
 20
-110.0
 30
0.0
 11
0.0000000000000142
 21
-494.00506899999988
 31
0.0
  0
LINE
  5
425
  8
SIZE
  6
CONTINUOUS
 62
    30
 10
-107.0
 20
-20.0
 30
0.0
 11
-107.0
 21
-494.00506899999988
 31
0.0
  0
LINE
  5
426
  8
SIZE
  6
CONTINUOUS
 62
    30
 10
-11.999999999999989
 20
-474.00506899999988
 30
0.0
 11
-95.0
 21
-474.00506899999988
 31
0.0
  0
LINE
  5
427
  8
SIZE
  6
CONTINUOUS
 62
    30
 10
-315.8544319999998
 20
-474.00506899999988
 30
0.0
 11
-107.0
 21
-474.00506899999988
 31
0.0
  0
TEXT
  5
428
  8
SIZE
  6
CONTINUOUS
 62
    30
 10
-290.85443257142862
 20
-449.00506899999988
 30
0.0
 40
64.0
  1
107
 41
0.9
 72
     1
 11
-222.28300400000001
 21
-449.00506899999988
 31
0.0
  0
CIRCLE
  5
429
  8
SIZE
  6
CONTINUOUS
 62
    30
 10
0.0000000000000142
 20
-474.00506899999988
 30
0.0
 40
6.0
  0
LINE
  5
42A
  8
SIZE
  6
CONTINUOUS
 62
    30
 10
0.0000000000000142
 20
-474.00506899999988
 30
0.0
 11
-11.999999999999989
 21
-474.00506899999988
 31
0.0
  0
CIRCLE
  5
42B
  8
SIZE
  6
CONTINUOUS
 62
    30
 10
-107.0
 20
-474.00506899999988
 30
0.0
 40
6.0
  0
LINE
  5
42C
  8
SIZE
  6
CONTINUOUS
 62
    30
 10
-107.0
 20
-474.00506899999988
 30
0.0
 11
-95.0
 21
-474.00506899999988
 31
0.0
  0
LINE
  5
42D
  8
SIZE
  6
CONTINUOUS
 62
    30
 10
0.0000000000000142
 20
-110.0
 30
0.0
 11
0.0000000000000142
 21
-368.01193999999992
 31
0.0
  0
LINE
  5
42E
  8
SIZE
  6
CONTINUOUS
 62
    30
 10
-28.000000000000011
 20
-122.0
 30
0.0
 11
-28.000000000000011
 21
-368.01193999999992
 31
0.0
  0
LINE
  5
42F
  8
SIZE
  6
CONTINUOUS
 62
    30
 10
11.99999999999998
 20
-348.01193999999992
 30
0.0
 11
23.999999999999989
 21
-348.01193999999992
 31
0.0
  0
LINE
  5
430
  8
SIZE
  6
CONTINUOUS
 62
    30
 10
-40.0
 20
-348.01193999999992
 30
0.0
 11
-52.000000000000007
 21
-348.01193999999992
 31
0.0
  0
LINE
  5
431
  8
SIZE
  6
CONTINUOUS
 62
    30
 10
-250.18823199999991
 20
-348.01193999999992
 30
0.0
 11
-28.000000000000011
 21
-348.01193999999992
 31
0.0
  0
TEXT
  5
432
  8
SIZE
  6
CONTINUOUS
 62
    30
 10
-225.18823242857121
 20
-323.01193999999992
 30
0.0
 40
64.0
  1
28
 41
0.9
 72
     1
 11
-178.55966099999981
 21
-323.01193999999992
 31
0.0
  0
LINE
  5
433
  8
SIZE
  6
CONTINUOUS
 62
    30
 10
0.0000000000000142
 20
-348.01193999999992
 30
0.0
 11
-28.000000000000011
 21
-348.01193999999992
 31
0.0
  0
LINE
  5
434
  8
SIZE
  6
CONTINUOUS
 62
    30
 10
0.0000000000000142
 20
-348.01193999999992
 30
0.0
 11
-28.000000000000011
 21
-348.01193999999992
 31
0.0
  0
CIRCLE
  5
435
  8
SIZE
  6
CONTINUOUS
 62
    30
 10
0.0000000000000142
 20
-348.01193999999992
 30
0.0
 40
6.0
  0
LINE
  5
436
  8
SIZE
  6
CONTINUOUS
 62
    30
 10
0.0000000000000142
 20
-348.01193999999992
 30
0.0
 11
11.99999999999998
 21
-348.01193999999992
 31
0.0
  0
CIRCLE
  5
437
  8
SIZE
  6
CONTINUOUS
 62
    30
 10
-28.000000000000011
 20
-348.01193999999992
 30
0.0
 40
6.0
  0
LINE
  5
438
  8
SIZE
  6
CONTINUOUS
 62
    30
 10
-28.000000000000011
 20
-348.01193999999992
 30
0.0
 11
-40.0
 21
-348.01193999999992
 31
0.0
  0
LINE
  5
439
  8
SIZE
  6
CONTINUOUS
 62
    30
 10
-18.000019999999989
 20
-91.647525999999985
 30
0.0
 11
-18.000019999999989
 21
-240.675825
 31
0.0
  0
LINE
  5
43A
  8
SIZE
  6
CONTINUOUS
 62
    30
 10
-58.000019999999992
 20
-91.647516999999993
 30
0.0
 11
-58.000019999999992
 21
-240.675825
 31
0.0
  0
LINE
  5
43B
  8
SIZE
  6
CONTINUOUS
 62
    30
 10
-6.0000199999999921
 20
-220.675825
 30
0.0
 11
5.9999799999999928
 21
-220.675825
 31
0.0
  0
LINE
  5
43C
  8
SIZE
  6
CONTINUOUS
 62
    30
 10
-70.000019999999992
 20
-220.675825
 30
0.0
 11
-268.75733100000002
 21
-220.675825
 31
0.0
  0
LINE
  5
43D
  8
SIZE
  6
CONTINUOUS
 62
    30
 10
-18.000019999999989
 20
-220.675825
 30
0.0
 11
-58.000019999999992
 21
-220.675825
 31
0.0
  0
CIRCLE
  5
43E
  8
SIZE
  6
CONTINUOUS
 62
    30
 10
-18.000019999999989
 20
-220.675825
 30
0.0
 40
6.0
  0
LINE
  5
43F
  8
SIZE
  6
CONTINUOUS
 62
    30
 10
-18.000019999999989
 20
-220.675825
 30
0.0
 11
-6.0000199999999921
 21
-220.675825
 31
0.0
  0
CIRCLE
  5
440
  8
SIZE
  6
CONTINUOUS
 62
    30
 10
-58.000019999999992
 20
-220.675825
 30
0.0
 40
6.0
  0
LINE
  5
441
  8
SIZE
  6
CONTINUOUS
 62
    30
 10
-58.000019999999992
 20
-220.675825
 30
0.0
 11
-70.000019999999992
 21
-220.675825
 31
0.0
  0
TEXT
  5
442
  8
SIZE
  6
CONTINUOUS
 62
    30
 10
-243.75733042857141
 20
-195.675825
 30
0.0
 40
64.0
  1
40
 41
0.9
 72
     1
 11
-197.128759
 21
-195.675825
 31
0.0
  0
LINE
  5
443
  8
SIZE
  6
CONTINUOUS
 62
    30
 10
0.0000000000000142
 20
-110.5914999999999
 30
0.0
 11
0.0000000000000142
 21
-240.675825
 31
0.0
  0
LINE
  5
444
  8
SIZE
  6
CONTINUOUS
 62
    30
 10
-18.000019999999989
 20
-91.647525999999985
 30
0.0
 11
-18.000019999999989
 21
-240.675825
 31
0.0
  0
LINE
  5
445
  8
SIZE
  6
CONTINUOUS
 62
    30
 10
-30.00002000000001
 20
-220.675825
 30
0.0
 11
-42.000019999999999
 21
-220.675825
 31
0.0
  0
LINE
  5
446
  8
SIZE
  6
CONTINUOUS
 62
    30
 10
11.99999999999998
 20
-220.675825
 30
0.0
 11
156.28571400000001
 21
-220.675825
 31
0.0
  0
LINE
  5
447
  8
SIZE
  6
CONTINUOUS
 62
    30
 10
-18.000019999999989
 20
-220.675825
 30
0.0
 11
0.0000000000000142
 21
-220.675825
 31
0.0
  0
CIRCLE
  5
448
  8
SIZE
  6
CONTINUOUS
 62
    30
 10
-18.000019999999989
 20
-220.675825
 30
0.0
 40
6.0
  0
LINE
  5
449
  8
SIZE
  6
CONTINUOUS
 62
    30
 10
-18.000019999999989
 20
-220.675825
 30
0.0
 11
-30.00002000000001
 21
-220.675825
 31
0.0
  0
CIRCLE
  5
44A
  8
SIZE
  6
CONTINUOUS
 62
    30
 10
0.0000000000000142
 20
-220.675825
 30
0.0
 40
6.0
  0
LINE
  5
44B
  8
SIZE
  6
CONTINUOUS
 62
    30
 10
0.0000000000000142
 20
-220.675825
 30
0.0
 11
11.99999999999998
 21
-220.675825
 31
0.0
  0
TEXT
  5
44C
  8
SIZE
  6
CONTINUOUS
 62
    30
 10
48.999999857142768
 20
-195.675825
 30
0.0
 40
64.0
  1
18
 41
0.9
 72
     1
 11
90.142856999999907
 21
-195.675825
 31
0.0
  0
LINE
  5
44D
  8
DETAIL
  6
CONTINUOUS
 62
     5
 10
-22.326698
 20
81.336294999999865
 30
0.0
 11
-18.900021999999989
 21
81.336295999999862
 31
0.0
  0
LINE
  5
44E
  8
DETAIL
  6
CONTINUOUS
 62
     5
 10
-57.100021999999989
 20
81.336285999999845
 30
0.0
 11
-22.326698
 21
81.336294999999865
 31
0.0
  0
LINE
  5
44F
  8
DETAIL
  6
CONTINUOUS
 62
     5
 10
-57.100023
 20
83.136285999999899
 30
0.0
 11
-18.900021999999989
 21
83.136295999999973
 31
0.0
  0
ARC
  5
450
  8
DETAIL
  6
CONTINUOUS
 62
     5
 10
-18.900021999999989
 20
82.236295999999896
 30
0.0
 40
0.9
 50
270.0
 51
90.0
  0
ARC
  5
451
  8
DETAIL
  6
CONTINUOUS
 62
     5
 10
-57.100021999999989
 20
82.236285999999865
 30
0.0
 40
0.9
 50
90.0
 51
270.0
  0
LINE
  5
452
  8
DETAIL
  6
CONTINUOUS
 62
     5
 10
-22.326698
 20
84.227462000000003
 30
0.0
 11
-18.650021999999989
 21
84.227462999999844
 31
0.0
  0
LINE
  5
453
  8
DETAIL
  6
CONTINUOUS
 62
     5
 10
-57.350022000000003
 20
84.227451999999843
 30
0.0
 11
-22.326698
 21
84.227462000000003
 31
0.0
  0
LINE
  5
454
  8
DETAIL
  6
CONTINUOUS
 62
     5
 10
-57.350023
 20
85.527451999999883
 30
0.0
 11
-18.650021999999989
 21
85.527462999999898
 31
0.0
  0
ARC
  5
455
  8
DETAIL
  6
CONTINUOUS
 62
     5
 10
-57.350022000000003
 20
84.877452000000005
 30
0.0
 40
0.65
 50
90.0
 51
270.0
  0
ARC
  5
456
  8
DETAIL
  6
CONTINUOUS
 62
     5
 10
-18.650021999999989
 20
84.877463000000006
 30
0.0
 40
0.65
 50
270.0
 51
90.0
  0
LINE
  5
457
  8
DETAIL
  6
CONTINUOUS
 62
     5
 10
-44.946367000000002
 20
86.209810000000004
 30
0.0
 11
-22.326698
 21
86.209815999999975
 31
0.0
  0
LINE
  5
458
  8
DETAIL
  6
CONTINUOUS
 62
     5
 10
-22.326698
 20
86.209815999999975
 30
0.0
 11
-18.650021999999989
 21
86.209816999999902
 31
0.0
  0
ARC
  5
459
  8
DETAIL
  6
CONTINUOUS
 62
     5
 10
-18.650021999999989
 20
86.859816999999993
 30
0.0
 40
0.65
 50
270.0
 51
26.360916000000209
  0
ARC
  5
45A
  8
DETAIL
  6
CONTINUOUS
 62
     5
 10
-57.100021999999989
 20
-82.236285999999964
 30
0.0
 40
0.9
 50
90.0
 51
270.0
  0
LINE
  5
45B
  8
DETAIL
  6
CONTINUOUS
 62
     5
 10
-57.100021999999989
 20
-81.336285999999973
 30
0.0
 11
-22.326698
 21
-81.336294999999964
 31
0.0
  0
LINE
  5
45C
  8
DETAIL
  6
CONTINUOUS
 62
     5
 10
-22.326698
 20
-81.336294999999964
 30
0.0
 11
-20.154329999999991
 21
-81.336295999999976
 31
0.0
  0
LINE
  5
45D
  8
DETAIL
  6
CONTINUOUS
 62
     5
 10
-57.350022000000003
 20
-84.227451999999971
 30
0.0
 11
-22.326698
 21
-84.227462000000003
 31
0.0
  0
ARC
  5
45E
  8
DETAIL
  6
CONTINUOUS
 62
     5
 10
-57.350022000000003
 20
-84.877452000000005
 30
0.0
 40
0.65
 50
90.0
 51
270.0
  0
LINE
  5
45F
  8
DETAIL
  6
CONTINUOUS
 62
     5
 10
-57.350023
 20
-85.527451999999982
 30
0.0
 11
-21.557802999999989
 21
-85.527461999999971
 31
0.0
  0
LINE
  5
460
  8
DETAIL
  6
CONTINUOUS
 62
     5
 10
-57.100023
 20
-83.136285999999984
 30
0.0
 11
-20.745751999999989
 21
-83.136296000000002
 31
0.0
  0
LINE
  5
461
  8
DETAIL
  6
CONTINUOUS
 62
     5
 10
-44.946367000000002
 20
-86.209810000000004
 30
0.0
 11
-22.326698
 21
-86.209815999999975
 31
0.0
  0
LINE
  5
462
  8
DETAIL
  6
CONTINUOUS
 62
     5
 10
-22.326698
 20
-86.209815999999975
 30
0.0
 11
-21.795100000000019
 21
-86.209815999999975
 31
0.0
  0
LINE
  5
463
  8
DETAIL
  6
CONTINUOUS
 62
     5
 10
-22.326698
 20
-84.227462000000003
 30
0.0
 11
-21.112563999999988
 21
-84.227462000000003
 31
0.0
  0
TEXT
  5
464
  8
ETC
  6
CONTINUOUS
 62
    61
 10
388.34895557586049
 20
16.17003286036157
 30
0.0
 40
40.0
  1
システム部材
 41
0.9
  0
TEXT
  5
465
  8
ETC
  6
CONTINUOUS
 62
    61
 10
391.29197457586048
 20
84.221338860361399
 30
0.0
 40
40.0
  1
P-100CVSD5_4
 41
0.9
  0
TEXT
  5
466
  8
ETC
  6
CONTINUOUS
 62
    61
 10
530.39780606860973
 20
-37.695853285394058
 30
0.0
 40
40.0
  1
P-100CVSD5
 41
0.9
  0
TEXT
  5
467
  8
ETC
  6
CONTINUOUS
 62
    61
 10
532.85506009187634
 20
-91.720925202664446
 30
0.0
 40
40.0
  1
P-100CVSQD5
 41
0.9
  0
LINE
  5
468
  8
OUTLINE
  6
CONTINUOUS
 62
     3
 39
50.0
 10
-75.100789357418222
 20
85.156798478379585
 30
0.0
 11
-8.0
 21
87.5
 31
0.0
  0
LINE
  5
469
  8
OUTLINE
  6
CONTINUOUS
 62
     3
 39
50.0
 10
-75.10078935741825
 20
-85.156798478379613
 30
0.0
 11
-22.06289113498476
 21
-86.971412999999998
 31
0.0
  0
ENDSEC
  0
EOF
