  0
SECTION
  2
HEADER
  9
$ACADVER
  1
AC1009
  9
$INSBASE
 10
0.0
 20
0.0
 30
0.0
  9
$EXTMIN
 10
-189.201548526773
 20
-255.0714566525952
 30
0.0
  9
$EXTMAX
 10
666.24757390661978
 20
359.12355023398811
 30
50.0
  9
$LIMMIN
 10
-2970.0
 20
-2100.0
  9
$LIMMAX
 10
2970.0
 20
2100.0
  9
$ORTHOMODE
 70
     0
  9
$REGENMODE
 70
     1
  9
$FILLMODE
 70
     1
  9
$QTEXTMODE
 70
     0
  9
$MIRRTEXT
 70
     0
  9
$DRAGMODE
 70
     2
  9
$LTSCALE
 40
20.0
  9
$OSMODE
 70
    55
  9
$ATTMODE
 70
     1
  9
$TEXTSIZE
 40
64.0
  9
$TRACEWID
 40
0.05
  9
$TEXTSTYLE
  7
STANDARD
  9
$CLAYER
  8
NOTE
  9
$CELTYPE
  6
CONTINUOUS
  9
$CECOLOR
 62
     7
  9
$DIMSCALE
 40
1.0
  9
$DIMASZ
 40
12.0
  9
$DIMEXO
 40
20.0
  9
$DIMDLI
 40
200.0
  9
$DIMRND
 40
0.0
  9
$DIMDLE
 40
0.0
  9
$DIMEXE
 40
20.0
  9
$DIMTP
 40
0.0
  9
$DIMTM
 40
0.0
  9
$DIMTXT
 40
64.0
  9
$DIMCEN
 40
0.09
  9
$DIMTSZ
 40
0.0
  9
$DIMTOL
 70
     0
  9
$DIMLIM
 70
     0
  9
$DIMTIH
 70
     0
  9
$DIMTOH
 70
     0
  9
$DIMSE1
 70
     0
  9
$DIMSE2
 70
     0
  9
$DIMTAD
 70
     1
  9
$DIMZIN
 70
     8
  9
$DIMBLK
  1

  9
$DIMASO
 70
     1
  9
$DIMSHO
 70
     0
  9
$DIMPOST
  1

  9
$DIMAPOST
  1

  9
$DIMALT
 70
     0
  9
$DIMALTD
 70
     2
  9
$DIMALTF
 40
25.399999999999999
  9
$DIMLFAC
 40
1.0
  9
$DIMTOFL
 70
     1
  9
$DIMTVP
 40
0.0
  9
$DIMTIX
 70
     1
  9
$DIMSOXD
 70
     0
  9
$DIMSAH
 70
     0
  9
$DIMBLK1
  1

  9
$DIMBLK2
  1

  9
$DIMSTYLE
  2
STANDARD
  9
$DIMCLRD
 70
     7
  9
$DIMCLRE
 70
     7
  9
$DIMCLRT
 70
     7
  9
$DIMTFAC
 40
1.0
  9
$DIMGAP
 40
25.0
  9
$LUNITS
 70
     2
  9
$LUPREC
 70
     4
  9
$SKETCHINC
 40
0.1
  9
$FILLETRAD
 40
3.0
  9
$AUNITS
 70
     1
  9
$AUPREC
 70
     3
  9
$MENU
  1
ACAD
  9
$ELEVATION
 40
0.0
  9
$PELEVATION
 40
0.0
  9
$THICKNESS
 40
50.0
  9
$LIMCHECK
 70
     0
  9
$BLIPMODE
 70
     0
  9
$CHAMFERA
 40
0.0
  9
$CHAMFERB
 40
0.0
  9
$SKPOLY
 70
     0
  9
$TDCREATE
 40
2453019.6230103709
  9
$TDUPDATE
 40
2456388.644161968
  9
$TDINDWG
 40
1.7297483218
  9
$TDUSRTIMER
 40
1.7297481366
  9
$USRTIMER
 70
     1
  9
$ANGBASE
 50
0.0
  9
$ANGDIR
 70
     0
  9
$PDMODE
 70
     3
  9
$PDSIZE
 40
-2.0
  9
$PLINEWID
 40
0.0
  9
$COORDS
 70
     1
  9
$SPLFRAME
 70
     0
  9
$SPLINETYPE
 70
     6
  9
$SPLINESEGS
 70
     8
  9
$ATTDIA
 70
     0
  9
$ATTREQ
 70
     1
  9
$HANDLING
 70
     1
  9
$HANDSEED
  5
165
  9
$SURFTAB1
 70
     6
  9
$SURFTAB2
 70
     6
  9
$SURFTYPE
 70
     6
  9
$SURFU
 70
     6
  9
$SURFV
 70
     6
  9
$UCSNAME
  2

  9
$UCSORG
 10
0.0
 20
0.0
 30
0.0
  9
$UCSXDIR
 10
1.0
 20
0.0
 30
0.0
  9
$UCSYDIR
 10
0.0
 20
1.0
 30
0.0
  9
$PUCSNAME
  2

  9
$PUCSORG
 10
0.0
 20
0.0
 30
0.0
  9
$PUCSXDIR
 10
1.0
 20
0.0
 30
0.0
  9
$PUCSYDIR
 10
0.0
 20
1.0
 30
0.0
  9
$USERI1
 70
     0
  9
$USERI2
 70
     0
  9
$USERI3
 70
     0
  9
$USERI4
 70
     0
  9
$USERI5
 70
     0
  9
$USERR1
 40
20.0
  9
$USERR2
 40
0.0
  9
$USERR3
 40
0.0
  9
$USERR4
 40
0.0
  9
$USERR5
 40
0.0
  9
$WORLDVIEW
 70
     1
  9
$SHADEDGE
 70
     3
  9
$SHADEDIF
 70
    70
  9
$TILEMODE
 70
     1
  9
$MAXACTVP
 70
    48
  9
$PLIMCHECK
 70
     0
  9
$PEXTMIN
 10
-1.0000000000000000E+020
 20
-1.0000000000000000E+020
 30
-1.0000000000000000E+020
  9
$PEXTMAX
 10
1.0000000000000000E+020
 20
1.0000000000000000E+020
 30
1.0000000000000000E+020
  9
$PLIMMIN
 10
0.0
 20
0.0
  9
$PLIMMAX
 10
12.0
 20
9.0
  9
$UNITMODE
 70
     0
  9
$VISRETAIN
 70
     0
  9
$PLINEGEN
 70
     0
  9
$PSLTSCALE
 70
     0
  0
ENDSEC
  0
SECTION
  2
TABLES
  0
TABLE
  2
VPORT
 70
     1
  0
VPORT
  2
*ACTIVE
 70
     0
 10
0.0
 20
0.0
 11
1.0
 21
1.0
 12
228.33147438019461
 22
44.293300890357223
 13
0.0
 23
0.0
 14
1.0
 24
1.0
 15
0.0
 25
0.0
 16
0.0
 26
0.0
 36
1.0
 17
0.0
 27
0.0
 37
0.0
 40
1021.681965189115
 41
1.6865079365079361
 42
50.0
 43
0.0
 44
0.0
 50
0.0
 51
0.0
 71
     0
 72
  1000
 73
     1
 74
     0
 75
     0
 76
     0
 77
     0
 78
     0
  0
ENDTAB
  0
TABLE
  2
LTYPE
 70
     3
  0
LTYPE
  2
CONTINUOUS
 70
     0
  3
実線
 72
    65
 73
     0
 40
0.0
  0
LTYPE
  2
DASHDOT
 70
     0
  3
____ _ ____ _ ____ _ ____ _ ____ _ ____ _ ____
 72
    65
 73
     4
 40
5.5
 49
4.0
 49
-0.6
 49
0.3
 49
-0.6
  0
ENDTAB
  0
TABLE
  2
LAYER
 70
    12
  0
LAYER
  2
0
 70
     0
 62
     7
  6
CONTINUOUS
  0
LAYER
  2
NOTE
 70
     0
 62
     4
  6
CONTINUOUS
  0
LAYER
  2
BASIS
 70
     0
 62
     6
  6
DASHDOT
  0
LAYER
  2
OUTLINE
 70
     0
 62
     3
  6
CONTINUOUS
  0
LAYER
  2
DETAIL
 70
     0
 62
     5
  6
CONTINUOUS
  0
LAYER
  2
SIZE
 70
     0
 62
    30
  6
CONTINUOUS
  0
LAYER
  2
ARRANGE
 70
     4
 62
     1
  6
CONTINUOUS
  0
LAYER
  2
DEFPOINTS
 70
     0
 62
     7
  6
CONTINUOUS
  0
LAYER
  2
ETC
 70
     0
 62
    61
  6
CONTINUOUS
  0
LAYER
  2
FIX
 70
     0
 62
    11
  6
CONTINUOUS
  0
LAYER
  2
SERVICESPACE
 70
     0
 62
     2
  6
DASHDOT
  0
LAYER
  2
SYMBOLLINE
 70
     0
 62
    15
  6
CONTINUOUS
  0
ENDTAB
  0
TABLE
  2
STYLE
 70
     2
  0
STYLE
  2
STANDARD
 70
     0
 40
64.0
 41
0.9
 50
0.0
 71
     0
 42
64.0
  3
SIMPLEX.shx
  4
BIGFONT.shx
  0
STYLE
  2
ANNOTATIVE
 70
     0
 40
0.0
 41
1.0
 50
0.0
 71
     0
 42
0.2
  3
txt
  4

  0
ENDTAB
  0
TABLE
  2
VIEW
 70
     1
  0
VIEW
  2
ALL
 70
     0
 40
4282.6198079999976
 10
0.0
 20
41.309904000000003
 41
5940.0
 11
0.0
 21
0.0
 31
1.0
 12
0.0
 22
0.0
 32
0.0
 42
50.0
 43
0.0
 44
0.0
 50
0.0
 71
     0
  0
ENDTAB
  0
TABLE
  2
UCS
 70
     0
  0
ENDTAB
  0
TABLE
  2
APPID
 70
    18
  0
APPID
  2
ACAD
 70
     0
  0
APPID
  2
ACADANNOTATIVE
 70
     0
  0
APPID
  2
AUTOCAD_POSTSCRIPT_FIGURE
 70
     0
  0
APPID
  2
ACAD_EXEMPT_FROM_CAD_STANDARDS
 70
     0
  0
APPID
  2
ACAD_PSEXT
 70
     0
  0
APPID
  2
ACAUTHENVIRON
 70
     0
  0
APPID
  2
GENIUS_GENOENT_13
 70
     0
  0
APPID
  2
GENIUS_GENCFG_13
 70
     0
  0
APPID
  2
GENIUS_GENCFG0_13
 70
     0
  0
APPID
  2
GENIUS_GENCFG1_13
 70
     0
  0
APPID
  2
GENIUS_GENCFG2_13
 70
     0
  0
APPID
  2
GENIUS_GENCFG3_13
 70
     0
  0
APPID
  2
GENIUS_GENCFG4_13
 70
     0
  0
APPID
  2
GENIUS_GEVCFG0_13
 70
     0
  0
APPID
  2
CONTENTBLOCKICON
 70
     0
  0
APPID
  2
CONTENTBLOCKDESCRIPTION
 70
     0
  0
APPID
  2
ACAD_NAV_VCDISPLAY
 70
     0
  0
APPID
  2
ACAD_MLEADERVER
 70
     0
  0
ENDTAB
  0
TABLE
  2
DIMSTYLE
 70
     2
  0
DIMSTYLE
  2
STANDARD
 70
     0
  3

  4

  5

  6

  7

 40
1.0
 41
0.18
 42
0.0625
 43
0.38
 44
0.18
 45
0.0
 46
0.0
 47
0.0
 48
0.0
140
0.18
141
0.09
142
0.0
143
25.399999999999999
144
1.0
145
0.0
146
1.0
147
0.09
 71
     0
 72
     0
 73
     1
 74
     1
 75
     0
 76
     0
 77
     0
 78
     0
170
     0
171
     2
172
     0
173
     0
174
     0
175
     0
176
     7
177
     7
178
     7
  0
DIMSTYLE
  2
ANNOTATIVE
 70
     0
  3

  4

  5

  6

  7

 40
1.0
 41
0.18
 42
0.0625
 43
0.38
 44
0.18
 45
0.0
 46
0.0
 47
0.0
 48
0.0
140
0.18
141
0.09
142
0.0
143
25.399999999999999
144
1.0
145
0.0
146
1.0
147
0.09
 71
     0
 72
     0
 73
     1
 74
     1
 75
     0
 76
     0
 77
     0
 78
     0
170
     0
171
     2
172
     0
173
     0
174
     0
175
     0
176
     0
177
     0
178
     0
  0
ENDTAB
  0
ENDSEC
  0
SECTION
  2
BLOCKS
  0
BLOCK
  8
0
  2
$MODEL_SPACE
 70
     0
 10
0.0
 20
0.0
 30
0.0
  3
$MODEL_SPACE
  1

  0
ENDBLK
  5
6D
  8
0
  0
BLOCK
 67
     1
  8
0
  2
$PAPER_SPACE
 70
     0
 10
0.0
 20
0.0
 30
0.0
  3
$PAPER_SPACE
  1

  0
ENDBLK
  5
69
 67
     1
  8
0
  0
BLOCK
  8
0
  2
_ORIGIN
 70
     0
 10
0.0
 20
0.0
 30
0.0
  3
_ORIGIN
  1

  0
CIRCLE
  5
90
  8
0
  6
CONTINUOUS
 62
     7
 10
0.0
 20
0.0
 30
0.0
 40
0.5
  0
LINE
  5
91
  8
0
  6
CONTINUOUS
 62
     7
 10
0.0
 20
0.0
 30
0.0
 11
-1.0
 21
0.0
 31
0.0
  0
ENDBLK
  5
92
  8
0
  0
ENDSEC
  0
SECTION
  2
ENTITIES
  0
TEXT
  5
93
  8
ETC
  6
CONTINUOUS
 62
    61
 10
136.87614533519169
 20
295.123550233988
 30
0.0
 40
64.0
  1
P-10SWL2_1
 41
0.9
  0
TEXT
  5
94
  8
ETC
  6
CONTINUOUS
 62
    61
 10
132.6901513351913
 20
177.16824021915679
 30
0.0
 40
64.0
  1
システム部材
 41
0.9
  0
CIRCLE
  5
95
  8
ARRANGE
  6
CONTINUOUS
 62
     1
 10
0.0
 20
0.0
 30
0.0
 40
40.0
  0
POINT
  5
96
  8
ARRANGE
  6
CONTINUOUS
 62
     1
 10
0.0
 20
0.0
 30
0.0
 39
50.0
  0
TEXT
  5
97
  8
ETC
  6
CONTINUOUS
 62
    61
 10
183.396928821312
 20
69.048903962109819
 30
0.0
 40
40.0
  1
P-10SWL2
 41
0.9
  0
LINE
  5
98
  8
BASIS
  6
DASHDOT
 62
     6
 10
-0.0000000000002274
 20
-47.85000000000003
 30
0.0
 11
-0.0000000000002274
 21
52.500000000000092
 31
0.0
  0
LINE
  5
99
  8
BASIS
  6
DASHDOT
 62
     6
 10
-48.305984952675963
 20
0.0000000000000179
 30
0.0
 11
48.317237296002077
 21
0.0000000000000179
 31
0.0
  0
LINE
  5
9A
  8
DETAIL
  6
CONTINUOUS
 62
     5
 10
14.999999999999771
 20
-10.500028081166359
 30
0.0
 11
-15.000000000000229
 21
-10.500028081166819
 31
0.0
  0
ARC
  5
9B
  8
DETAIL
  6
CONTINUOUS
 62
     5
 10
-0.0000000000013074
 20
25.499971918898439
 30
0.0
 40
39.000000000065022
 50
247.38013505195761
 51
292.61986494804239
  0
LINE
  5
9C
  8
DETAIL
  6
CONTINUOUS
 62
     5
 10
31.509084858013299
 20
-10.50002808116659
 30
0.0
 11
-31.55563145652718
 21
-10.50002808116659
 31
0.0
  0
LINE
  5
9D
  8
DETAIL
  6
CONTINUOUS
 62
     5
 10
34.999999999999773
 20
-7.0000398718500492
 30
0.0
 11
34.999999999999773
 21
-0.0000398718500492
 31
0.0
  0
ARC
  5
9E
  8
DETAIL
  6
CONTINUOUS
 62
     5
 10
-31.500000000000512
 20
-7.0004702318026357
 30
0.0
 40
3.5
 50
180.0
 51
270.0
  0
ARC
  5
9F
  8
DETAIL
  6
CONTINUOUS
 62
     5
 10
31.499999999999769
 20
-7.0000398718500492
 30
0.0
 40
3.5
 50
270.0
 51
0.0
  0
LINE
  5
A0
  8
DETAIL
  6
CONTINUOUS
 62
     5
 10
-35.000000000000227
 20
-0.0000398718500492
 30
0.0
 11
-6.3999948829779214
 21
0.0000072908467814
 31
0.0
  0
LINE
  5
A1
  8
DETAIL
  6
CONTINUOUS
 62
     5
 10
-6.3999948829779214
 20
0.0000072908467814
 30
0.0
 11
34.999999999999773
 21
-0.0000398718500492
 31
0.0
  0
ARC
  5
A2
  8
DETAIL
  6
CONTINUOUS
 62
     5
 10
11.110420783742599
 20
25.10040466426733
 30
0.0
 40
0.9999999999998976
 50
188.2354563655108
 51
269.87945575119829
  0
ARC
  5
A3
  8
DETAIL
  6
CONTINUOUS
 62
     5
 10
21.293963891259569
 20
23.100410255648399
 30
0.0
 40
0.9999999999999341
 50
1.0303890000009901
 51
90.0
  0
LINE
  5
A4
  8
DETAIL
  6
CONTINUOUS
 62
     5
 10
21.293963891259569
 20
24.100410255648399
 30
0.0
 11
11.10831689125877
 21
24.1004068774517
 31
0.0
  0
ARC
  5
A5
  8
DETAIL
  6
CONTINUOUS
 62
     5
 10
9.1085151170223071
 20
30.999972461317551
 30
0.0
 40
0.9999999999999699
 50
0.4896959999893915
 51
90.0
  0
LINE
  5
A6
  8
DETAIL
  6
CONTINUOUS
 62
     5
 10
9.1085151170223071
 20
31.999972461317551
 30
0.0
 11
-9.1085058829795003
 21
31.999973805264009
 31
0.0
  0
ARC
  5
A7
  8
DETAIL
  6
CONTINUOUS
 62
     5
 10
-9.1085058829795003
 20
30.999973805264009
 30
0.0
 40
1.0
 50
90.0
 51
179.51030400001059
  0
LINE
  5
A8
  8
DETAIL
  6
CONTINUOUS
 62
     5
 10
-22.850000005000201
 20
-0.0000398718499923
 30
0.0
 11
-22.850000005000201
 21
0.4999601281500077
 31
0.0
  0
ARC
  5
A9
  8
DETAIL
  6
CONTINUOUS
 62
     5
 10
22.651709146055278
 20
11.100400588488579
 30
0.0
 40
0.200000000000006
 50
7.495857999993043
 51
90.0
  0
LINE
  5
AA
  8
DETAIL
  6
CONTINUOUS
 62
     5
 10
22.651709146055278
 20
11.30040058848863
 30
0.0
 11
-0.3949948829777554
 21
11.300411954371899
 31
0.0
  0
LINE
  5
AB
  8
DETAIL
  6
CONTINUOUS
 62
     5
 10
-0.3949948829777554
 20
11.300411954371899
 30
0.0
 11
-22.650084784750561
 21
11.30037378829633
 31
0.0
  0
ARC
  5
AC
  8
DETAIL
  6
CONTINUOUS
 62
     5
 10
-22.650084784750561
 20
11.100373788296279
 30
0.0
 40
0.200000000000045
 50
90.0
 51
178.3316619999795
  0
LINE
  5
AD
  8
SIZE
  6
CONTINUOUS
 62
    30
 10
-35.000000000000512
 20
19.999529768197359
 30
0.0
 11
-35.000000000000497
 21
105.0736221919378
 31
0.0
  0
LINE
  5
AE
  8
SIZE
  6
CONTINUOUS
 62
    30
 10
34.999999999999773
 20
19.999960128149951
 30
0.0
 11
34.99999999999978
 21
105.0736221919378
 31
0.0
  0
LINE
  5
AF
  8
SIZE
  6
CONTINUOUS
 62
    30
 10
-47.00000000000049
 20
85.073622191937844
 30
0.0
 11
-59.000000000000497
 21
85.073622191937844
 31
0.0
  0
LINE
  5
B0
  8
SIZE
  6
CONTINUOUS
 62
    30
 10
46.999999999999773
 20
85.073622191937844
 30
0.0
 11
58.99999999999978
 21
85.073622191937844
 31
0.0
  0
LINE
  5
B1
  8
SIZE
  6
CONTINUOUS
 62
    30
 10
-35.000000000000497
 20
85.073622191937844
 30
0.0
 11
34.99999999999978
 21
85.073622191937844
 31
0.0
  0
CIRCLE
  5
B2
  8
SIZE
  6
CONTINUOUS
 62
    30
 10
-35.000000000000497
 20
85.073622191937844
 30
0.0
 40
6.0
  0
LINE
  5
B3
  8
SIZE
  6
CONTINUOUS
 62
    30
 10
-35.000000000000497
 20
85.073622191937844
 30
0.0
 11
-47.00000000000049
 21
85.073622191937844
 31
0.0
  0
CIRCLE
  5
B4
  8
SIZE
  6
CONTINUOUS
 62
    30
 10
34.99999999999978
 20
85.073622191937844
 30
0.0
 40
6.0
  0
LINE
  5
B5
  8
SIZE
  6
CONTINUOUS
 62
    30
 10
34.99999999999978
 20
85.073622191937844
 30
0.0
 11
46.999999999999773
 21
85.073622191937844
 31
0.0
  0
TEXT
  5
B6
  8
SIZE
  6
CONTINUOUS
 62
    30
 10
-46.628571428571789
 20
110.0736221919378
 30
0.0
 40
64.0
  1
70
 41
0.9
 72
     1
 11
-0.0000000000003624
 21
110.0736221919378
 31
0.0
  0
POINT
  5
B7
  8
DEFPOINTS
  6
CONTINUOUS
 62
    30
 10
-35.000000000000512
 20
-0.0004702318026375
 30
0.0
  0
POINT
  5
B8
  8
DEFPOINTS
  6
CONTINUOUS
 62
    30
 10
34.999999999999773
 20
-0.0000398718500492
 30
0.0
  0
POINT
  5
B9
  8
DEFPOINTS
  6
CONTINUOUS
 62
    30
 10
34.99999999999978
 20
85.073622191937844
 30
0.0
  0
LINE
  5
BA
  8
SIZE
  6
CONTINUOUS
 62
    30
 10
-30.208505882977871
 20
31.99997191883341
 30
0.0
 11
-120.201548526773
 21
31.999971918833442
 31
0.0
  0
LINE
  5
BB
  8
SIZE
  6
CONTINUOUS
 62
    30
 10
-55.000000000000227
 20
-0.0000398718500435
 30
0.0
 11
-120.201548526773
 21
-0.000039871850025
 31
0.0
  0
LINE
  5
BC
  8
SIZE
  6
CONTINUOUS
 62
    30
 10
-100.201548526773
 20
-12.00003987185003
 30
0.0
 11
-100.201548526773
 21
-24.000039871850031
 31
0.0
  0
LINE
  5
BD
  8
SIZE
  6
CONTINUOUS
 62
    30
 10
-100.201548526773
 20
43.999971918833417
 30
0.0
 11
-100.2015485267729
 21
207.22475864879669
 31
0.0
  0
LINE
  5
BE
  8
SIZE
  6
CONTINUOUS
 62
    30
 10
-100.201548526773
 20
-0.0000398718500307
 30
0.0
 11
-100.201548526773
 21
31.999971918833431
 31
0.0
  0
CIRCLE
  5
BF
  8
SIZE
  6
CONTINUOUS
 62
    30
 10
-100.201548526773
 20
-0.0000398718500307
 30
0.0
 40
6.0
  0
LINE
  5
C0
  8
SIZE
  6
CONTINUOUS
 62
    30
 10
-100.201548526773
 20
-0.0000398718500307
 30
0.0
 11
-100.201548526773
 21
-12.00003987185003
 31
0.0
  0
CIRCLE
  5
C1
  8
SIZE
  6
CONTINUOUS
 62
    30
 10
-100.201548526773
 20
31.999971918833431
 30
0.0
 40
6.0
  0
LINE
  5
C2
  8
SIZE
  6
CONTINUOUS
 62
    30
 10
-100.201548526773
 20
31.999971918833431
 30
0.0
 11
-100.201548526773
 21
43.999971918833417
 31
0.0
  0
TEXT
  5
C3
  8
SIZE
  6
CONTINUOUS
 62
    30
 10
-125.201548526773
 20
88.967615791653785
 30
0.0
 40
64.0
  1
32
 50
90.0
 41
0.9
 72
     1
 11
-125.201548526773
 21
135.5961872202252
 31
0.0
  0
POINT
  5
C4
  8
DEFPOINTS
  6
CONTINUOUS
 62
    30
 10
-10.20850588297786
 20
31.99997191883341
 30
0.0
  0
POINT
  5
C5
  8
DEFPOINTS
  6
CONTINUOUS
 62
    30
 10
-35.000000000000227
 20
-0.0000398718500492
 30
0.0
  0
POINT
  5
C6
  8
DEFPOINTS
  6
CONTINUOUS
 62
    30
 10
-100.201548526773
 20
-0.0000398718500307
 30
0.0
  0
LINE
  5
C7
  8
DETAIL
  6
CONTINUOUS
 62
     5
 39
50.0
 10
22.850000004999728
 20
11.126477651021791
 30
0.0
 11
22.850000004999728
 21
-0.0000398718499923
 31
0.0
  0
LINE
  5
C8
  8
DETAIL
  6
CONTINUOUS
 62
     5
 39
50.0
 10
-22.850000005000201
 20
11.10619656362832
 30
0.0
 11
-22.850000005000201
 21
-0.0000398718499923
 31
0.0
  0
LINE
  5
C9
  8
DETAIL
  6
CONTINUOUS
 62
     5
 39
50.0
 10
10.108478593285099
 20
31.008519164797178
 30
0.0
 11
10.108478593285099
 21
11.3004067744011
 31
0.0
  0
LINE
  5
CA
  8
DETAIL
  6
CONTINUOUS
 62
     5
 39
50.0
 10
-10.10846935924234
 20
31.008520508743629
 30
0.0
 11
-10.10846935924234
 21
11.30039529637577
 31
0.0
  0
LINE
  5
CB
  8
DETAIL
  6
CONTINUOUS
 62
     5
 39
50.0
 10
22.29380218923319
 20
23.118392966931761
 30
0.0
 11
22.29380218923319
 21
11.300400764996651
 31
0.0
  0
ARC
  5
CC
  8
DETAIL
  6
CONTINUOUS
 62
     5
 10
-11.11042078374305
 20
25.10040466426733
 30
0.0
 40
0.9999999999998976
 50
270.12054424880489
 51
351.76454363448909
  0
ARC
  5
CD
  8
DETAIL
  6
CONTINUOUS
 62
     5
 10
-21.293963891260031
 20
23.100410255648399
 30
0.0
 40
0.9999999999999341
 50
90.0
 51
178.96961099999899
  0
LINE
  5
CE
  8
DETAIL
  6
CONTINUOUS
 62
     5
 10
-21.293963891260031
 20
24.100410255648399
 30
0.0
 11
-11.10831689125922
 21
24.1004068774517
 31
0.0
  0
LINE
  5
CF
  8
DETAIL
  6
CONTINUOUS
 62
     5
 39
50.0
 10
-22.293802189233649
 20
23.118392966931761
 30
0.0
 11
-22.293802189233649
 21
11.300400764996651
 31
0.0
  0
LINE
  5
D0
  8
SIZE
  6
CONTINUOUS
 62
    30
 10
-55.000000000000227
 20
-0.0000398718500435
 30
0.0
 11
-120.201548526773
 21
-0.000039871850025
 31
0.0
  0
LINE
  5
D1
  8
SIZE
  6
CONTINUOUS
 62
    30
 10
-51.555631456527173
 20
-10.50002808116658
 30
0.0
 11
-120.201548526773
 21
-10.500028081166571
 31
0.0
  0
LINE
  5
D2
  8
SIZE
  6
CONTINUOUS
 62
    30
 10
-100.201548526773
 20
11.99996012814997
 30
0.0
 11
-100.201548526773
 21
23.999960128149969
 31
0.0
  0
LINE
  5
D3
  8
SIZE
  6
CONTINUOUS
 62
    30
 10
-100.201548526773
 20
-22.500028081166569
 30
0.0
 11
-100.201548526773
 21
-255.0714566525952
 31
0.0
  0
LINE
  5
D4
  8
SIZE
  6
CONTINUOUS
 62
    30
 10
-100.201548526773
 20
-0.0000398718500307
 30
0.0
 11
-100.201548526773
 21
-10.500028081166571
 31
0.0
  0
CIRCLE
  5
D5
  8
SIZE
  6
CONTINUOUS
 62
    30
 10
-100.201548526773
 20
-0.0000398718500307
 30
0.0
 40
6.0
  0
LINE
  5
D6
  8
SIZE
  6
CONTINUOUS
 62
    30
 10
-100.201548526773
 20
-0.0000398718500307
 30
0.0
 11
-100.201548526773
 21
11.99996012814996
 31
0.0
  0
CIRCLE
  5
D7
  8
SIZE
  6
CONTINUOUS
 62
    30
 10
-100.201548526773
 20
-10.500028081166571
 30
0.0
 40
6.0
  0
LINE
  5
D8
  8
SIZE
  6
CONTINUOUS
 62
    30
 10
-100.201548526773
 20
-10.500028081166571
 30
0.0
 11
-100.201548526773
 21
-22.500028081166569
 31
0.0
  0
TEXT
  5
D9
  8
SIZE
  6
CONTINUOUS
 62
    30
 10
-125.201548526773
 20
-230.0714566525952
 30
0.0
 40
64.0
  1
10.5
 50
90.0
 41
0.9
 72
     1
 11
-125.201548526773
 21
-147.78574236688081
 31
0.0
  0
POINT
  5
DA
  8
DEFPOINTS
  6
CONTINUOUS
 62
    30
 10
-35.000000000000227
 20
-0.0000398718500492
 30
0.0
  0
POINT
  5
DB
  8
DEFPOINTS
  6
CONTINUOUS
 62
    30
 10
-31.55563145652718
 20
-10.50002808116659
 30
0.0
  0
POINT
  5
DC
  8
DEFPOINTS
  6
CONTINUOUS
 62
    30
 10
-100.201548526773
 20
-10.500028081166571
 30
0.0
  0
LINE
  5
DD
  8
DETAIL
  6
CONTINUOUS
 62
     5
 10
-35.000000000000227
 20
-7.0000398718500492
 30
0.0
 11
-35.000000000000227
 21
-0.0000398718500492
 31
0.0
  0
ARC
  5
DE
  8
OUTLINE
  6
CONTINUOUS
 62
     3
 10
-0.0000000000013074
 20
25.499971918898439
 30
0.0
 40
39.000000000065022
 50
247.38013505195769
 51
292.61986494804222
  0
LINE
  5
DF
  8
OUTLINE
  6
CONTINUOUS
 62
     3
 10
31.509084858013299
 20
-10.50002808116659
 30
0.0
 11
15.00000000002488
 21
-10.50002808116108
 31
0.0
  0
LINE
  5
E0
  8
OUTLINE
  6
CONTINUOUS
 62
     3
 10
34.999999999999773
 20
-7.0000398718500492
 30
0.0
 11
34.999999999999773
 21
-0.0000398718500492
 31
0.0
  0
ARC
  5
E1
  8
OUTLINE
  6
CONTINUOUS
 62
     3
 10
-31.500000000000512
 20
-7.0004702318026357
 30
0.0
 40
3.5
 50
180.0
 51
270.0
  0
ARC
  5
E2
  8
OUTLINE
  6
CONTINUOUS
 62
     3
 10
31.499999999999769
 20
-7.0000398718500492
 30
0.0
 40
3.5
 50
270.0
 51
0.0
  0
LINE
  5
E3
  8
OUTLINE
  6
CONTINUOUS
 62
     3
 10
-35.000000000000227
 20
-0.0000398718500492
 30
0.0
 11
-22.850000005000201
 21
-0.0000398718499923
 31
0.0
  0
LINE
  5
E4
  8
OUTLINE
  6
CONTINUOUS
 62
     3
 10
22.850000004999728
 20
0.000055525406025
 30
0.0
 11
34.999999999999773
 21
-0.0000398718500492
 31
0.0
  0
ARC
  5
E5
  8
OUTLINE
  6
CONTINUOUS
 62
     3
 10
11.110420783742599
 20
25.10040466426733
 30
0.0
 40
0.9999999999998976
 50
188.2354563655108
 51
269.87945575119829
  0
ARC
  5
E6
  8
OUTLINE
  6
CONTINUOUS
 62
     3
 10
21.293963891259569
 20
23.100410255648399
 30
0.0
 40
0.9999999999999341
 50
1.0303890000009761
 51
90.0
  0
LINE
  5
E7
  8
OUTLINE
  6
CONTINUOUS
 62
     3
 10
21.293963891259569
 20
24.100410255648399
 30
0.0
 11
11.10831689125877
 21
24.1004068774517
 31
0.0
  0
ARC
  5
E8
  8
OUTLINE
  6
CONTINUOUS
 62
     3
 10
9.1085151170223071
 20
30.999972461317551
 30
0.0
 40
0.9999999999999699
 50
0.4896959999894054
 51
90.0
  0
LINE
  5
E9
  8
OUTLINE
  6
CONTINUOUS
 62
     3
 10
9.1085151170223071
 20
31.999972461317551
 30
0.0
 11
-9.1085058829795003
 21
31.999973805264009
 31
0.0
  0
ARC
  5
EA
  8
OUTLINE
  6
CONTINUOUS
 62
     3
 10
-9.1085058829795003
 20
30.999973805264009
 30
0.0
 40
1.0
 50
90.0
 51
179.51030400001059
  0
LINE
  5
EB
  8
OUTLINE
  6
CONTINUOUS
 62
     3
 10
-22.850000005000201
 20
-0.0000398718499923
 30
0.0
 11
-22.850000005000201
 21
0.4999601281500077
 31
0.0
  0
ARC
  5
EC
  8
OUTLINE
  6
CONTINUOUS
 62
     3
 10
22.651709146055278
 20
11.100400588488579
 30
0.0
 40
0.200000000000006
 50
7.495857999993051
 51
90.0
  0
LINE
  5
ED
  8
OUTLINE
  6
CONTINUOUS
 62
     3
 10
22.651709146055278
 20
11.30040058848863
 30
0.0
 11
22.29380218923319
 21
11.300400764996651
 31
0.0
  0
LINE
  5
EE
  8
OUTLINE
  6
CONTINUOUS
 62
     3
 10
-22.293802189233649
 20
11.300400764996651
 30
0.0
 11
-22.650084784750561
 21
11.30037378829633
 31
0.0
  0
ARC
  5
EF
  8
OUTLINE
  6
CONTINUOUS
 62
     3
 10
-22.650084784750561
 20
11.100373788296279
 30
0.0
 40
0.200000000000045
 50
90.0
 51
178.33166199997939
  0
LINE
  5
F0
  8
OUTLINE
  6
CONTINUOUS
 62
     3
 39
50.0
 10
22.850000004999728
 20
11.126477651021791
 30
0.0
 11
22.850000004999728
 21
-0.0000398718499923
 31
0.0
  0
LINE
  5
F1
  8
OUTLINE
  6
CONTINUOUS
 62
     3
 39
50.0
 10
-22.850000005000201
 20
11.10619656362832
 30
0.0
 11
-22.850000005000201
 21
-0.0000398718499923
 31
0.0
  0
LINE
  5
F2
  8
OUTLINE
  6
CONTINUOUS
 62
     3
 39
50.0
 10
10.108478593285099
 20
31.008519164797178
 30
0.0
 11
10.120733005455691
 21
24.957163254370201
 31
0.0
  0
LINE
  5
F3
  8
OUTLINE
  6
CONTINUOUS
 62
     3
 39
50.0
 10
-10.10846935924234
 20
31.008520508743629
 30
0.0
 11
-10.120733005456151
 21
24.957163254370201
 31
0.0
  0
LINE
  5
F4
  8
OUTLINE
  6
CONTINUOUS
 62
     3
 39
50.0
 10
22.29380218923319
 20
23.118392966931761
 30
0.0
 11
22.29380218923319
 21
11.300400764996651
 31
0.0
  0
ARC
  5
F5
  8
OUTLINE
  6
CONTINUOUS
 62
     3
 10
-11.11042078374305
 20
25.10040466426733
 30
0.0
 40
0.9999999999998976
 50
270.12054424880489
 51
351.76454363448892
  0
ARC
  5
F6
  8
OUTLINE
  6
CONTINUOUS
 62
     3
 10
-21.293963891260031
 20
23.100410255648399
 30
0.0
 40
0.9999999999999341
 50
90.0
 51
178.96961099999899
  0
LINE
  5
F7
  8
OUTLINE
  6
CONTINUOUS
 62
     3
 10
-21.293963891260031
 20
24.100410255648399
 30
0.0
 11
-11.10831689125922
 21
24.1004068774517
 31
0.0
  0
LINE
  5
F8
  8
OUTLINE
  6
CONTINUOUS
 62
     3
 39
50.0
 10
-22.293802189233649
 20
23.118392966931761
 30
0.0
 11
-22.293802189233649
 21
11.300400764996651
 31
0.0
  0
LINE
  5
F9
  8
OUTLINE
  6
CONTINUOUS
 62
     3
 10
-35.000000000000227
 20
-7.0000398718500492
 30
0.0
 11
-35.000000000000227
 21
-0.0000398718500492
 31
0.0
  0
LINE
  5
FA
  8
OUTLINE
  6
CONTINUOUS
 62
     3
 10
-15.000000000000229
 20
-10.50002808116659
 30
0.0
 11
-31.55563145652718
 21
-10.50002808116659
 31
0.0
  0
LINE
  5
FB
  8
NOTE
  6
CONTINUOUS
 62
     4
 10
-0.0000000000002274
 20
14.84999999999857
 30
0.0
 11
-0.0000000000002274
 21
-14.850000000000341
 31
0.0
  0
CIRCLE
  5
FC
  8
FIX
  6
CONTINUOUS
 62
    11
 39
50.0
 10
-0.0000000000002274
 20
0.0000000000000249
 30
0.0
 40
4.0
  0
TEXT
  5
105
  8
ETC
  6
CONTINUOUS
 62
    61
 10
185.79475357820769
 20
1.104630494924151
 30
0.0
 40
40.0
  1
P-10SWL
 41
0.9
  0
ENDSEC
  0
EOF
