  0
SECTION
  2
HEADER
  9
$ACADVER
  1
AC1009
  9
$INSBASE
 10
0.0
 20
0.0
 30
0.0
  9
$EXTMIN
 10
-163.11409143219859
 20
-83.999999999999986
 30
0.0
  9
$EXTMAX
 10
690.93328819233386
 20
359.12355023398811
 30
50.0
  9
$LIMMIN
 10
-2970.0
 20
-2100.0
  9
$LIMMAX
 10
2970.0
 20
2100.0
  9
$ORTHOMODE
 70
     0
  9
$REGENMODE
 70
     1
  9
$FILLMODE
 70
     1
  9
$QTEXTMODE
 70
     0
  9
$MIRRTEXT
 70
     0
  9
$DRAGMODE
 70
     2
  9
$LTSCALE
 40
20.0
  9
$OSMODE
 70
    55
  9
$ATTMODE
 70
     1
  9
$TEXTSIZE
 40
64.0
  9
$TRACEWID
 40
0.05
  9
$TEXTSTYLE
  7
STANDARD
  9
$CLAYER
  8
SIZE
  9
$CELTYPE
  6
CONTINUOUS
  9
$CECOLOR
 62
     7
  9
$DIMSCALE
 40
1.0
  9
$DIMASZ
 40
12.0
  9
$DIMEXO
 40
20.0
  9
$DIMDLI
 40
200.0
  9
$DIMRND
 40
0.0
  9
$DIMDLE
 40
0.0
  9
$DIMEXE
 40
20.0
  9
$DIMTP
 40
0.0
  9
$DIMTM
 40
0.0
  9
$DIMTXT
 40
64.0
  9
$DIMCEN
 40
0.09
  9
$DIMTSZ
 40
0.0
  9
$DIMTOL
 70
     0
  9
$DIMLIM
 70
     0
  9
$DIMTIH
 70
     0
  9
$DIMTOH
 70
     0
  9
$DIMSE1
 70
     0
  9
$DIMSE2
 70
     0
  9
$DIMTAD
 70
     1
  9
$DIMZIN
 70
     8
  9
$DIMBLK
  1

  9
$DIMASO
 70
     1
  9
$DIMSHO
 70
     0
  9
$DIMPOST
  1

  9
$DIMAPOST
  1

  9
$DIMALT
 70
     0
  9
$DIMALTD
 70
     2
  9
$DIMALTF
 40
25.399999999999999
  9
$DIMLFAC
 40
1.0
  9
$DIMTOFL
 70
     1
  9
$DIMTVP
 40
0.0
  9
$DIMTIX
 70
     1
  9
$DIMSOXD
 70
     0
  9
$DIMSAH
 70
     0
  9
$DIMBLK1
  1

  9
$DIMBLK2
  1

  9
$DIMSTYLE
  2
STANDARD
  9
$DIMCLRD
 70
     7
  9
$DIMCLRE
 70
     7
  9
$DIMCLRT
 70
     7
  9
$DIMTFAC
 40
1.0
  9
$DIMGAP
 40
25.0
  9
$LUNITS
 70
     2
  9
$LUPREC
 70
     4
  9
$SKETCHINC
 40
0.1
  9
$FILLETRAD
 40
3.0
  9
$AUNITS
 70
     1
  9
$AUPREC
 70
     3
  9
$MENU
  1
ACAD
  9
$ELEVATION
 40
0.0
  9
$PELEVATION
 40
0.0
  9
$THICKNESS
 40
50.0
  9
$LIMCHECK
 70
     0
  9
$BLIPMODE
 70
     0
  9
$CHAMFERA
 40
0.0
  9
$CHAMFERB
 40
0.0
  9
$SKPOLY
 70
     0
  9
$TDCREATE
 40
2453019.6230103709
  9
$TDUPDATE
 40
2456388.6463495488
  9
$TDINDWG
 40
1.7335307523000001
  9
$TDUSRTIMER
 40
1.7335305671000001
  9
$USRTIMER
 70
     1
  9
$ANGBASE
 50
0.0
  9
$ANGDIR
 70
     0
  9
$PDMODE
 70
     3
  9
$PDSIZE
 40
-2.0
  9
$PLINEWID
 40
0.0
  9
$COORDS
 70
     1
  9
$SPLFRAME
 70
     0
  9
$SPLINETYPE
 70
     6
  9
$SPLINESEGS
 70
     8
  9
$ATTDIA
 70
     0
  9
$ATTREQ
 70
     1
  9
$HANDLING
 70
     1
  9
$HANDSEED
  5
181
  9
$SURFTAB1
 70
     6
  9
$SURFTAB2
 70
     6
  9
$SURFTYPE
 70
     6
  9
$SURFU
 70
     6
  9
$SURFV
 70
     6
  9
$UCSNAME
  2

  9
$UCSORG
 10
0.0
 20
0.0
 30
0.0
  9
$UCSXDIR
 10
1.0
 20
0.0
 30
0.0
  9
$UCSYDIR
 10
0.0
 20
1.0
 30
0.0
  9
$PUCSNAME
  2

  9
$PUCSORG
 10
0.0
 20
0.0
 30
0.0
  9
$PUCSXDIR
 10
1.0
 20
0.0
 30
0.0
  9
$PUCSYDIR
 10
0.0
 20
1.0
 30
0.0
  9
$USERI1
 70
     0
  9
$USERI2
 70
     0
  9
$USERI3
 70
     0
  9
$USERI4
 70
     0
  9
$USERI5
 70
     0
  9
$USERR1
 40
20.0
  9
$USERR2
 40
0.0
  9
$USERR3
 40
0.0
  9
$USERR4
 40
0.0
  9
$USERR5
 40
0.0
  9
$WORLDVIEW
 70
     1
  9
$SHADEDGE
 70
     3
  9
$SHADEDIF
 70
    70
  9
$TILEMODE
 70
     1
  9
$MAXACTVP
 70
    48
  9
$PLIMCHECK
 70
     0
  9
$PEXTMIN
 10
-1.0000000000000000E+020
 20
-1.0000000000000000E+020
 30
-1.0000000000000000E+020
  9
$PEXTMAX
 10
1.0000000000000000E+020
 20
1.0000000000000000E+020
 30
1.0000000000000000E+020
  9
$PLIMMIN
 10
0.0
 20
0.0
  9
$PLIMMAX
 10
12.0
 20
9.0
  9
$UNITMODE
 70
     0
  9
$VISRETAIN
 70
     0
  9
$PLINEGEN
 70
     0
  9
$PSLTSCALE
 70
     0
  0
ENDSEC
  0
SECTION
  2
TABLES
  0
TABLE
  2
VPORT
 70
     1
  0
VPORT
  2
*ACTIVE
 70
     0
 10
0.0
 20
0.0
 11
1.0
 21
1.0
 12
514.82785972787792
 22
144.24059684297109
 13
0.0
 23
0.0
 14
1.0
 24
1.0
 15
0.0
 25
0.0
 16
0.0
 26
0.0
 36
1.0
 17
0.0
 27
0.0
 37
0.0
 40
1224.4182398500261
 41
1.6865079365079361
 42
50.0
 43
0.0
 44
0.0
 50
0.0
 51
0.0
 71
     0
 72
  1000
 73
     1
 74
     0
 75
     0
 76
     0
 77
     0
 78
     0
  0
ENDTAB
  0
TABLE
  2
LTYPE
 70
     3
  0
LTYPE
  2
CONTINUOUS
 70
     0
  3
実線
 72
    65
 73
     0
 40
0.0
  0
LTYPE
  2
DASHDOT
 70
     0
  3
____ _ ____ _ ____ _ ____ _ ____ _ ____ _ ____
 72
    65
 73
     4
 40
5.5
 49
4.0
 49
-0.6
 49
0.3
 49
-0.6
  0
ENDTAB
  0
TABLE
  2
LAYER
 70
    12
  0
LAYER
  2
0
 70
     0
 62
     7
  6
CONTINUOUS
  0
LAYER
  2
SIZE
 70
     0
 62
    30
  6
CONTINUOUS
  0
LAYER
  2
BASIS
 70
     0
 62
     6
  6
DASHDOT
  0
LAYER
  2
OUTLINE
 70
     0
 62
     3
  6
CONTINUOUS
  0
LAYER
  2
DETAIL
 70
     0
 62
     5
  6
CONTINUOUS
  0
LAYER
  2
ARRANGE
 70
     0
 62
     1
  6
CONTINUOUS
  0
LAYER
  2
DEFPOINTS
 70
     0
 62
     7
  6
CONTINUOUS
  0
LAYER
  2
ETC
 70
     0
 62
    61
  6
CONTINUOUS
  0
LAYER
  2
FIX
 70
     0
 62
    11
  6
CONTINUOUS
  0
LAYER
  2
NOTE
 70
     0
 62
     4
  6
CONTINUOUS
  0
LAYER
  2
SERVICESPACE
 70
     0
 62
     2
  6
DASHDOT
  0
LAYER
  2
SYMBOLLINE
 70
     0
 62
    15
  6
CONTINUOUS
  0
ENDTAB
  0
TABLE
  2
STYLE
 70
     3
  0
STYLE
  2
STANDARD
 70
     0
 40
64.0
 41
0.9
 50
0.0
 71
     0
 42
64.0
  3
SIMPLEX.shx
  4
BIGFONT.shx
  0
STYLE
  2
ANNOTATIVE
 70
     0
 40
0.0
 41
1.0
 50
0.0
 71
     0
 42
0.2
  3
txt
  4

  0
STYLE
  2
STANDARD1
 70
     0
 40
0.0
 41
1.0
 50
0.0
 71
     0
 42
4.0
  3
MONOTXT
  4
BIGFONT
  0
ENDTAB
  0
TABLE
  2
VIEW
 70
     1
  0
VIEW
  2
ALL
 70
     0
 40
4282.6198079999976
 10
0.0
 20
41.309904000000003
 41
5940.0
 11
0.0
 21
0.0
 31
1.0
 12
0.0
 22
0.0
 32
0.0
 42
50.0
 43
0.0
 44
0.0
 50
0.0
 71
     0
  0
ENDTAB
  0
TABLE
  2
UCS
 70
     0
  0
ENDTAB
  0
TABLE
  2
APPID
 70
    18
  0
APPID
  2
ACAD
 70
     0
  0
APPID
  2
ACADANNOTATIVE
 70
     0
  0
APPID
  2
AUTOCAD_POSTSCRIPT_FIGURE
 70
     0
  0
APPID
  2
ACAD_EXEMPT_FROM_CAD_STANDARDS
 70
     0
  0
APPID
  2
ACAD_PSEXT
 70
     0
  0
APPID
  2
ACAUTHENVIRON
 70
     0
  0
APPID
  2
GENIUS_GENOENT_13
 70
     0
  0
APPID
  2
GENIUS_GENCFG_13
 70
     0
  0
APPID
  2
GENIUS_GENCFG0_13
 70
     0
  0
APPID
  2
GENIUS_GENCFG1_13
 70
     0
  0
APPID
  2
GENIUS_GENCFG2_13
 70
     0
  0
APPID
  2
GENIUS_GENCFG3_13
 70
     0
  0
APPID
  2
GENIUS_GENCFG4_13
 70
     0
  0
APPID
  2
GENIUS_GEVCFG0_13
 70
     0
  0
APPID
  2
CONTENTBLOCKICON
 70
     0
  0
APPID
  2
CONTENTBLOCKDESCRIPTION
 70
     0
  0
APPID
  2
ACAD_NAV_VCDISPLAY
 70
     0
  0
APPID
  2
ACAD_MLEADERVER
 70
     0
  0
ENDTAB
  0
TABLE
  2
DIMSTYLE
 70
     2
  0
DIMSTYLE
  2
STANDARD
 70
     0
  3

  4

  5

  6

  7

 40
1.0
 41
0.18
 42
0.0625
 43
0.38
 44
0.18
 45
0.0
 46
0.0
 47
0.0
 48
0.0
140
0.18
141
0.09
142
0.0
143
25.399999999999999
144
1.0
145
0.0
146
1.0
147
0.09
 71
     0
 72
     0
 73
     1
 74
     1
 75
     0
 76
     0
 77
     0
 78
     0
170
     0
171
     2
172
     0
173
     0
174
     0
175
     0
176
     7
177
     7
178
     7
  0
DIMSTYLE
  2
ANNOTATIVE
 70
     0
  3

  4

  5

  6

  7

 40
1.0
 41
0.18
 42
0.0625
 43
0.38
 44
0.18
 45
0.0
 46
0.0
 47
0.0
 48
0.0
140
0.18
141
0.09
142
0.0
143
25.399999999999999
144
1.0
145
0.0
146
1.0
147
0.09
 71
     0
 72
     0
 73
     1
 74
     1
 75
     0
 76
     0
 77
     0
 78
     0
170
     0
171
     2
172
     0
173
     0
174
     0
175
     0
176
     0
177
     0
178
     0
  0
ENDTAB
  0
ENDSEC
  0
SECTION
  2
BLOCKS
  0
BLOCK
  8
0
  2
$MODEL_SPACE
 70
     0
 10
0.0
 20
0.0
 30
0.0
  3
$MODEL_SPACE
  1

  0
ENDBLK
  5
6D
  8
0
  0
BLOCK
 67
     1
  8
0
  2
$PAPER_SPACE
 70
     0
 10
0.0
 20
0.0
 30
0.0
  3
$PAPER_SPACE
  1

  0
ENDBLK
  5
69
 67
     1
  8
0
  0
BLOCK
  8
0
  2
_ORIGIN
 70
     0
 10
0.0
 20
0.0
 30
0.0
  3
_ORIGIN
  1

  0
CIRCLE
  5
92
  8
0
  6
CONTINUOUS
 62
     7
 10
0.0
 20
0.0
 30
0.0
 40
0.5
  0
LINE
  5
93
  8
0
  6
CONTINUOUS
 62
     7
 10
0.0
 20
0.0
 30
0.0
 11
-1.0
 21
0.0
 31
0.0
  0
ENDBLK
  5
94
  8
0
  0
ENDSEC
  0
SECTION
  2
ENTITIES
  0
TEXT
  5
95
  8
ETC
  6
CONTINUOUS
 62
    61
 10
136.87614533519169
 20
295.123550233988
 30
0.0
 40
64.0
  1
P-10SWL2_2
 41
0.9
  0
TEXT
  5
96
  8
ETC
  6
CONTINUOUS
 62
    61
 10
132.6901513351913
 20
177.16824021915679
 30
0.0
 40
64.0
  1
システム部材
 41
0.9
  0
CIRCLE
  5
97
  8
ARRANGE
  6
CONTINUOUS
 62
     1
 10
0.0
 20
0.0
 30
0.0
 40
40.0
  0
POINT
  5
98
  8
ARRANGE
  6
CONTINUOUS
 62
     1
 10
0.0
 20
0.0
 30
0.0
 39
50.0
  0
TEXT
  5
99
  8
ETC
  6
CONTINUOUS
 62
    61
 10
183.396928821312
 20
69.048903962109819
 30
0.0
 40
40.0
  1
P-10SWL2
 41
0.9
  0
LINE
  5
9A
  8
BASIS
  6
DASHDOT
 62
     6
 10
-0.0000000000002274
 20
-47.85000000000003
 30
0.0
 11
-0.0000000000002274
 21
52.500000000000092
 31
0.0
  0
LINE
  5
9B
  8
BASIS
  6
DASHDOT
 62
     6
 10
-48.305984952675963
 20
0.0000000000000179
 30
0.0
 11
48.317237296002077
 21
0.0000000000000179
 31
0.0
  0
LINE
  5
9C
  8
DETAIL
  6
CONTINUOUS
 62
     5
 10
10.69999999999993
 20
17.752852981361169
 30
0.0
 11
10.69999999999993
 21
19.232348601519728
 31
0.0
  0
ARC
  5
9D
  8
DETAIL
  6
CONTINUOUS
 62
     5
 10
11.49999999999989
 20
18.600000000000009
 30
0.0
 40
0.600000000000023
 50
90.0
 51
180.0
  0
LINE
  5
9E
  8
DETAIL
  6
CONTINUOUS
 62
     5
 10
10.89999999999992
 20
15.399999999999981
 30
0.0
 11
10.89999999999992
 21
18.600000000000009
 31
0.0
  0
LINE
  5
9F
  8
DETAIL
  6
CONTINUOUS
 62
     5
 10
-10.90000000000015
 20
15.399999999999981
 30
0.0
 11
10.89999999999992
 21
15.399999999999981
 31
0.0
  0
LINE
  5
A0
  8
DETAIL
  6
CONTINUOUS
 62
     5
 10
-10.70000000000007
 20
17.752852981361169
 30
0.0
 11
-10.70000000000007
 21
19.232348601519728
 31
0.0
  0
ARC
  5
A1
  8
DETAIL
  6
CONTINUOUS
 62
     5
 10
-11.50000000000014
 20
18.600000000000009
 30
0.0
 40
0.5999999999999661
 50
0.0
 51
90.0
  0
LINE
  5
A2
  8
DETAIL
  6
CONTINUOUS
 62
     5
 10
-10.900000000000061
 20
15.399999999999981
 30
0.0
 11
-10.900000000000061
 21
18.600000000000009
 31
0.0
  0
LINE
  5
A3
  8
DETAIL
  6
CONTINUOUS
 62
     5
 10
14.99999999999994
 20
-17.499999999999861
 30
0.0
 11
14.99999999999994
 21
-16.999999999999861
 31
0.0
  0
LINE
  5
A4
  8
DETAIL
  6
CONTINUOUS
 62
     5
 10
-15.00000000000006
 20
-17.499999999999861
 30
0.0
 11
-15.00000000000006
 21
-16.999999999999861
 31
0.0
  0
LINE
  5
A5
  8
DETAIL
  6
CONTINUOUS
 62
     5
 10
-15.00000000000006
 20
-16.999999999999861
 30
0.0
 11
14.99999999999994
 21
-16.999999999999861
 31
0.0
  0
ARC
  5
A6
  8
DETAIL
  6
CONTINUOUS
 62
     5
 10
-0.0000000000000568
 20
-91.249999999997598
 30
0.0
 40
75.749999999997783
 50
78.578813725000828
 51
101.4211862749992
  0
LINE
  5
A7
  8
DETAIL
  6
CONTINUOUS
 62
     5
 10
-0.0000000000000568
 20
-17.499999999999861
 30
0.0
 11
21.299999999999901
 21
-17.499999999999861
 31
0.0
  0
ARC
  5
A8
  8
DETAIL
  6
CONTINUOUS
 62
     5
 10
21.299999999999901
 20
-16.899999999999839
 30
0.0
 40
0.600000000000023
 50
270.0
 51
0.0
  0
LINE
  5
A9
  8
DETAIL
  6
CONTINUOUS
 62
     5
 10
-21.300000000000139
 20
-17.499999999999861
 30
0.0
 11
-0.0000000000000568
 21
-17.499999999999861
 31
0.0
  0
ARC
  5
AA
  8
DETAIL
  6
CONTINUOUS
 62
     5
 10
-21.300000000000139
 20
-16.899999999999839
 30
0.0
 40
0.600000000000023
 50
180.0
 51
270.0
  0
ARC
  5
AB
  8
DETAIL
  6
CONTINUOUS
 62
     5
 10
21.299999999999901
 20
18.600000000000009
 30
0.0
 40
0.5999999999999661
 50
0.0
 51
90.0
  0
LINE
  5
AC
  8
DETAIL
  6
CONTINUOUS
 62
     5
 10
21.299999999999901
 20
19.200000000000049
 30
0.0
 11
11.49999999999989
 21
19.200000000000049
 31
0.0
  0
ARC
  5
AD
  8
DETAIL
  6
CONTINUOUS
 62
     5
 10
-21.300000000000139
 20
18.600000000000009
 30
0.0
 40
0.600000000000023
 50
90.0
 51
180.0
  0
LINE
  5
AE
  8
DETAIL
  6
CONTINUOUS
 62
     5
 10
-11.50000000000014
 20
19.200000000000049
 30
0.0
 11
-21.300000000000139
 21
19.200000000000049
 31
0.0
  0
LINE
  5
AF
  8
DETAIL
  6
CONTINUOUS
 62
     5
 10
-21.900000000000151
 20
-16.899999999999839
 30
0.0
 11
-21.900000000000151
 21
18.600000000000009
 31
0.0
  0
LINE
  5
B0
  8
DETAIL
  6
CONTINUOUS
 62
     5
 10
21.89999999999992
 20
-16.899999999999839
 30
0.0
 11
21.89999999999992
 21
18.600000000000009
 31
0.0
  0
LINE
  5
B1
  8
DETAIL
  6
CONTINUOUS
 62
     5
 10
11.608669469517841
 20
20.65000000000002
 30
0.0
 11
21.307961638008351
 21
20.65000000000002
 31
0.0
  0
LINE
  5
B2
  8
DETAIL
  6
CONTINUOUS
 62
     5
 10
-21.25772182753272
 20
20.65000000000002
 30
0.0
 11
-11.49665072803271
 21
20.65000000000002
 31
0.0
  0
ARC
  5
B3
  8
DETAIL
  6
CONTINUOUS
 62
     5
 10
11.49999999999994
 20
18.550000000000072
 30
0.0
 40
0.799999999999955
 50
90.0
 51
180.0
  0
LINE
  5
B4
  8
DETAIL
  6
CONTINUOUS
 62
     5
 10
10.69999999999999
 20
15.55000000000001
 30
0.0
 11
10.69999999999999
 21
20.65000000000002
 31
0.0
  0
LINE
  5
B5
  8
DETAIL
  6
CONTINUOUS
 62
     5
 10
10.700000000000051
 20
15.55000000000001
 30
0.0
 11
-10.70000000000007
 21
15.55000000000001
 31
0.0
  0
ARC
  5
B6
  8
DETAIL
  6
CONTINUOUS
 62
     5
 10
-11.50000000000006
 20
18.550000000000072
 30
0.0
 40
0.799999999999955
 50
0.0
 51
90.0
  0
LINE
  5
B7
  8
DETAIL
  6
CONTINUOUS
 62
     5
 10
-10.70000000000007
 20
15.55000000000001
 30
0.0
 11
-10.70000000000007
 21
20.65000000000002
 31
0.0
  0
LINE
  5
B8
  8
DETAIL
  6
CONTINUOUS
 62
     5
 10
1.655262480052982
 20
-5.7496280476673141
 30
0.0
 11
-1.555263835736411
 21
-10.74962804766731
 31
0.0
  0
TEXT
  5
B9
  8
DETAIL
  6
CONTINUOUS
 62
     5
 10
0.2062095541581357
 20
-11.092586934489059
 30
0.0
 40
3.8880002498626709
  1
切
 50
0.000002504478167
 41
1.0416666283406371
  7
STANDARD1
  0
TEXT
  5
BA
  8
DETAIL
  6
CONTINUOUS
 62
     5
 10
-5.1224189858809259
 20
-9.340444028300098
 30
0.0
 40
3.8880002498626709
  1
入
 50
0.000002504478167
 41
1.0416666283406371
  7
STANDARD1
  0
TEXT
  5
BB
  8
DETAIL
  6
CONTINUOUS
 62
     5
 10
-18.445264444865291
 20
5.2478211522876723
 30
0.0
 40
4.8000001907348633
  1
２４時間換気
 50
0.000002504478167
 41
1.041666625274553
  7
STANDARD1
  0
ARC
  5
BC
  8
DETAIL
  6
CONTINUOUS
 62
     5
 10
21.299999999999951
 20
-16.949999999999971
 30
0.0
 40
0.800000000000011
 50
270.0
 51
0.0
  0
LINE
  5
BD
  8
DETAIL
  6
CONTINUOUS
 62
     5
 10
-21.300000000000072
 20
-17.749999999999989
 30
0.0
 11
21.299999999999951
 21
-17.749999999999989
 31
0.0
  0
ARC
  5
BE
  8
DETAIL
  6
CONTINUOUS
 62
     5
 10
-21.300000000000072
 20
-16.949999999999971
 30
0.0
 40
0.799999999999955
 50
180.0
 51
270.0
  0
ARC
  5
BF
  8
DETAIL
  6
CONTINUOUS
 62
     5
 10
21.299999999999951
 20
18.550000000000072
 30
0.0
 40
0.799999999999955
 50
0.0
 51
90.0
  0
LINE
  5
C0
  8
DETAIL
  6
CONTINUOUS
 62
     5
 10
21.299999999999951
 20
19.350000000000009
 30
0.0
 11
11.49999999999994
 21
19.350000000000009
 31
0.0
  0
ARC
  5
C1
  8
DETAIL
  6
CONTINUOUS
 62
     5
 10
-21.300000000000072
 20
18.550000000000072
 30
0.0
 40
0.799999999999955
 50
90.0
 51
180.0
  0
LINE
  5
C2
  8
DETAIL
  6
CONTINUOUS
 62
     5
 10
-11.50000000000006
 20
19.350000000000009
 30
0.0
 11
-21.300000000000072
 21
19.350000000000009
 31
0.0
  0
LINE
  5
C3
  8
DETAIL
  6
CONTINUOUS
 62
     5
 10
-22.100000000000051
 20
-16.949999999999971
 30
0.0
 11
-22.100000000000051
 21
20.65000000000002
 31
0.0
  0
LINE
  5
C4
  8
DETAIL
  6
CONTINUOUS
 62
     5
 10
22.099999999999909
 20
-16.949999999999971
 30
0.0
 11
22.099999999999909
 21
20.65000000000002
 31
0.0
  0
LINE
  5
C5
  8
DETAIL
  6
CONTINUOUS
 62
     5
 10
-35.000000000000369
 20
-47.999999999999993
 30
0.0
 11
-35.000000000000369
 21
48.0
 31
0.0
  0
LINE
  5
C6
  8
DETAIL
  6
CONTINUOUS
 62
     5
 10
34.999999999999659
 20
-47.999999999999993
 30
0.0
 11
34.999999999999659
 21
48.0
 31
0.0
  0
LINE
  5
C7
  8
DETAIL
  6
CONTINUOUS
 62
     5
 10
-35.000000000000369
 20
48.0
 30
0.0
 11
34.999999999999659
 21
48.0
 31
0.0
  0
LINE
  5
C8
  8
DETAIL
  6
CONTINUOUS
 62
     5
 10
-35.000000000000369
 20
-47.999999999999993
 30
0.0
 11
34.999999999999659
 21
-47.999999999999993
 31
0.0
  0
LINE
  5
C9
  8
DETAIL
  6
CONTINUOUS
 62
     5
 10
-30.000000000000799
 20
-60.0
 30
0.0
 11
29.999999999999201
 21
-60.0
 31
0.0
  0
LINE
  5
CA
  8
DETAIL
  6
CONTINUOUS
 62
     5
 10
-35.000000000000803
 20
-55.0
 30
0.0
 11
-35.000000000000803
 21
-47.999999999999993
 31
0.0
  0
ARC
  5
CB
  8
DETAIL
  6
CONTINUOUS
 62
     5
 10
-30.000000000000799
 20
-55.0
 30
0.0
 40
5.0
 50
180.0
 51
270.0
  0
LINE
  5
CC
  8
DETAIL
  6
CONTINUOUS
 62
     5
 10
34.999999999999197
 20
-55.0
 30
0.0
 11
34.999999999999197
 21
-47.999999999999993
 31
0.0
  0
ARC
  5
CD
  8
DETAIL
  6
CONTINUOUS
 62
     5
 10
29.999999999999201
 20
-55.0
 30
0.0
 40
5.0
 50
270.0
 51
0.0
  0
LINE
  5
CE
  8
DETAIL
  6
CONTINUOUS
 62
     5
 10
34.999999999999318
 20
48.0
 30
0.0
 11
34.999999999999197
 21
55.0
 31
0.0
  0
ARC
  5
CF
  8
DETAIL
  6
CONTINUOUS
 62
     5
 10
29.999999999999201
 20
55.0
 30
0.0
 40
5.0
 50
0.0
 51
90.0
  0
LINE
  5
D0
  8
DETAIL
  6
CONTINUOUS
 62
     5
 10
-35.000000000000803
 20
48.0
 30
0.0
 11
-35.000000000000803
 21
55.0
 31
0.0
  0
ARC
  5
D1
  8
DETAIL
  6
CONTINUOUS
 62
     5
 10
-30.000000000000799
 20
55.0
 30
0.0
 40
5.0
 50
90.0
 51
180.0
  0
LINE
  5
D2
  8
DETAIL
  6
CONTINUOUS
 62
     5
 10
-30.000000000000799
 20
60.0
 30
0.0
 11
29.999999999999201
 21
60.0
 31
0.0
  0
LINE
  5
D3
  8
DETAIL
  6
CONTINUOUS
 62
     5
 10
-35.000000000000803
 20
48.0
 30
0.0
 11
34.999999999999318
 21
48.0
 31
0.0
  0
LINE
  5
D4
  8
DETAIL
  6
CONTINUOUS
 62
     5
 10
-35.000000000000803
 20
-47.999999999999993
 30
0.0
 11
34.999999999999197
 21
-47.999999999999993
 31
0.0
  0
ARC
  5
D5
  8
DETAIL
  6
CONTINUOUS
 62
     5
 10
-3.5000000000001981
 20
0.0000000000000142
 30
0.0
 40
1.0
 50
180.0
 51
270.0
  0
ARC
  5
D6
  8
DETAIL
  6
CONTINUOUS
 62
     5
 10
-3.5000000000001981
 20
0.0000000000000142
 30
0.0
 40
1.0
 50
90.0
 51
180.0
  0
LINE
  5
D7
  8
DETAIL
  6
CONTINUOUS
 62
     5
 10
-0.0000000000002274
 20
-0.9999999999999857
 30
0.0
 11
-3.5000000000001981
 21
-0.9999999999999857
 31
0.0
  0
LINE
  5
D8
  8
DETAIL
  6
CONTINUOUS
 62
     5
 10
-0.0000000000002274
 20
1.0000000000000131
 30
0.0
 11
-3.5000000000001981
 21
1.0000000000000131
 31
0.0
  0
LINE
  5
D9
  8
DETAIL
  6
CONTINUOUS
 62
     5
 10
-0.0000000000002274
 20
1.0000000000000131
 30
0.0
 11
3.4999999999997722
 21
1.0000000000000131
 31
0.0
  0
LINE
  5
DA
  8
DETAIL
  6
CONTINUOUS
 62
     5
 10
-0.0000000000002274
 20
-0.9999999999999857
 30
0.0
 11
3.4999999999997722
 21
-0.9999999999999857
 31
0.0
  0
ARC
  5
DB
  8
DETAIL
  6
CONTINUOUS
 62
     5
 10
3.4999999999997722
 20
0.0000000000000142
 30
0.0
 40
1.0
 50
270.0
 51
0.0
  0
ARC
  5
DC
  8
DETAIL
  6
CONTINUOUS
 62
     5
 10
3.4999999999997722
 20
0.0000000000000142
 30
0.0
 40
1.0
 50
0.0
 51
90.0
  0
LINE
  5
DD
  8
DETAIL
  6
CONTINUOUS
 62
     5
 10
0.0000000000003411
 20
-65.886341763467144
 30
0.0
 11
-0.0000000000007958
 21
68.41400661282627
 31
0.0
  0
LINE
  5
DE
  8
DETAIL
  6
CONTINUOUS
 62
     5
 10
-42.357931140028647
 20
0.0000000000000142
 30
0.0
 11
42.811940863843923
 21
0.0000000000000142
 31
0.0
  0
LINE
  5
DF
  8
OUTLINE
  6
CONTINUOUS
 62
     3
 10
-35.000000000000341
 20
-47.999999999999993
 30
0.0
 11
-35.000000000000341
 21
48.0
 31
0.0
  0
LINE
  5
E0
  8
OUTLINE
  6
CONTINUOUS
 62
     3
 10
34.999999999999659
 20
-47.999999999999993
 30
0.0
 11
34.999999999999659
 21
48.0
 31
0.0
  0
LINE
  5
E1
  8
OUTLINE
  6
CONTINUOUS
 62
     3
 10
-30.000000000000799
 20
-60.0
 30
0.0
 11
29.999999999999201
 21
-60.0
 31
0.0
  0
LINE
  5
E2
  8
OUTLINE
  6
CONTINUOUS
 62
     3
 10
-35.000000000000803
 20
-55.0
 30
0.0
 11
-35.000000000000803
 21
-47.999999999999993
 31
0.0
  0
ARC
  5
E3
  8
OUTLINE
  6
CONTINUOUS
 62
     3
 10
-30.000000000000799
 20
-55.0
 30
0.0
 40
5.0
 50
180.0
 51
270.0
  0
LINE
  5
E4
  8
OUTLINE
  6
CONTINUOUS
 62
     3
 10
34.999999999999197
 20
-55.0
 30
0.0
 11
34.999999999999197
 21
-47.999999999999993
 31
0.0
  0
ARC
  5
E5
  8
OUTLINE
  6
CONTINUOUS
 62
     3
 10
29.999999999999201
 20
-55.0
 30
0.0
 40
5.0
 50
270.0
 51
0.0
  0
LINE
  5
E6
  8
OUTLINE
  6
CONTINUOUS
 62
     3
 10
34.999999999999318
 20
48.0
 30
0.0
 11
34.999999999999197
 21
55.0
 31
0.0
  0
ARC
  5
E7
  8
OUTLINE
  6
CONTINUOUS
 62
     3
 10
29.999999999999201
 20
55.0
 30
0.0
 40
5.0
 50
0.0
 51
90.0
  0
LINE
  5
E8
  8
OUTLINE
  6
CONTINUOUS
 62
     3
 10
-35.000000000000803
 20
48.0
 30
0.0
 11
-35.000000000000803
 21
55.0
 31
0.0
  0
ARC
  5
E9
  8
OUTLINE
  6
CONTINUOUS
 62
     3
 10
-30.000000000000799
 20
55.0
 30
0.0
 40
5.0
 50
90.0
 51
180.0
  0
LINE
  5
EA
  8
OUTLINE
  6
CONTINUOUS
 62
     3
 10
-30.000000000000799
 20
60.0
 30
0.0
 11
29.999999999999201
 21
60.0
 31
0.0
  0
LINE
  5
EB
  8
DETAIL
  6
CONTINUOUS
 62
     5
 10
-4.4618640412380719
 20
-0.1917224115551028
 30
0.0
 11
4.461864041237618
 21
-0.1917224115551028
 31
0.0
  0
LINE
  5
EC
  8
DETAIL
  6
CONTINUOUS
 62
     5
 10
-4.4419728045000957
 20
-0.2917224115551029
 30
0.0
 11
4.4419728044996116
 21
-0.2917224115551029
 31
0.0
  0
LINE
  5
ED
  8
DETAIL
  6
CONTINUOUS
 62
     5
 10
-4.4178398797081391
 20
-0.391722411555103
 30
0.0
 11
4.4178398797076559
 21
-0.391722411555103
 31
0.0
  0
LINE
  5
EE
  8
DETAIL
  6
CONTINUOUS
 62
     5
 10
-4.3510220159162163
 20
-0.4917224115551031
 30
0.0
 11
4.3510220159157589
 21
-0.4917224115551031
 31
0.0
  0
LINE
  5
EF
  8
DETAIL
  6
CONTINUOUS
 62
     5
 10
-4.2842041521243157
 20
-0.5917224115551028
 30
0.0
 11
4.284204152123805
 21
-0.5917224115551028
 31
0.0
  0
LINE
  5
F0
  8
DETAIL
  6
CONTINUOUS
 62
     5
 10
-4.2173862883323627
 20
-0.6917224115551024
 30
0.0
 11
4.217386288331908
 21
-0.691722411555103
 31
0.0
  0
LINE
  5
F1
  8
DETAIL
  6
CONTINUOUS
 62
     5
 10
-4.0804705411655684
 20
-0.791722411555103
 30
0.0
 11
4.0804705411651412
 21
-0.791722411555103
 31
0.0
  0
LINE
  5
F2
  8
DETAIL
  6
CONTINUOUS
 62
     5
 10
-3.9308099648990549
 20
-0.8917224115551025
 30
0.0
 11
3.9308099648986001
 21
-0.8917224115551025
 31
0.0
  0
LINE
  5
F3
  8
DETAIL
  6
CONTINUOUS
 62
     5
 10
-3.5416142472887482
 20
-0.9917224115551022
 30
0.0
 11
3.541614247288293
 21
-0.9917224115551032
 31
0.0
  0
LINE
  5
F4
  8
DETAIL
  6
CONTINUOUS
 62
     5
 10
-4.4817552779760197
 20
-0.0917224115551027
 30
0.0
 11
4.4817552779755649
 21
-0.0917224115551027
 31
0.0
  0
LINE
  5
F5
  8
DETAIL
  6
CONTINUOUS
 62
     5
 10
-4.4983534852864571
 20
0.0082775884448978
 30
0.0
 11
4.4983534852860032
 21
0.0082775884448969
 31
0.0
  0
LINE
  5
F6
  8
DETAIL
  6
CONTINUOUS
 62
     5
 10
-4.4784622485484809
 20
0.1082775884448979
 30
0.0
 11
4.4784622485480563
 21
0.1082775884448979
 31
0.0
  0
LINE
  5
F7
  8
DETAIL
  6
CONTINUOUS
 62
     5
 10
-4.4585710118105606
 20
0.2082775884448971
 30
0.0
 11
4.4585710118101067
 21
0.2082775884448971
 31
0.0
  0
LINE
  5
F8
  8
DETAIL
  6
CONTINUOUS
 62
     5
 10
-4.4386797750725568
 20
0.3082775884448972
 30
0.0
 11
4.438679775072103
 21
0.3082775884448972
 31
0.0
  0
LINE
  5
F9
  8
DETAIL
  6
CONTINUOUS
 62
     5
 10
-4.406778064163432
 20
0.4082775884448974
 30
0.0
 11
4.4067780641629772
 21
0.4082775884448974
 31
0.0
  0
LINE
  5
FA
  8
DETAIL
  6
CONTINUOUS
 62
     5
 10
-4.339960200371479
 20
0.5082775884448983
 30
0.0
 11
4.3399602003710243
 21
0.5082775884448969
 31
0.0
  0
LINE
  5
FB
  8
DETAIL
  6
CONTINUOUS
 62
     5
 10
-4.2731423365795527
 20
0.6082775884448979
 30
0.0
 11
4.2731423365790979
 21
0.6082775884448979
 31
0.0
  0
LINE
  5
FC
  8
DETAIL
  6
CONTINUOUS
 62
     5
 10
-4.2053545442969931
 20
0.7082775884448971
 30
0.0
 11
4.2053545442965108
 21
0.7082775884448971
 31
0.0
  0
LINE
  5
FD
  8
DETAIL
  6
CONTINUOUS
 62
     5
 10
-4.0556939680304254
 20
0.8082775884448971
 30
0.0
 11
4.0556939680299697
 21
0.8082775884448971
 31
0.0
  0
LINE
  5
FE
  8
DETAIL
  6
CONTINUOUS
 62
     5
 10
-3.906033391763883
 20
0.9082775884448973
 30
0.0
 11
3.90603339176343
 21
0.9082775884448973
 31
0.0
  0
LINE
  5
FF
  8
SIZE
  6
CONTINUOUS
 62
    30
 10
-35.000000000000803
 20
75.000000000000014
 30
0.0
 11
-35.000000000000789
 21
121.0345212175134
 31
0.0
  0
LINE
  5
100
  8
SIZE
  6
CONTINUOUS
 62
    30
 10
34.999999999999197
 20
75.000000000000014
 30
0.0
 11
34.999999999999211
 21
121.0345212175134
 31
0.0
  0
LINE
  5
101
  8
SIZE
  6
CONTINUOUS
 62
    30
 10
-47.000000000000803
 20
101.0345212175134
 30
0.0
 11
-59.000000000000803
 21
101.0345212175134
 31
0.0
  0
LINE
  5
102
  8
SIZE
  6
CONTINUOUS
 62
    30
 10
46.999999999999197
 20
101.0345212175134
 30
0.0
 11
58.999999999999197
 21
101.0345212175134
 31
0.0
  0
LINE
  5
103
  8
SIZE
  6
CONTINUOUS
 62
    30
 10
-35.000000000000803
 20
101.0345212175134
 30
0.0
 11
34.999999999999197
 21
101.0345212175134
 31
0.0
  0
CIRCLE
  5
104
  8
SIZE
  6
CONTINUOUS
 62
    30
 10
-35.000000000000803
 20
101.0345212175134
 30
0.0
 40
6.0
  0
LINE
  5
105
  8
SIZE
  6
CONTINUOUS
 62
    30
 10
-35.000000000000803
 20
101.0345212175134
 30
0.0
 11
-47.000000000000803
 21
101.0345212175134
 31
0.0
  0
CIRCLE
  5
106
  8
SIZE
  6
CONTINUOUS
 62
    30
 10
34.999999999999197
 20
101.0345212175134
 30
0.0
 40
6.0
  0
LINE
  5
107
  8
SIZE
  6
CONTINUOUS
 62
    30
 10
34.999999999999197
 20
101.0345212175134
 30
0.0
 11
46.999999999999197
 21
101.0345212175134
 31
0.0
  0
TEXT
  5
108
  8
SIZE
  6
CONTINUOUS
 62
    30
 10
-46.628571428572222
 20
126.0345212175134
 30
0.0
 40
64.0
  1
70
 41
0.9
 72
     1
 11
-0.0000000000007958
 21
126.0345212175134
 31
0.0
  0
POINT
  5
109
  8
DEFPOINTS
  6
CONTINUOUS
 62
    30
 10
-35.000000000000803
 20
55.0
 30
0.0
  0
POINT
  5
10A
  8
DEFPOINTS
  6
CONTINUOUS
 62
    30
 10
34.999999999999197
 20
55.0
 30
0.0
  0
POINT
  5
10B
  8
DEFPOINTS
  6
CONTINUOUS
 62
    30
 10
34.999999999999197
 20
101.0345212175134
 30
0.0
  0
LINE
  5
10C
  8
SIZE
  6
CONTINUOUS
 62
    30
 10
-50.000000000000803
 20
60.000000000000021
 30
0.0
 11
-94.114091432198606
 21
60.000000000000028
 31
0.0
  0
LINE
  5
10D
  8
SIZE
  6
CONTINUOUS
 62
    30
 10
-50.000000000000803
 20
-59.999999999999979
 30
0.0
 11
-94.114091432198606
 21
-59.999999999999957
 31
0.0
  0
LINE
  5
10E
  8
SIZE
  6
CONTINUOUS
 62
    30
 10
-74.114091432198592
 20
72.000000000000014
 30
0.0
 11
-74.114091432198592
 21
84.000000000000014
 31
0.0
  0
LINE
  5
10F
  8
SIZE
  6
CONTINUOUS
 62
    30
 10
-74.114091432198634
 20
-71.999999999999986
 30
0.0
 11
-74.114091432198634
 21
-83.999999999999986
 31
0.0
  0
LINE
  5
110
  8
SIZE
  6
CONTINUOUS
 62
    30
 10
-74.114091432198592
 20
60.000000000000021
 30
0.0
 11
-74.114091432198634
 21
-59.999999999999979
 31
0.0
  0
CIRCLE
  5
111
  8
SIZE
  6
CONTINUOUS
 62
    30
 10
-74.114091432198592
 20
60.000000000000021
 30
0.0
 40
6.0
  0
LINE
  5
112
  8
SIZE
  6
CONTINUOUS
 62
    30
 10
-74.114091432198592
 20
60.000000000000021
 30
0.0
 11
-74.114091432198592
 21
72.000000000000014
 31
0.0
  0
CIRCLE
  5
113
  8
SIZE
  6
CONTINUOUS
 62
    30
 10
-74.114091432198634
 20
-59.999999999999979
 30
0.0
 40
6.0
  0
LINE
  5
114
  8
SIZE
  6
CONTINUOUS
 62
    30
 10
-74.114091432198634
 20
-59.999999999999979
 30
0.0
 11
-74.114091432198634
 21
-71.999999999999972
 31
0.0
  0
TEXT
  5
115
  8
SIZE
  6
CONTINUOUS
 62
    30
 10
-99.114091432198606
 20
-68.571428571428555
 30
0.0
 40
64.0
  1
120
 50
90.0
 41
0.9
 72
     1
 11
-99.114091432198606
 21
0.0000000000000166
 31
0.0
  0
POINT
  5
116
  8
DEFPOINTS
  6
CONTINUOUS
 62
    30
 10
-30.000000000000799
 20
60.0
 30
0.0
  0
POINT
  5
117
  8
DEFPOINTS
  6
CONTINUOUS
 62
    30
 10
-30.000000000000799
 20
-60.0
 30
0.0
  0
POINT
  5
118
  8
DEFPOINTS
  6
CONTINUOUS
 62
    30
 10
-74.114091432198634
 20
-59.999999999999979
 30
0.0
  0
TEXT
  5
121
  8
ETC
  6
CONTINUOUS
 62
    61
 10
185.4973852735915
 20
3.521459021164957
 30
0.0
 40
40.0
  1
P-10SWL
 41
0.9
  0
ENDSEC
  0
EOF
