  0
SECTION
  2
HEADER
  9
$ACADVER
  1
AC1009
  9
$INSBASE
 10
0.0
 20
0.0
 30
0.0
  9
$EXTMIN
 10
-163.11409143219859
 20
-83.999999999999986
 30
0.0
  9
$EXTMAX
 10
825.68897899671708
 20
371.27632681544708
 30
50.0
  9
$LIMMIN
 10
-2970.0
 20
-2100.0
  9
$LIMMAX
 10
2970.0
 20
2100.0
  9
$ORTHOMODE
 70
     0
  9
$REGENMODE
 70
     1
  9
$FILLMODE
 70
     1
  9
$QTEXTMODE
 70
     0
  9
$MIRRTEXT
 70
     0
  9
$DRAGMODE
 70
     2
  9
$LTSCALE
 40
20.0
  9
$OSMODE
 70
    55
  9
$ATTMODE
 70
     1
  9
$TEXTSIZE
 40
64.0
  9
$TRACEWID
 40
0.05
  9
$TEXTSTYLE
  7
STANDARD
  9
$CLAYER
  8
SIZE
  9
$CELTYPE
  6
CONTINUOUS
  9
$CECOLOR
 62
     7
  9
$DIMSCALE
 40
1.0
  9
$DIMASZ
 40
12.0
  9
$DIMEXO
 40
20.0
  9
$DIMDLI
 40
200.0
  9
$DIMRND
 40
0.0
  9
$DIMDLE
 40
0.0
  9
$DIMEXE
 40
20.0
  9
$DIMTP
 40
0.0
  9
$DIMTM
 40
0.0
  9
$DIMTXT
 40
64.0
  9
$DIMCEN
 40
0.09
  9
$DIMTSZ
 40
0.0
  9
$DIMTOL
 70
     0
  9
$DIMLIM
 70
     0
  9
$DIMTIH
 70
     0
  9
$DIMTOH
 70
     0
  9
$DIMSE1
 70
     0
  9
$DIMSE2
 70
     0
  9
$DIMTAD
 70
     1
  9
$DIMZIN
 70
     8
  9
$DIMBLK
  1

  9
$DIMASO
 70
     1
  9
$DIMSHO
 70
     0
  9
$DIMPOST
  1

  9
$DIMAPOST
  1

  9
$DIMALT
 70
     0
  9
$DIMALTD
 70
     2
  9
$DIMALTF
 40
25.399999999999999
  9
$DIMLFAC
 40
1.0
  9
$DIMTOFL
 70
     1
  9
$DIMTVP
 40
0.0
  9
$DIMTIX
 70
     1
  9
$DIMSOXD
 70
     0
  9
$DIMSAH
 70
     0
  9
$DIMBLK1
  1

  9
$DIMBLK2
  1

  9
$DIMSTYLE
  2
STANDARD
  9
$DIMCLRD
 70
     7
  9
$DIMCLRE
 70
     7
  9
$DIMCLRT
 70
     7
  9
$DIMTFAC
 40
1.0
  9
$DIMGAP
 40
25.0
  9
$LUNITS
 70
     2
  9
$LUPREC
 70
     4
  9
$SKETCHINC
 40
0.1
  9
$FILLETRAD
 40
3.0
  9
$AUNITS
 70
     1
  9
$AUPREC
 70
     3
  9
$MENU
  1
ACAD
  9
$ELEVATION
 40
0.0
  9
$PELEVATION
 40
0.0
  9
$THICKNESS
 40
50.0
  9
$LIMCHECK
 70
     0
  9
$BLIPMODE
 70
     0
  9
$CHAMFERA
 40
0.0
  9
$CHAMFERB
 40
0.0
  9
$SKPOLY
 70
     0
  9
$TDCREATE
 40
2453019.6230103709
  9
$TDUPDATE
 40
2456388.6474741562
  9
$TDINDWG
 40
1.7345164582999999
  9
$TDUSRTIMER
 40
1.7345162847
  9
$USRTIMER
 70
     1
  9
$ANGBASE
 50
0.0
  9
$ANGDIR
 70
     0
  9
$PDMODE
 70
     3
  9
$PDSIZE
 40
-2.0
  9
$PLINEWID
 40
0.0
  9
$COORDS
 70
     1
  9
$SPLFRAME
 70
     0
  9
$SPLINETYPE
 70
     6
  9
$SPLINESEGS
 70
     8
  9
$ATTDIA
 70
     0
  9
$ATTREQ
 70
     1
  9
$HANDLING
 70
     1
  9
$HANDSEED
  5
315
  9
$SURFTAB1
 70
     6
  9
$SURFTAB2
 70
     6
  9
$SURFTYPE
 70
     6
  9
$SURFU
 70
     6
  9
$SURFV
 70
     6
  9
$UCSNAME
  2

  9
$UCSORG
 10
0.0
 20
0.0
 30
0.0
  9
$UCSXDIR
 10
1.0
 20
0.0
 30
0.0
  9
$UCSYDIR
 10
0.0
 20
1.0
 30
0.0
  9
$PUCSNAME
  2

  9
$PUCSORG
 10
0.0
 20
0.0
 30
0.0
  9
$PUCSXDIR
 10
1.0
 20
0.0
 30
0.0
  9
$PUCSYDIR
 10
0.0
 20
1.0
 30
0.0
  9
$USERI1
 70
     0
  9
$USERI2
 70
     0
  9
$USERI3
 70
     0
  9
$USERI4
 70
     0
  9
$USERI5
 70
     0
  9
$USERR1
 40
20.0
  9
$USERR2
 40
0.0
  9
$USERR3
 40
0.0
  9
$USERR4
 40
0.0
  9
$USERR5
 40
0.0
  9
$WORLDVIEW
 70
     1
  9
$SHADEDGE
 70
     3
  9
$SHADEDIF
 70
    70
  9
$TILEMODE
 70
     1
  9
$MAXACTVP
 70
    48
  9
$PLIMCHECK
 70
     0
  9
$PEXTMIN
 10
-1.0000000000000000E+020
 20
-1.0000000000000000E+020
 30
-1.0000000000000000E+020
  9
$PEXTMAX
 10
1.0000000000000000E+020
 20
1.0000000000000000E+020
 30
1.0000000000000000E+020
  9
$PLIMMIN
 10
0.0
 20
0.0
  9
$PLIMMAX
 10
12.0
 20
9.0
  9
$UNITMODE
 70
     0
  9
$VISRETAIN
 70
     0
  9
$PLINEGEN
 70
     0
  9
$PSLTSCALE
 70
     0
  0
ENDSEC
  0
SECTION
  2
TABLES
  0
TABLE
  2
VPORT
 70
     1
  0
VPORT
  2
*ACTIVE
 70
     0
 10
0.0
 20
0.0
 11
1.0
 21
1.0
 12
482.82182020805408
 22
268.02250356613882
 13
0.0
 23
0.0
 14
1.0
 24
1.0
 15
0.0
 25
0.0
 16
0.0
 26
0.0
 36
1.0
 17
0.0
 27
0.0
 37
0.0
 40
1015.68757199634
 41
1.6865079365079361
 42
50.0
 43
0.0
 44
0.0
 50
0.0
 51
0.0
 71
     0
 72
  1000
 73
     1
 74
     0
 75
     0
 76
     0
 77
     0
 78
     0
  0
ENDTAB
  0
TABLE
  2
LTYPE
 70
     3
  0
LTYPE
  2
CONTINUOUS
 70
     0
  3
実線
 72
    65
 73
     0
 40
0.0
  0
LTYPE
  2
DASHDOT
 70
     0
  3
____ _ ____ _ ____ _ ____ _ ____ _ ____ _ ____
 72
    65
 73
     4
 40
5.5
 49
4.0
 49
-0.6
 49
0.3
 49
-0.6
  0
ENDTAB
  0
TABLE
  2
LAYER
 70
    12
  0
LAYER
  2
0
 70
     0
 62
     7
  6
CONTINUOUS
  0
LAYER
  2
SIZE
 70
     0
 62
    30
  6
CONTINUOUS
  0
LAYER
  2
BASIS
 70
     4
 62
     6
  6
DASHDOT
  0
LAYER
  2
OUTLINE
 70
     4
 62
     3
  6
CONTINUOUS
  0
LAYER
  2
DETAIL
 70
     0
 62
     5
  6
CONTINUOUS
  0
LAYER
  2
ARRANGE
 70
     4
 62
     1
  6
CONTINUOUS
  0
LAYER
  2
DEFPOINTS
 70
     0
 62
     7
  6
CONTINUOUS
  0
LAYER
  2
ETC
 70
     0
 62
    61
  6
CONTINUOUS
  0
LAYER
  2
FIX
 70
     0
 62
    11
  6
CONTINUOUS
  0
LAYER
  2
NOTE
 70
     0
 62
     4
  6
CONTINUOUS
  0
LAYER
  2
SERVICESPACE
 70
     0
 62
     2
  6
DASHDOT
  0
LAYER
  2
SYMBOLLINE
 70
     0
 62
    15
  6
CONTINUOUS
  0
ENDTAB
  0
TABLE
  2
STYLE
 70
     2
  0
STYLE
  2
STANDARD
 70
     0
 40
64.0
 41
0.9
 50
0.0
 71
     0
 42
64.0
  3
SIMPLEX.shx
  4
BIGFONT.shx
  0
STYLE
  2
ANNOTATIVE
 70
     0
 40
0.0
 41
1.0
 50
0.0
 71
     0
 42
0.2
  3
txt
  4

  0
ENDTAB
  0
TABLE
  2
VIEW
 70
     1
  0
VIEW
  2
ALL
 70
     0
 40
4282.6198079999976
 10
0.0
 20
41.309904000000003
 41
5940.0
 11
0.0
 21
0.0
 31
1.0
 12
0.0
 22
0.0
 32
0.0
 42
50.0
 43
0.0
 44
0.0
 50
0.0
 71
     0
  0
ENDTAB
  0
TABLE
  2
UCS
 70
     0
  0
ENDTAB
  0
TABLE
  2
APPID
 70
    18
  0
APPID
  2
ACAD
 70
     0
  0
APPID
  2
ACADANNOTATIVE
 70
     0
  0
APPID
  2
AUTOCAD_POSTSCRIPT_FIGURE
 70
     0
  0
APPID
  2
ACAD_EXEMPT_FROM_CAD_STANDARDS
 70
     0
  0
APPID
  2
ACAD_PSEXT
 70
     0
  0
APPID
  2
ACAUTHENVIRON
 70
     0
  0
APPID
  2
GENIUS_GENOENT_13
 70
     0
  0
APPID
  2
GENIUS_GENCFG_13
 70
     0
  0
APPID
  2
GENIUS_GENCFG0_13
 70
     0
  0
APPID
  2
GENIUS_GENCFG1_13
 70
     0
  0
APPID
  2
GENIUS_GENCFG2_13
 70
     0
  0
APPID
  2
GENIUS_GENCFG3_13
 70
     0
  0
APPID
  2
GENIUS_GENCFG4_13
 70
     0
  0
APPID
  2
GENIUS_GEVCFG0_13
 70
     0
  0
APPID
  2
CONTENTBLOCKICON
 70
     0
  0
APPID
  2
CONTENTBLOCKDESCRIPTION
 70
     0
  0
APPID
  2
ACAD_NAV_VCDISPLAY
 70
     0
  0
APPID
  2
ACAD_MLEADERVER
 70
     0
  0
ENDTAB
  0
TABLE
  2
DIMSTYLE
 70
     2
  0
DIMSTYLE
  2
STANDARD
 70
     0
  3

  4

  5

  6

  7

 40
1.0
 41
0.18
 42
0.0625
 43
0.38
 44
0.18
 45
0.0
 46
0.0
 47
0.0
 48
0.0
140
0.18
141
0.09
142
0.0
143
25.399999999999999
144
1.0
145
0.0
146
1.0
147
0.09
 71
     0
 72
     0
 73
     1
 74
     1
 75
     0
 76
     0
 77
     0
 78
     0
170
     0
171
     2
172
     0
173
     0
174
     0
175
     0
176
     7
177
     7
178
     7
  0
DIMSTYLE
  2
ANNOTATIVE
 70
     0
  3

  4

  5

  6

  7

 40
1.0
 41
0.18
 42
0.0625
 43
0.38
 44
0.18
 45
0.0
 46
0.0
 47
0.0
 48
0.0
140
0.18
141
0.09
142
0.0
143
25.399999999999999
144
1.0
145
0.0
146
1.0
147
0.09
 71
     0
 72
     0
 73
     1
 74
     1
 75
     0
 76
     0
 77
     0
 78
     0
170
     0
171
     2
172
     0
173
     0
174
     0
175
     0
176
     0
177
     0
178
     0
  0
ENDTAB
  0
ENDSEC
  0
SECTION
  2
BLOCKS
  0
BLOCK
  8
0
  2
$MODEL_SPACE
 70
     0
 10
0.0
 20
0.0
 30
0.0
  3
$MODEL_SPACE
  1

  0
ENDBLK
  5
6D
  8
0
  0
BLOCK
 67
     1
  8
0
  2
$PAPER_SPACE
 70
     0
 10
0.0
 20
0.0
 30
0.0
  3
$PAPER_SPACE
  1

  0
ENDBLK
  5
69
 67
     1
  8
0
  0
BLOCK
  8
0
  2
_ORIGIN
 70
     0
 10
0.0
 20
0.0
 30
0.0
  3
_ORIGIN
  1

  0
CIRCLE
  5
90
  8
0
  6
CONTINUOUS
 62
     7
 10
0.0
 20
0.0
 30
0.0
 40
0.5
  0
LINE
  5
91
  8
0
  6
CONTINUOUS
 62
     7
 10
0.0
 20
0.0
 30
0.0
 11
-1.0
 21
0.0
 31
0.0
  0
ENDBLK
  5
92
  8
0
  0
ENDSEC
  0
SECTION
  2
ENTITIES
  0
TEXT
  5
93
  8
ETC
  6
CONTINUOUS
 62
    61
 10
271.63183613957472
 20
307.27632681544702
 30
0.0
 40
64.0
  1
P-10SWL2_3
 41
0.9
  0
TEXT
  5
94
  8
ETC
  6
CONTINUOUS
 62
    61
 10
267.44584213957432
 20
189.32101680061581
 30
0.0
 40
64.0
  1
システム部材
 41
0.9
  0
CIRCLE
  5
95
  8
ARRANGE
  6
CONTINUOUS
 62
     1
 10
0.0
 20
0.0
 30
0.0
 40
40.0
  0
POINT
  5
96
  8
ARRANGE
  6
CONTINUOUS
 62
     1
 10
0.0
 20
0.0
 30
0.0
 39
50.0
  0
TEXT
  5
97
  8
ETC
  6
CONTINUOUS
 62
    61
 10
318.15261962569508
 20
81.201680543568713
 30
0.0
 40
40.0
  1
P-10SWL2
 41
0.9
  0
LINE
  5
98
  8
BASIS
  6
DASHDOT
 62
     6
 10
-0.0000000000002274
 20
-47.85000000000003
 30
0.0
 11
-0.0000000000002274
 21
52.500000000000092
 31
0.0
  0
LINE
  5
99
  8
BASIS
  6
DASHDOT
 62
     6
 10
-48.305984952675963
 20
0.0000000000000179
 30
0.0
 11
48.317237296002077
 21
0.0000000000000179
 31
0.0
  0
LINE
  5
9A
  8
OUTLINE
  6
CONTINUOUS
 62
     3
 10
-35.000000000000341
 20
-47.999999999999993
 30
0.0
 11
-35.000000000000341
 21
48.0
 31
0.0
  0
LINE
  5
9B
  8
OUTLINE
  6
CONTINUOUS
 62
     3
 10
34.999999999999659
 20
-47.999999999999993
 30
0.0
 11
34.999999999999659
 21
48.0
 31
0.0
  0
LINE
  5
9C
  8
OUTLINE
  6
CONTINUOUS
 62
     3
 10
-30.000000000000799
 20
-60.0
 30
0.0
 11
29.999999999999201
 21
-60.0
 31
0.0
  0
LINE
  5
9D
  8
OUTLINE
  6
CONTINUOUS
 62
     3
 10
-35.000000000000803
 20
-55.0
 30
0.0
 11
-35.000000000000803
 21
-47.999999999999993
 31
0.0
  0
ARC
  5
9E
  8
OUTLINE
  6
CONTINUOUS
 62
     3
 10
-30.000000000000799
 20
-55.0
 30
0.0
 40
5.0
 50
180.0
 51
270.0
  0
LINE
  5
9F
  8
OUTLINE
  6
CONTINUOUS
 62
     3
 10
34.999999999999197
 20
-55.0
 30
0.0
 11
34.999999999999197
 21
-47.999999999999993
 31
0.0
  0
ARC
  5
A0
  8
OUTLINE
  6
CONTINUOUS
 62
     3
 10
29.999999999999201
 20
-55.0
 30
0.0
 40
5.0
 50
270.0
 51
0.0
  0
LINE
  5
A1
  8
OUTLINE
  6
CONTINUOUS
 62
     3
 10
34.999999999999318
 20
48.0
 30
0.0
 11
34.999999999999197
 21
55.0
 31
0.0
  0
ARC
  5
A2
  8
OUTLINE
  6
CONTINUOUS
 62
     3
 10
29.999999999999201
 20
55.0
 30
0.0
 40
5.0
 50
0.0
 51
90.0
  0
LINE
  5
A3
  8
OUTLINE
  6
CONTINUOUS
 62
     3
 10
-35.000000000000803
 20
48.0
 30
0.0
 11
-35.000000000000803
 21
55.0
 31
0.0
  0
ARC
  5
A4
  8
OUTLINE
  6
CONTINUOUS
 62
     3
 10
-30.000000000000799
 20
55.0
 30
0.0
 40
5.0
 50
90.0
 51
180.0
  0
LINE
  5
A5
  8
OUTLINE
  6
CONTINUOUS
 62
     3
 10
-30.000000000000799
 20
60.0
 30
0.0
 11
29.999999999999201
 21
60.0
 31
0.0
  0
LINE
  5
A6
  8
SIZE
  6
CONTINUOUS
 62
    30
 10
-35.000000000000803
 20
75.000000000000014
 30
0.0
 11
-35.000000000000789
 21
121.0345212175134
 31
0.0
  0
LINE
  5
A7
  8
SIZE
  6
CONTINUOUS
 62
    30
 10
34.999999999999197
 20
75.000000000000014
 30
0.0
 11
34.999999999999211
 21
121.0345212175134
 31
0.0
  0
LINE
  5
A8
  8
SIZE
  6
CONTINUOUS
 62
    30
 10
-47.000000000000803
 20
101.0345212175134
 30
0.0
 11
-59.000000000000803
 21
101.0345212175134
 31
0.0
  0
LINE
  5
A9
  8
SIZE
  6
CONTINUOUS
 62
    30
 10
46.999999999999197
 20
101.0345212175134
 30
0.0
 11
58.999999999999197
 21
101.0345212175134
 31
0.0
  0
LINE
  5
AA
  8
SIZE
  6
CONTINUOUS
 62
    30
 10
-35.000000000000803
 20
101.0345212175134
 30
0.0
 11
34.999999999999197
 21
101.0345212175134
 31
0.0
  0
CIRCLE
  5
AB
  8
SIZE
  6
CONTINUOUS
 62
    30
 10
-35.000000000000803
 20
101.0345212175134
 30
0.0
 40
6.0
  0
LINE
  5
AC
  8
SIZE
  6
CONTINUOUS
 62
    30
 10
-35.000000000000803
 20
101.0345212175134
 30
0.0
 11
-47.000000000000803
 21
101.0345212175134
 31
0.0
  0
CIRCLE
  5
AD
  8
SIZE
  6
CONTINUOUS
 62
    30
 10
34.999999999999197
 20
101.0345212175134
 30
0.0
 40
6.0
  0
LINE
  5
AE
  8
SIZE
  6
CONTINUOUS
 62
    30
 10
34.999999999999197
 20
101.0345212175134
 30
0.0
 11
46.999999999999197
 21
101.0345212175134
 31
0.0
  0
TEXT
  5
AF
  8
SIZE
  6
CONTINUOUS
 62
    30
 10
-46.628571428572222
 20
126.0345212175134
 30
0.0
 40
64.0
  1
70
 41
0.9
 72
     1
 11
-0.0000000000007958
 21
126.0345212175134
 31
0.0
  0
POINT
  5
B0
  8
DEFPOINTS
  6
CONTINUOUS
 62
    30
 10
-35.000000000000803
 20
55.0
 30
0.0
  0
POINT
  5
B1
  8
DEFPOINTS
  6
CONTINUOUS
 62
    30
 10
34.999999999999197
 20
55.0
 30
0.0
  0
POINT
  5
B2
  8
DEFPOINTS
  6
CONTINUOUS
 62
    30
 10
34.999999999999197
 20
101.0345212175134
 30
0.0
  0
LINE
  5
B3
  8
SIZE
  6
CONTINUOUS
 62
    30
 10
-50.000000000000803
 20
60.000000000000021
 30
0.0
 11
-94.114091432198606
 21
60.000000000000028
 31
0.0
  0
LINE
  5
B4
  8
SIZE
  6
CONTINUOUS
 62
    30
 10
-50.000000000000803
 20
-59.999999999999979
 30
0.0
 11
-94.114091432198606
 21
-59.999999999999957
 31
0.0
  0
LINE
  5
B5
  8
SIZE
  6
CONTINUOUS
 62
    30
 10
-74.114091432198592
 20
72.000000000000014
 30
0.0
 11
-74.114091432198592
 21
84.000000000000014
 31
0.0
  0
LINE
  5
B6
  8
SIZE
  6
CONTINUOUS
 62
    30
 10
-74.114091432198634
 20
-71.999999999999986
 30
0.0
 11
-74.114091432198634
 21
-83.999999999999986
 31
0.0
  0
LINE
  5
B7
  8
SIZE
  6
CONTINUOUS
 62
    30
 10
-74.114091432198592
 20
60.000000000000021
 30
0.0
 11
-74.114091432198634
 21
-59.999999999999979
 31
0.0
  0
CIRCLE
  5
B8
  8
SIZE
  6
CONTINUOUS
 62
    30
 10
-74.114091432198592
 20
60.000000000000021
 30
0.0
 40
6.0
  0
LINE
  5
B9
  8
SIZE
  6
CONTINUOUS
 62
    30
 10
-74.114091432198592
 20
60.000000000000021
 30
0.0
 11
-74.114091432198592
 21
72.000000000000014
 31
0.0
  0
CIRCLE
  5
BA
  8
SIZE
  6
CONTINUOUS
 62
    30
 10
-74.114091432198634
 20
-59.999999999999979
 30
0.0
 40
6.0
  0
LINE
  5
BB
  8
SIZE
  6
CONTINUOUS
 62
    30
 10
-74.114091432198634
 20
-59.999999999999979
 30
0.0
 11
-74.114091432198634
 21
-71.999999999999972
 31
0.0
  0
TEXT
  5
BC
  8
SIZE
  6
CONTINUOUS
 62
    30
 10
-99.114091432198606
 20
-68.571428571428555
 30
0.0
 40
64.0
  1
120
 50
90.0
 41
0.9
 72
     1
 11
-99.114091432198606
 21
0.0000000000000166
 31
0.0
  0
POINT
  5
BD
  8
DEFPOINTS
  6
CONTINUOUS
 62
    30
 10
-30.000000000000799
 20
60.0
 30
0.0
  0
POINT
  5
BE
  8
DEFPOINTS
  6
CONTINUOUS
 62
    30
 10
-30.000000000000799
 20
-60.0
 30
0.0
  0
POINT
  5
BF
  8
DEFPOINTS
  6
CONTINUOUS
 62
    30
 10
-74.114091432198634
 20
-59.999999999999979
 30
0.0
  0
LINE
  5
C0
  8
DETAIL
  6
CONTINUOUS
 62
     5
 10
30.000000000000341
 20
-59.999999999999979
 30
0.0
 11
-29.999999999999659
 21
-59.999999999999979
 31
0.0
  0
LINE
  5
C1
  8
DETAIL
  6
CONTINUOUS
 62
     5
 10
30.000000000000341
 20
-58.499999999999972
 30
0.0
 11
-29.999999999999659
 21
-58.499999999999972
 31
0.0
  0
ARC
  5
C2
  8
DETAIL
  6
CONTINUOUS
 62
     5
 10
30.000000000000341
 20
-54.999999999999979
 30
0.0
 40
5.0
 50
270.0
 51
0.0
  0
ARC
  5
C3
  8
DETAIL
  6
CONTINUOUS
 62
     5
 10
30.000000000000341
 20
55.000000000000021
 30
0.0
 40
5.0
 50
0.0
 51
90.0
  0
LINE
  5
C4
  8
DETAIL
  6
CONTINUOUS
 62
     5
 10
35.000000000000341
 20
0.0000000000000213
 30
0.0
 11
35.000000000000341
 21
55.000000000000021
 31
0.0
  0
LINE
  5
C5
  8
DETAIL
  6
CONTINUOUS
 62
     5
 10
35.000000000000341
 20
-54.999999999999979
 30
0.0
 11
35.000000000000341
 21
0.0000000000000213
 31
0.0
  0
ARC
  5
C6
  8
DETAIL
  6
CONTINUOUS
 62
     5
 10
30.000000000000341
 20
55.000000000000021
 30
0.0
 40
3.5
 50
0.0
 51
90.0
  0
LINE
  5
C7
  8
DETAIL
  6
CONTINUOUS
 62
     5
 10
33.500000000000341
 20
0.0000000000000213
 30
0.0
 11
33.500000000000341
 21
-54.999999999999979
 31
0.0
  0
ARC
  5
C8
  8
DETAIL
  6
CONTINUOUS
 62
     5
 10
30.000000000000341
 20
-54.999999999999979
 30
0.0
 40
3.5
 50
270.0
 51
0.0
  0
LINE
  5
C9
  8
DETAIL
  6
CONTINUOUS
 62
     5
 10
33.500000000000341
 20
0.0000000000000213
 30
0.0
 11
33.500000000000341
 21
55.000000000000021
 31
0.0
  0
ARC
  5
CA
  8
DETAIL
  6
CONTINUOUS
 62
     5
 10
-29.999999999999659
 20
-54.999999999999979
 30
0.0
 40
5.0
 50
180.0
 51
270.0
  0
ARC
  5
CB
  8
DETAIL
  6
CONTINUOUS
 62
     5
 10
-29.999999999999659
 20
55.000000000000021
 30
0.0
 40
5.0
 50
90.0
 51
180.0
  0
LINE
  5
CC
  8
DETAIL
  6
CONTINUOUS
 62
     5
 10
30.000000000000341
 20
60.000000000000021
 30
0.0
 11
-29.999999999999659
 21
60.000000000000021
 31
0.0
  0
LINE
  5
CD
  8
DETAIL
  6
CONTINUOUS
 62
     5
 10
-35.000000000000107
 20
0.0000000000000213
 30
0.0
 11
-34.999999999999659
 21
55.000000000000021
 31
0.0
  0
LINE
  5
CE
  8
DETAIL
  6
CONTINUOUS
 62
     5
 10
-34.999999999999659
 20
-54.999999999999979
 30
0.0
 11
-34.999999999999659
 21
0.0000000000000213
 31
0.0
  0
LINE
  5
CF
  8
DETAIL
  6
CONTINUOUS
 62
     5
 10
30.000000000000341
 20
58.500000000000021
 30
0.0
 11
-29.999999999999659
 21
58.500000000000021
 31
0.0
  0
ARC
  5
D0
  8
DETAIL
  6
CONTINUOUS
 62
     5
 10
-29.999999999999659
 20
55.000000000000021
 30
0.0
 40
3.5
 50
90.0
 51
180.0
  0
LINE
  5
D1
  8
DETAIL
  6
CONTINUOUS
 62
     5
 10
-33.499999999999659
 20
55.000000000000021
 30
0.0
 11
-33.500000000000107
 21
0.0000000000000213
 31
0.0
  0
ARC
  5
D2
  8
DETAIL
  6
CONTINUOUS
 62
     5
 10
-29.999999999999659
 20
-54.999999999999979
 30
0.0
 40
3.5
 50
180.0
 51
270.0
  0
LINE
  5
D3
  8
DETAIL
  6
CONTINUOUS
 62
     5
 10
-33.499999999999659
 20
-54.999999999999979
 30
0.0
 11
-33.499999999999659
 21
0.0000000000000213
 31
0.0
  0
LINE
  5
D4
  8
DETAIL
  6
CONTINUOUS
 62
     5
 10
23.89999999999975
 20
-58.399999999999849
 30
0.0
 11
-23.900000000000318
 21
-58.399999999999849
 31
0.0
  0
LINE
  5
D5
  8
DETAIL
  6
CONTINUOUS
 62
     5
 10
33.39999999999975
 20
48.899999999999892
 30
0.0
 11
33.39999999999975
 21
-48.899999999999849
 31
0.0
  0
ARC
  5
D6
  8
DETAIL
  6
CONTINUOUS
 62
     5
 10
23.89999999999975
 20
48.899999999999892
 30
0.0
 40
9.5
 50
0.0
 51
90.0
  0
ARC
  5
D7
  8
DETAIL
  6
CONTINUOUS
 62
     5
 10
23.89999999999975
 20
-48.899999999999849
 30
0.0
 40
9.5
 50
270.0
 51
0.0
  0
ARC
  5
D8
  8
DETAIL
  6
CONTINUOUS
 62
     5
 10
23.99999999999989
 20
-48.499999999999972
 30
0.0
 40
5.0
 50
270.0
 51
0.0
  0
LINE
  5
D9
  8
DETAIL
  6
CONTINUOUS
 62
     5
 10
28.99999999999989
 20
48.500000000000021
 30
0.0
 11
28.99999999999989
 21
-48.499999999999972
 31
0.0
  0
ARC
  5
DA
  8
DETAIL
  6
CONTINUOUS
 62
     5
 10
23.99999999999989
 20
48.500000000000021
 30
0.0
 40
5.0
 50
0.0
 51
90.0
  0
LINE
  5
DB
  8
DETAIL
  6
CONTINUOUS
 62
     5
 10
24.99999999999989
 20
-48.999999999999979
 30
0.0
 11
26.49999999999989
 21
-48.999999999999979
 31
0.0
  0
LINE
  5
DC
  8
DETAIL
  6
CONTINUOUS
 62
     5
 10
24.99999999999989
 20
-41.999999999999979
 30
0.0
 11
24.99999999999989
 21
-48.999999999999979
 31
0.0
  0
LINE
  5
DD
  8
DETAIL
  6
CONTINUOUS
 62
     5
 10
26.49999999999989
 20
-41.999999999999979
 30
0.0
 11
24.99999999999989
 21
-41.999999999999979
 31
0.0
  0
ARC
  5
DE
  8
DETAIL
  6
CONTINUOUS
 62
     5
 10
26.49999999999989
 20
-42.999999999999979
 30
0.0
 40
1.0
 50
0.0
 51
90.0
  0
LINE
  5
DF
  8
DETAIL
  6
CONTINUOUS
 62
     5
 10
27.49999999999989
 20
-47.999999999999979
 30
0.0
 11
27.49999999999989
 21
-42.999999999999979
 31
0.0
  0
ARC
  5
E0
  8
DETAIL
  6
CONTINUOUS
 62
     5
 10
26.49999999999989
 20
-47.999999999999979
 30
0.0
 40
1.0
 50
270.0
 51
0.0
  0
LINE
  5
E1
  8
DETAIL
  6
CONTINUOUS
 62
     5
 10
24.99999999999989
 20
49.000000000000021
 30
0.0
 11
26.49999999999989
 21
49.000000000000021
 31
0.0
  0
LINE
  5
E2
  8
DETAIL
  6
CONTINUOUS
 62
     5
 10
24.99999999999989
 20
42.000000000000007
 30
0.0
 11
24.99999999999989
 21
49.000000000000021
 31
0.0
  0
LINE
  5
E3
  8
DETAIL
  6
CONTINUOUS
 62
     5
 10
26.49999999999989
 20
42.000000000000007
 30
0.0
 11
24.99999999999989
 21
42.000000000000007
 31
0.0
  0
ARC
  5
E4
  8
DETAIL
  6
CONTINUOUS
 62
     5
 10
26.49999999999989
 20
43.000000000000021
 30
0.0
 40
1.0
 50
270.0
 51
0.0
  0
LINE
  5
E5
  8
DETAIL
  6
CONTINUOUS
 62
     5
 10
27.49999999999989
 20
48.000000000000021
 30
0.0
 11
27.49999999999989
 21
43.000000000000021
 31
0.0
  0
ARC
  5
E6
  8
DETAIL
  6
CONTINUOUS
 62
     5
 10
26.49999999999989
 20
48.000000000000021
 30
0.0
 40
1.0
 50
0.0
 51
90.0
  0
LINE
  5
E7
  8
DETAIL
  6
CONTINUOUS
 62
     5
 10
22.58649167310341
 20
53.500000000000021
 30
0.0
 11
23.99999999999989
 21
53.500000000000021
 31
0.0
  0
LINE
  5
E8
  8
DETAIL
  6
CONTINUOUS
 62
     5
 10
23.99999999999989
 20
-53.499999999999972
 30
0.0
 11
22.58649167310341
 21
-53.499999999999972
 31
0.0
  0
LINE
  5
E9
  8
DETAIL
  6
CONTINUOUS
 62
     5
 10
-23.900000000000318
 20
58.399999999999892
 30
0.0
 11
23.89999999999975
 21
58.399999999999892
 31
0.0
  0
ARC
  5
EA
  8
DETAIL
  6
CONTINUOUS
 62
     5
 10
-23.900000000000318
 20
48.899999999999892
 30
0.0
 40
9.5
 50
90.0
 51
179.99999799999949
  0
LINE
  5
EB
  8
DETAIL
  6
CONTINUOUS
 62
     5
 10
-33.400000000000318
 20
-48.899999999999849
 30
0.0
 11
-33.400000000000318
 21
48.899999999999892
 31
0.0
  0
ARC
  5
EC
  8
DETAIL
  6
CONTINUOUS
 62
     5
 10
-23.900000000000318
 20
-48.899999999999849
 30
0.0
 40
9.5000000000000036
 50
179.9999980000004
 51
270.0
  0
ARC
  5
ED
  8
DETAIL
  6
CONTINUOUS
 62
     5
 10
-24.000000000000231
 20
48.500000000000021
 30
0.0
 40
5.0
 50
90.0
 51
179.99999799999949
  0
LINE
  5
EE
  8
DETAIL
  6
CONTINUOUS
 62
     5
 10
-29.000000000000231
 20
-48.499999999999972
 30
0.0
 11
-29.000000000000231
 21
48.500000000000021
 31
0.0
  0
ARC
  5
EF
  8
DETAIL
  6
CONTINUOUS
 62
     5
 10
-24.000000000000231
 20
-48.499999999999972
 30
0.0
 40
5.0000000000000044
 50
179.99999799999949
 51
270.0
  0
LINE
  5
F0
  8
DETAIL
  6
CONTINUOUS
 62
     5
 10
-25.60000000000036
 20
-17.999999999999979
 30
0.0
 11
-25.60000000000036
 21
-27.999999999999979
 31
0.0
  0
LINE
  5
F1
  8
DETAIL
  6
CONTINUOUS
 62
     5
 10
-24.000000000000231
 20
-27.999999999999979
 30
0.0
 11
-24.000000000000231
 21
-17.999999999999979
 31
0.0
  0
LINE
  5
F2
  8
DETAIL
  6
CONTINUOUS
 62
     5
 10
-25.000000000000231
 20
-41.999999999999979
 30
0.0
 11
-26.500000000000231
 21
-41.999999999999979
 31
0.0
  0
LINE
  5
F3
  8
DETAIL
  6
CONTINUOUS
 62
     5
 10
-25.000000000000231
 20
-48.999999999999979
 30
0.0
 11
-25.000000000000231
 21
-41.999999999999979
 31
0.0
  0
LINE
  5
F4
  8
DETAIL
  6
CONTINUOUS
 62
     5
 10
-26.500000000000231
 20
-48.999999999999979
 30
0.0
 11
-25.000000000000231
 21
-48.999999999999979
 31
0.0
  0
ARC
  5
F5
  8
DETAIL
  6
CONTINUOUS
 62
     5
 10
-26.500000000000231
 20
-47.999999999999979
 30
0.0
 40
1.0
 50
179.99999799999719
 51
270.0
  0
LINE
  5
F6
  8
DETAIL
  6
CONTINUOUS
 62
     5
 10
-27.500000000000231
 20
-42.999999999999979
 30
0.0
 11
-27.500000000000231
 21
-47.999999999999979
 31
0.0
  0
ARC
  5
F7
  8
DETAIL
  6
CONTINUOUS
 62
     5
 10
-26.500000000000231
 20
-42.999999999999979
 30
0.0
 40
1.0
 50
90.0
 51
179.99999799999719
  0
LINE
  5
F8
  8
DETAIL
  6
CONTINUOUS
 62
     5
 10
-25.60000000000036
 20
-27.999999999999979
 30
0.0
 11
-24.000000000000231
 21
-27.999999999999979
 31
0.0
  0
ARC
  5
F9
  8
DETAIL
  6
CONTINUOUS
 62
     5
 10
-0.0000000000001137
 20
0.0000000000000213
 30
0.0
 40
39.499999999999908
 50
264.50215200000099
 51
275.49784999999991
  0
ARC
  5
FA
  8
DETAIL
  6
CONTINUOUS
 62
     5
 10
-4.0000000000001128
 20
-41.557942000000118
 30
0.0
 40
2.2500000000001181
 50
84.502150000003397
 51
264.5021519999961
  0
ARC
  5
FB
  8
DETAIL
  6
CONTINUOUS
 62
     5
 10
-0.0000000000001137
 20
0.0000000000000213
 30
0.0
 40
44.000000000000021
 50
264.50215200000099
 51
275.49784999999991
  0
ARC
  5
FC
  8
DETAIL
  6
CONTINUOUS
 62
     5
 10
3.999999999999885
 20
-41.557942000000118
 30
0.0
 40
2.2499999999998912
 50
275.49784999999832
 51
95.497848000002307
  0
LINE
  5
FD
  8
DETAIL
  6
CONTINUOUS
 62
     5
 10
-25.60000000000036
 20
-17.999999999999979
 30
0.0
 11
-24.000000000000231
 21
-17.999999999999979
 31
0.0
  0
LINE
  5
FE
  8
DETAIL
  6
CONTINUOUS
 62
     5
 10
-24.000000000000231
 20
28.000000000000021
 30
0.0
 11
-25.60000000000036
 21
28.000000000000021
 31
0.0
  0
LINE
  5
FF
  8
DETAIL
  6
CONTINUOUS
 62
     5
 10
-25.60000000000036
 20
18.000000000000021
 30
0.0
 11
-24.000000000000231
 21
18.000000000000021
 31
0.0
  0
LINE
  5
100
  8
DETAIL
  6
CONTINUOUS
 62
     5
 10
-25.60000000000036
 20
28.000000000000021
 30
0.0
 11
-25.60000000000036
 21
18.000000000000021
 31
0.0
  0
LINE
  5
101
  8
DETAIL
  6
CONTINUOUS
 62
     5
 10
-24.000000000000231
 20
18.000000000000021
 30
0.0
 11
-24.000000000000231
 21
28.000000000000021
 31
0.0
  0
LINE
  5
102
  8
DETAIL
  6
CONTINUOUS
 62
     5
 10
-25.60000000000036
 20
5.0000000000000204
 30
0.0
 11
-24.000000000000231
 21
5.0000000000000204
 31
0.0
  0
LINE
  5
103
  8
DETAIL
  6
CONTINUOUS
 62
     5
 10
-25.60000000000036
 20
-4.9999999999999778
 30
0.0
 11
-24.000000000000231
 21
-4.9999999999999778
 31
0.0
  0
LINE
  5
104
  8
DETAIL
  6
CONTINUOUS
 62
     5
 10
-25.60000000000036
 20
5.0000000000000204
 30
0.0
 11
-25.60000000000036
 21
-4.9999999999999778
 31
0.0
  0
LINE
  5
105
  8
DETAIL
  6
CONTINUOUS
 62
     5
 10
-24.000000000000231
 20
5.0000000000000204
 30
0.0
 11
-24.000000000000231
 21
-4.9999999999999778
 31
0.0
  0
LINE
  5
106
  8
DETAIL
  6
CONTINUOUS
 62
     5
 10
-25.000000000000231
 20
42.000000000000007
 30
0.0
 11
-26.500000000000231
 21
42.000000000000007
 31
0.0
  0
LINE
  5
107
  8
DETAIL
  6
CONTINUOUS
 62
     5
 10
-25.000000000000231
 20
49.000000000000021
 30
0.0
 11
-25.000000000000231
 21
42.000000000000007
 31
0.0
  0
LINE
  5
108
  8
DETAIL
  6
CONTINUOUS
 62
     5
 10
-26.500000000000231
 20
49.000000000000021
 30
0.0
 11
-25.000000000000231
 21
49.000000000000021
 31
0.0
  0
ARC
  5
109
  8
DETAIL
  6
CONTINUOUS
 62
     5
 10
-26.500000000000231
 20
48.000000000000021
 30
0.0
 40
1.0
 50
90.0
 51
179.99999799999719
  0
LINE
  5
10A
  8
DETAIL
  6
CONTINUOUS
 62
     5
 10
-27.500000000000231
 20
43.000000000000021
 30
0.0
 11
-27.500000000000231
 21
48.000000000000021
 31
0.0
  0
ARC
  5
10B
  8
DETAIL
  6
CONTINUOUS
 62
     5
 10
-26.500000000000231
 20
43.000000000000021
 30
0.0
 40
1.0
 50
179.99999799999719
 51
270.0
  0
ARC
  5
10C
  8
DETAIL
  6
CONTINUOUS
 62
     5
 10
-0.0000000000001137
 20
0.0000000000000213
 30
0.0
 40
39.500000000000092
 50
84.5021500000001
 51
95.497847999998996
  0
ARC
  5
10D
  8
DETAIL
  6
CONTINUOUS
 62
     5
 10
-4.0000000000001128
 20
41.557940999999822
 30
0.0
 40
2.2500000000000662
 50
95.497848000002307
 51
275.49784999999832
  0
ARC
  5
10E
  8
DETAIL
  6
CONTINUOUS
 62
     5
 10
-0.0000000000001137
 20
0.0000000000000213
 30
0.0
 40
43.999999999999893
 50
84.5021500000001
 51
95.497847999998996
  0
ARC
  5
10F
  8
DETAIL
  6
CONTINUOUS
 62
     5
 10
3.999999999999885
 20
41.557940999999822
 30
0.0
 40
2.2499999999998401
 50
264.5021519999961
 51
84.502150000003397
  0
LINE
  5
110
  8
DETAIL
  6
CONTINUOUS
 62
     5
 10
-24.000000000000231
 20
53.500000000000021
 30
0.0
 11
-22.986491673104069
 21
53.500000000000021
 31
0.0
  0
LINE
  5
111
  8
DETAIL
  6
CONTINUOUS
 62
     5
 10
-22.986491673104069
 20
-53.499999999999972
 30
0.0
 11
-24.000000000000231
 21
-53.499999999999972
 31
0.0
  0
ARC
  5
112
  8
DETAIL
  6
CONTINUOUS
 62
     5
 10
3.999999999999885
 20
-41.557942000000118
 30
0.0
 40
2.74999999999994
 50
275.49784999999832
 51
95.497848000002307
  0
ARC
  5
113
  8
DETAIL
  6
CONTINUOUS
 62
     5
 10
-0.0000000000001137
 20
0.0000000000000213
 30
0.0
 40
39.000000000000043
 50
264.50215200000099
 51
275.49784999999991
  0
ARC
  5
114
  8
DETAIL
  6
CONTINUOUS
 62
     5
 10
-0.0000000000001137
 20
0.0000000000000213
 30
0.0
 40
44.500000000000007
 50
264.50215200000099
 51
275.49784999999991
  0
ARC
  5
115
  8
DETAIL
  6
CONTINUOUS
 62
     5
 10
-4.0000000000001128
 20
-41.557942000000118
 30
0.0
 40
2.7500000000000431
 50
84.502150000005017
 51
264.50215199999451
  0
ARC
  5
116
  8
DETAIL
  6
CONTINUOUS
 62
     5
 10
3.999999999999885
 20
41.557940999999822
 30
0.0
 40
2.7499999999999529
 50
264.50215199999451
 51
84.502150000005017
  0
ARC
  5
117
  8
DETAIL
  6
CONTINUOUS
 62
     5
 10
-0.0000000000001137
 20
0.0000000000000213
 30
0.0
 40
44.499999999999929
 50
84.5021500000001
 51
95.497847999998996
  0
ARC
  5
118
  8
DETAIL
  6
CONTINUOUS
 62
     5
 10
-4.0000000000001128
 20
41.557940999999822
 30
0.0
 40
2.7500000000000551
 50
95.497848000002307
 51
275.49784999999832
  0
ARC
  5
119
  8
DETAIL
  6
CONTINUOUS
 62
     5
 10
-0.0000000000001137
 20
0.0000000000000213
 30
0.0
 40
39.00000000000005
 50
84.5021500000001
 51
95.497847999998996
  0
LINE
  5
11A
  8
DETAIL
  6
CONTINUOUS
 62
     5
 10
-17.500000000001481
 20
-11.050115999999861
 30
0.0
 11
-14.00000000000148
 21
-11.050115999999861
 31
0.0
  0
LINE
  5
11B
  8
DETAIL
  6
CONTINUOUS
 62
     5
 10
-14.00000000000148
 20
-10.92098499999995
 30
0.0
 11
-14.00000000000148
 21
-10.724844000000051
 31
0.0
  0
LINE
  5
11C
  8
DETAIL
  6
CONTINUOUS
 62
     5
 10
-14.00000000000148
 20
-10.724844000000051
 30
0.0
 11
-14.00000000000148
 21
-10.621771000000059
 31
0.0
  0
LINE
  5
11D
  8
DETAIL
  6
CONTINUOUS
 62
     5
 10
-14.00000000000148
 20
-11.050115999999861
 30
0.0
 11
-14.00000000000148
 21
-10.92098499999995
 31
0.0
  0
LINE
  5
11E
  8
DETAIL
  6
CONTINUOUS
 62
     5
 10
-14.00000000000148
 20
-10.92098499999995
 30
0.0
 11
-14.300000000001431
 21
-10.724844000000051
 31
0.0
  0
ARC
  5
11F
  8
DETAIL
  6
CONTINUOUS
 62
     5
 10
-13.28735600000152
 20
-10.67635300000004
 30
0.0
 40
0.7237579999999551
 50
190.0541089999941
 51
268.99902800000461
  0
ARC
  5
120
  8
DETAIL
  6
CONTINUOUS
 62
     5
 10
-13.17656500000146
 20
-13.50655099999992
 30
0.0
 40
3.0
 50
90.0
 51
111.992076999999
  0
LINE
  5
121
  8
DETAIL
  6
CONTINUOUS
 62
     5
 10
-14.390371000001441
 20
-10.50655099999992
 30
0.0
 11
-12.47472800000139
 21
-10.50655099999992
 31
0.0
  0
LINE
  5
122
  8
DETAIL
  6
CONTINUOUS
 62
     5
 10
-12.47472800000139
 20
-10.50655099999992
 30
0.0
 11
-12.47472800000139
 21
-9.7035780000000837
 31
0.0
  0
CIRCLE
  5
123
  8
DETAIL
  6
CONTINUOUS
 62
     5
 10
12.99999999999989
 20
4.7500000000000204
 30
0.0
 40
1.2000000000000031
  0
CIRCLE
  5
124
  8
DETAIL
  6
CONTINUOUS
 62
     5
 10
12.99999999999989
 20
4.7500000000000204
 30
0.0
 40
1.8999999999999979
  0
CIRCLE
  5
125
  8
DETAIL
  6
CONTINUOUS
 62
     5
 10
12.99999999999989
 20
4.7500000000000204
 30
0.0
 40
1.2000000000000031
  0
CIRCLE
  5
126
  8
DETAIL
  6
CONTINUOUS
 62
     5
 10
12.99999999999989
 20
4.7500000000000204
 30
0.0
 40
1.8999999999999979
  0
CIRCLE
  5
127
  8
DETAIL
  6
CONTINUOUS
 62
     5
 10
12.99999999999989
 20
4.7500000000000204
 30
0.0
 40
1.799999999999996
  0
LINE
  5
128
  8
DETAIL
  6
CONTINUOUS
 62
     5
 10
15.69999999999993
 20
4.049999999999975
 30
0.0
 11
15.44999999999993
 21
4.549999999999975
 31
0.0
  0
CIRCLE
  5
129
  8
DETAIL
  6
CONTINUOUS
 62
     5
 10
12.99999999999989
 20
-4.7499999999999778
 30
0.0
 40
1.2000000000000031
  0
CIRCLE
  5
12A
  8
DETAIL
  6
CONTINUOUS
 62
     5
 10
12.99999999999989
 20
-4.7499999999999778
 30
0.0
 40
1.8999999999999979
  0
CIRCLE
  5
12B
  8
DETAIL
  6
CONTINUOUS
 62
     5
 10
12.99999999999989
 20
-4.7499999999999778
 30
0.0
 40
1.2000000000000031
  0
CIRCLE
  5
12C
  8
DETAIL
  6
CONTINUOUS
 62
     5
 10
12.99999999999989
 20
-4.7499999999999778
 30
0.0
 40
1.8999999999999979
  0
CIRCLE
  5
12D
  8
DETAIL
  6
CONTINUOUS
 62
     5
 10
12.99999999999989
 20
-4.7499999999999778
 30
0.0
 40
1.799999999999996
  0
LINE
  5
12E
  8
DETAIL
  6
CONTINUOUS
 62
     5
 10
15.44999999999993
 20
-4.5499999999999332
 30
0.0
 11
15.69999999999993
 21
-4.0499999999999332
 31
0.0
  0
LINE
  5
12F
  8
DETAIL
  6
CONTINUOUS
 62
     5
 10
16.90295499999991
 20
-9.7499999999999751
 30
0.0
 11
14.68929499999979
 21
-9.7499999999999751
 31
0.0
  0
ARC
  5
130
  8
DETAIL
  6
CONTINUOUS
 62
     5
 10
8.8999999999999773
 20
-10.200000000000021
 30
0.0
 40
1.200000000000045
 50
270.0
 51
359.99999799999961
  0
LINE
  5
131
  8
DETAIL
  6
CONTINUOUS
 62
     5
 10
12.4747279999998
 20
-9.7035780000000837
 30
0.0
 11
10.100000000000019
 21
-9.7035780000000837
 31
0.0
  0
LINE
  5
132
  8
DETAIL
  6
CONTINUOUS
 62
     5
 10
10.100000000000019
 20
-9.7035780000000837
 30
0.0
 11
10.100000000000019
 21
-10.200000000000021
 31
0.0
  0
ARC
  5
133
  8
DETAIL
  6
CONTINUOUS
 62
     5
 10
13.17656499999987
 20
-13.50655099999992
 30
0.0
 40
3.0000000000000759
 50
68.007923000000972
 51
90.0
  0
LINE
  5
134
  8
DETAIL
  6
CONTINUOUS
 62
     5
 10
13.99999999999989
 20
-10.92098499999995
 30
0.0
 11
13.99999999999989
 21
-10.724844000000051
 31
0.0
  0
LINE
  5
135
  8
DETAIL
  6
CONTINUOUS
 62
     5
 10
13.99999999999989
 20
-10.724844000000051
 30
0.0
 11
13.99999999999989
 21
-10.621771000000059
 31
0.0
  0
LINE
  5
136
  8
DETAIL
  6
CONTINUOUS
 62
     5
 10
9.3500000000000227
 20
-11.4035779999999
 30
0.0
 11
9.1499999999999755
 21
-11.200000000000021
 31
0.0
  0
ARC
  5
137
  8
DETAIL
  6
CONTINUOUS
 62
     5
 10
13.28735599999993
 20
-10.67635300000004
 30
0.0
 40
0.7237579999999732
 50
271.00097199999539
 51
349.94589100000587
  0
LINE
  5
138
  8
DETAIL
  6
CONTINUOUS
 62
     5
 10
16.90295499999991
 20
9.7500000000000195
 30
0.0
 11
14.68929499999979
 21
9.7500000000000195
 31
0.0
  0
ARC
  5
139
  8
DETAIL
  6
CONTINUOUS
 62
     5
 10
8.8999999999999773
 20
10.20000000000007
 30
0.0
 40
1.200000000000045
 50
359.99999799999961
 51
90.0
  0
LINE
  5
13A
  8
DETAIL
  6
CONTINUOUS
 62
     5
 10
12.4747279999998
 20
9.7035770000000152
 30
0.0
 11
10.100000000000019
 21
9.7035770000000152
 31
0.0
  0
LINE
  5
13B
  8
DETAIL
  6
CONTINUOUS
 62
     5
 10
10.100000000000019
 20
9.7035770000000152
 30
0.0
 11
10.100000000000019
 21
10.20000000000007
 31
0.0
  0
LINE
  5
13C
  8
DETAIL
  6
CONTINUOUS
 62
     5
 10
13.99999999999989
 20
10.920984000000111
 30
0.0
 11
13.99999999999989
 21
10.7248440000001
 31
0.0
  0
LINE
  5
13D
  8
DETAIL
  6
CONTINUOUS
 62
     5
 10
13.99999999999989
 20
10.7248440000001
 30
0.0
 11
13.99999999999989
 21
10.6217710000001
 31
0.0
  0
ARC
  5
13E
  8
DETAIL
  6
CONTINUOUS
 62
     5
 10
13.17656499999987
 20
13.506550000000081
 30
0.0
 40
3.0
 50
270.0
 51
291.99207699999891
  0
LINE
  5
13F
  8
DETAIL
  6
CONTINUOUS
 62
     5
 10
10.100000000000019
 20
9.7035770000000152
 30
0.0
 11
9.8999999999999755
 21
9.5000000000000195
 31
0.0
  0
ARC
  5
140
  8
DETAIL
  6
CONTINUOUS
 62
     5
 10
13.28735599999993
 20
10.676351999999961
 30
0.0
 40
0.7237579999999551
 50
10.05410899999413
 51
88.999028000002895
  0
ARC
  5
141
  8
DETAIL
  6
CONTINUOUS
 62
     5
 10
8.8999999999999773
 20
10.20000000000007
 30
0.0
 40
1.0
 50
359.99999799999722
 51
90.0
  0
ARC
  5
142
  8
DETAIL
  6
CONTINUOUS
 62
     5
 10
8.8999999999999773
 20
-10.200000000000021
 30
0.0
 40
1.0
 50
270.0
 51
359.99999799999722
  0
LINE
  5
143
  8
DETAIL
  6
CONTINUOUS
 62
     5
 10
9.8999999999999755
 20
-10.200000000000021
 30
0.0
 11
9.8999999999999755
 21
10.20000000000007
 31
0.0
  0
LINE
  5
144
  8
DETAIL
  6
CONTINUOUS
 62
     5
 10
18.199999999999921
 20
4.049999999999975
 30
0.0
 11
18.449999999999921
 21
4.549999999999975
 31
0.0
  0
LINE
  5
145
  8
DETAIL
  6
CONTINUOUS
 62
     5
 10
18.449999999999921
 20
-4.5499999999999332
 30
0.0
 11
18.199999999999921
 21
-4.0499999999999332
 31
0.0
  0
ARC
  5
146
  8
DETAIL
  6
CONTINUOUS
 62
     5
 10
20.199999999999921
 20
-8.426619000000052
 30
0.0
 40
1.299999999999955
 50
270.0
 51
359.99999800000052
  0
LINE
  5
147
  8
DETAIL
  6
CONTINUOUS
 62
     5
 10
21.49999999999989
 20
-8.426619000000052
 30
0.0
 11
21.49999999999989
 21
-7.9630850000000697
 31
0.0
  0
LINE
  5
148
  8
DETAIL
  6
CONTINUOUS
 62
     5
 10
21.49999999999989
 20
-7.9630850000000697
 30
0.0
 11
21.49999999999989
 21
8.4266179999999817
 31
0.0
  0
ARC
  5
149
  8
DETAIL
  6
CONTINUOUS
 62
     5
 10
20.199999999999921
 20
8.4266179999999817
 30
0.0
 40
1.299999999999955
 50
359.99999800000052
 51
90.0
  0
LINE
  5
14A
  8
DETAIL
  6
CONTINUOUS
 62
     5
 10
20.199999999999921
 20
9.726617999999938
 30
0.0
 11
19.08836899999994
 21
9.726617999999938
 31
0.0
  0
LINE
  5
14B
  8
DETAIL
  6
CONTINUOUS
 62
     5
 10
19.08836899999994
 20
-9.7266190000000066
 30
0.0
 11
20.199999999999921
 21
-9.7266190000000066
 31
0.0
  0
LINE
  5
14C
  8
DETAIL
  6
CONTINUOUS
 62
     5
 10
18.449999999999921
 20
-4.5499999999999332
 30
0.0
 11
15.44999999999993
 21
-4.5499999999999332
 31
0.0
  0
LINE
  5
14D
  8
DETAIL
  6
CONTINUOUS
 62
     5
 10
15.44999999999993
 20
-4.5499999999999332
 30
0.0
 11
15.44999999999993
 21
4.549999999999975
 31
0.0
  0
LINE
  5
14E
  8
DETAIL
  6
CONTINUOUS
 62
     5
 10
15.44999999999993
 20
4.549999999999975
 30
0.0
 11
18.449999999999921
 21
4.549999999999975
 31
0.0
  0
LINE
  5
14F
  8
DETAIL
  6
CONTINUOUS
 62
     5
 10
18.449999999999921
 20
4.549999999999975
 30
0.0
 11
18.449999999999921
 21
-4.5499999999999332
 31
0.0
  0
LINE
  5
150
  8
DETAIL
  6
CONTINUOUS
 62
     5
 10
18.199999999999921
 20
-4.0499999999999332
 30
0.0
 11
15.69999999999993
 21
-4.0499999999999332
 31
0.0
  0
LINE
  5
151
  8
DETAIL
  6
CONTINUOUS
 62
     5
 10
15.69999999999993
 20
-4.0499999999999332
 30
0.0
 11
15.69999999999993
 21
4.049999999999975
 31
0.0
  0
LINE
  5
152
  8
DETAIL
  6
CONTINUOUS
 62
     5
 10
15.69999999999993
 20
4.049999999999975
 30
0.0
 11
18.199999999999921
 21
4.049999999999975
 31
0.0
  0
LINE
  5
153
  8
DETAIL
  6
CONTINUOUS
 62
     5
 10
18.199999999999921
 20
4.049999999999975
 30
0.0
 11
18.199999999999921
 21
-4.0499999999999332
 31
0.0
  0
ARC
  5
154
  8
DETAIL
  6
CONTINUOUS
 62
     5
 10
17.699999999999921
 20
1.400000000000112
 30
0.0
 40
0.5
 50
359.99999800001018
 51
90.0
  0
LINE
  5
155
  8
DETAIL
  6
CONTINUOUS
 62
     5
 10
17.699999999999921
 20
1.9000000000001109
 30
0.0
 11
15.69999999999993
 21
1.9000000000001109
 31
0.0
  0
LINE
  5
156
  8
DETAIL
  6
CONTINUOUS
 62
     5
 10
15.69999999999993
 20
-1.900000000000069
 30
0.0
 11
17.699999999999921
 21
-1.900000000000069
 31
0.0
  0
ARC
  5
157
  8
DETAIL
  6
CONTINUOUS
 62
     5
 10
17.699999999999921
 20
-1.4000000000000701
 30
0.0
 40
0.5
 50
270.0
 51
359.99999800001018
  0
LINE
  5
158
  8
DETAIL
  6
CONTINUOUS
 62
     5
 10
18.199999999999921
 20
-1.4000000000000701
 30
0.0
 11
18.199999999999921
 21
1.400000000000112
 31
0.0
  0
ARC
  5
159
  8
DETAIL
  6
CONTINUOUS
 62
     5
 10
17.699999999999921
 20
3.00000000000002
 30
0.0
 40
0.5
 50
359.99999800001018
 51
90.0
  0
LINE
  5
15A
  8
DETAIL
  6
CONTINUOUS
 62
     5
 10
17.699999999999921
 20
3.50000000000002
 30
0.0
 11
15.69999999999993
 21
3.50000000000002
 31
0.0
  0
LINE
  5
15B
  8
DETAIL
  6
CONTINUOUS
 62
     5
 10
15.69999999999993
 20
-3.4999999999999791
 30
0.0
 11
17.699999999999921
 21
-3.4999999999999791
 31
0.0
  0
ARC
  5
15C
  8
DETAIL
  6
CONTINUOUS
 62
     5
 10
17.699999999999921
 20
-2.9999999999999791
 30
0.0
 40
0.5
 50
270.0
 51
359.99999800001018
  0
LINE
  5
15D
  8
DETAIL
  6
CONTINUOUS
 62
     5
 10
18.199999999999921
 20
-2.9999999999999791
 30
0.0
 11
18.199999999999921
 21
3.00000000000002
 31
0.0
  0
ARC
  5
15E
  8
DETAIL
  6
CONTINUOUS
 62
     5
 10
14.388146999999771
 20
-10.703578000000091
 30
0.0
 40
1.0000000000001481
 50
70.05672599999437
 51
90.0
  0
LINE
  5
15F
  8
DETAIL
  6
CONTINUOUS
 62
     5
 10
14.7292369999999
 20
-9.7635469999999973
 30
0.0
 11
15.00849299999993
 21
-9.8648749999999623
 31
0.0
  0
ARC
  5
160
  8
DETAIL
  6
CONTINUOUS
 62
     5
 10
15.349581999999939
 20
-8.9248439999998723
 30
0.0
 40
0.999999999999963
 50
250.05672499999119
 51
270.0
  0
LINE
  5
161
  8
DETAIL
  6
CONTINUOUS
 62
     5
 10
15.349581999999939
 20
-9.9248439999998723
 30
0.0
 11
16.273389999999939
 21
-9.9248439999998723
 31
0.0
  0
ARC
  5
162
  8
DETAIL
  6
CONTINUOUS
 62
     5
 10
16.273389999999939
 20
-8.9248439999998723
 30
0.0
 40
1.0
 50
270.0
 51
292.66122799999289
  0
LINE
  5
163
  8
DETAIL
  6
CONTINUOUS
 62
     5
 10
16.65867199999991
 20
-9.8476430000000406
 30
0.0
 11
16.81881999999985
 21
-9.7807789999999173
 31
0.0
  0
ARC
  5
164
  8
DETAIL
  6
CONTINUOUS
 62
     5
 10
17.204101999999811
 20
-10.703578000000091
 30
0.0
 40
1.0
 50
90.0
 51
112.6612289999922
  0
LINE
  5
165
  8
DETAIL
  6
CONTINUOUS
 62
     5
 10
17.204101999999811
 20
-9.7035780000000837
 30
0.0
 11
19.08836899999994
 21
-9.7035780000000837
 31
0.0
  0
LINE
  5
166
  8
DETAIL
  6
CONTINUOUS
 62
     5
 10
19.08836899999994
 20
-9.7035780000000837
 30
0.0
 11
19.08836899999994
 21
-10.50655099999992
 31
0.0
  0
LINE
  5
167
  8
DETAIL
  6
CONTINUOUS
 62
     5
 10
19.08836899999994
 20
-10.50655099999992
 30
0.0
 11
17.20161399999995
 21
-10.50655099999992
 31
0.0
  0
ARC
  5
168
  8
DETAIL
  6
CONTINUOUS
 62
     5
 10
17.20161399999995
 20
-11.50655099999992
 30
0.0
 40
1.0
 50
90.0
 51
112.38696800000289
  0
LINE
  5
169
  8
DETAIL
  6
CONTINUOUS
 62
     5
 10
16.820752999999851
 20
-10.581918000000069
 30
0.0
 11
16.656738999999899
 21
-10.64947699999991
 31
0.0
  0
ARC
  5
16A
  8
DETAIL
  6
CONTINUOUS
 62
     5
 10
16.275878000000031
 20
-9.7248440000000542
 30
0.0
 40
1.0
 50
270.0
 51
292.38696599999361
  0
LINE
  5
16B
  8
DETAIL
  6
CONTINUOUS
 62
     5
 10
16.275878000000031
 20
-10.724844000000051
 30
0.0
 11
15.823765999999861
 21
-10.724844000000051
 31
0.0
  0
LINE
  5
16C
  8
DETAIL
  6
CONTINUOUS
 62
     5
 10
15.823765999999861
 20
-10.724844000000051
 30
0.0
 11
15.34735899999998
 21
-10.724844000000051
 31
0.0
  0
ARC
  5
16D
  8
DETAIL
  6
CONTINUOUS
 62
     5
 10
15.34735899999998
 20
-9.7248440000000542
 30
0.0
 40
1.0000000000000471
 50
250.30395500000611
 51
270.0
  0
LINE
  5
16E
  8
DETAIL
  6
CONTINUOUS
 62
     5
 10
15.010328999999841
 20
-10.666337999999961
 30
0.0
 11
14.72740099999999
 21
-10.565056999999999
 31
0.0
  0
ARC
  5
16F
  8
DETAIL
  6
CONTINUOUS
 62
     5
 10
14.390370999999851
 20
-11.50655099999992
 30
0.0
 40
1.000000000000081
 50
70.303956999994142
 51
90.0
  0
LINE
  5
170
  8
DETAIL
  6
CONTINUOUS
 62
     5
 10
14.390370999999851
 20
-10.50655099999992
 30
0.0
 11
12.4747279999998
 21
-10.50655099999992
 31
0.0
  0
LINE
  5
171
  8
DETAIL
  6
CONTINUOUS
 62
     5
 10
12.4747279999998
 20
-10.50655099999992
 30
0.0
 11
12.4747279999998
 21
-9.7035780000000837
 31
0.0
  0
LINE
  5
172
  8
DETAIL
  6
CONTINUOUS
 62
     5
 10
12.4747279999998
 20
-9.7035780000000837
 30
0.0
 11
14.388146999999771
 21
-9.7035780000000837
 31
0.0
  0
LINE
  5
173
  8
DETAIL
  6
CONTINUOUS
 62
     5
 10
17.199999999999928
 20
-10.724844000000051
 30
0.0
 11
17.49999999999989
 21
-10.92098499999995
 31
0.0
  0
LINE
  5
174
  8
DETAIL
  6
CONTINUOUS
 62
     5
 10
17.49999999999989
 20
-10.92098499999995
 30
0.0
 11
17.49999999999989
 21
-11.050115999999861
 31
0.0
  0
LINE
  5
175
  8
DETAIL
  6
CONTINUOUS
 62
     5
 10
17.49999999999989
 20
-11.050115999999861
 30
0.0
 11
13.99999999999989
 21
-11.050115999999861
 31
0.0
  0
LINE
  5
176
  8
DETAIL
  6
CONTINUOUS
 62
     5
 10
13.99999999999989
 20
-11.050115999999861
 30
0.0
 11
13.99999999999989
 21
-10.92098499999995
 31
0.0
  0
LINE
  5
177
  8
DETAIL
  6
CONTINUOUS
 62
     5
 10
13.99999999999989
 20
-10.92098499999995
 30
0.0
 11
14.299999999999841
 21
-10.724844000000051
 31
0.0
  0
ARC
  5
178
  8
DETAIL
  6
CONTINUOUS
 62
     5
 10
18.199999999999921
 20
-10.49999999999998
 30
0.0
 40
0.499999999999959
 50
188.1604869999988
 51
270.0
  0
LINE
  5
179
  8
DETAIL
  6
CONTINUOUS
 62
     5
 10
21.49999999999989
 20
-7.6203290000000621
 30
0.0
 11
21.49999999999989
 21
-9.4999999999999751
 31
0.0
  0
ARC
  5
17A
  8
DETAIL
  6
CONTINUOUS
 62
     5
 10
19.99999999999989
 20
-9.4999999999999751
 30
0.0
 40
1.5
 50
270.0
 51
359.9999980000012
  0
LINE
  5
17B
  8
DETAIL
  6
CONTINUOUS
 62
     5
 10
19.99999999999989
 20
-10.99999999999998
 30
0.0
 11
18.199999999999921
 21
-10.99999999999998
 31
0.0
  0
ARC
  5
17C
  8
DETAIL
  6
CONTINUOUS
 62
     5
 10
18.32343499999989
 20
-13.50655099999992
 30
0.0
 40
3.0
 50
90.0
 51
111.99207899999971
  0
LINE
  5
17D
  8
DETAIL
  6
CONTINUOUS
 62
     5
 10
17.49999999999989
 20
-10.92098499999995
 30
0.0
 11
17.49999999999989
 21
-10.621771000000059
 31
0.0
  0
ARC
  5
17E
  8
DETAIL
  6
CONTINUOUS
 62
     5
 10
14.388146999999771
 20
10.703577000000021
 30
0.0
 40
1.0
 50
270.0
 51
289.94327400000572
  0
LINE
  5
17F
  8
DETAIL
  6
CONTINUOUS
 62
     5
 10
14.7292369999999
 20
9.7635470000000382
 30
0.0
 11
15.00849299999993
 21
9.8648740000001194
 31
0.0
  0
ARC
  5
180
  8
DETAIL
  6
CONTINUOUS
 62
     5
 10
15.349581999999939
 20
8.9248439999999132
 30
0.0
 40
1.0
 50
90.0
 51
109.9432750000088
  0
LINE
  5
181
  8
DETAIL
  6
CONTINUOUS
 62
     5
 10
15.349581999999939
 20
9.9248439999999167
 30
0.0
 11
16.273389999999939
 21
9.9248439999999167
 31
0.0
  0
ARC
  5
182
  8
DETAIL
  6
CONTINUOUS
 62
     5
 10
16.273389999999939
 20
8.9248439999999132
 30
0.0
 40
1.0000000000000711
 50
67.33877200000704
 51
90.0
  0
LINE
  5
183
  8
DETAIL
  6
CONTINUOUS
 62
     5
 10
16.65867199999991
 20
9.8476430000000832
 30
0.0
 11
16.81881999999985
 21
9.7807780000000761
 31
0.0
  0
ARC
  5
184
  8
DETAIL
  6
CONTINUOUS
 62
     5
 10
17.204101999999811
 20
10.703577000000021
 30
0.0
 40
0.9999999999999039
 50
247.33877100000771
 51
270.0
  0
LINE
  5
185
  8
DETAIL
  6
CONTINUOUS
 62
     5
 10
17.204101999999811
 20
9.7035770000000152
 30
0.0
 11
19.08836899999994
 21
9.7035770000000152
 31
0.0
  0
LINE
  5
186
  8
DETAIL
  6
CONTINUOUS
 62
     5
 10
19.08836899999994
 20
9.7035770000000152
 30
0.0
 11
19.08836899999994
 21
10.506550000000081
 31
0.0
  0
LINE
  5
187
  8
DETAIL
  6
CONTINUOUS
 62
     5
 10
19.08836899999994
 20
10.506550000000081
 30
0.0
 11
17.20161399999995
 21
10.506550000000081
 31
0.0
  0
ARC
  5
188
  8
DETAIL
  6
CONTINUOUS
 62
     5
 10
17.20161399999995
 20
11.506550000000081
 30
0.0
 40
1.0000000000000391
 50
247.61303199999711
 51
270.0
  0
LINE
  5
189
  8
DETAIL
  6
CONTINUOUS
 62
     5
 10
16.820752999999851
 20
10.58191800000011
 30
0.0
 11
16.656738999999899
 21
10.649476000000069
 31
0.0
  0
ARC
  5
18A
  8
DETAIL
  6
CONTINUOUS
 62
     5
 10
16.275878000000031
 20
9.7248440000000969
 30
0.0
 40
0.9999999999999948
 50
67.613034000006337
 51
90.0
  0
LINE
  5
18B
  8
DETAIL
  6
CONTINUOUS
 62
     5
 10
16.275878000000031
 20
10.7248440000001
 30
0.0
 11
15.823765999999861
 21
10.7248440000001
 31
0.0
  0
LINE
  5
18C
  8
DETAIL
  6
CONTINUOUS
 62
     5
 10
15.823765999999861
 20
10.7248440000001
 30
0.0
 11
15.34735899999998
 21
10.7248440000001
 31
0.0
  0
ARC
  5
18D
  8
DETAIL
  6
CONTINUOUS
 62
     5
 10
15.34735899999998
 20
9.7248440000000969
 30
0.0
 40
1.0
 50
90.0
 51
109.6960449999938
  0
LINE
  5
18E
  8
DETAIL
  6
CONTINUOUS
 62
     5
 10
15.010328999999841
 20
10.66633700000013
 30
0.0
 11
14.72740099999999
 21
10.56505700000004
 31
0.0
  0
ARC
  5
18F
  8
DETAIL
  6
CONTINUOUS
 62
     5
 10
14.390370999999851
 20
11.506550000000081
 30
0.0
 40
1.0
 50
270.0
 51
289.69604300000577
  0
LINE
  5
190
  8
DETAIL
  6
CONTINUOUS
 62
     5
 10
14.390370999999851
 20
10.506550000000081
 30
0.0
 11
12.4747279999998
 21
10.506550000000081
 31
0.0
  0
LINE
  5
191
  8
DETAIL
  6
CONTINUOUS
 62
     5
 10
12.4747279999998
 20
10.506550000000081
 30
0.0
 11
12.4747279999998
 21
9.7035770000000152
 31
0.0
  0
LINE
  5
192
  8
DETAIL
  6
CONTINUOUS
 62
     5
 10
12.4747279999998
 20
9.7035770000000152
 30
0.0
 11
14.388146999999771
 21
9.7035770000000152
 31
0.0
  0
LINE
  5
193
  8
DETAIL
  6
CONTINUOUS
 62
     5
 10
17.199999999999928
 20
10.7248440000001
 30
0.0
 11
17.49999999999989
 21
10.920984000000111
 31
0.0
  0
LINE
  5
194
  8
DETAIL
  6
CONTINUOUS
 62
     5
 10
17.49999999999989
 20
10.920984000000111
 30
0.0
 11
17.49999999999989
 21
11.05011599999991
 31
0.0
  0
LINE
  5
195
  8
DETAIL
  6
CONTINUOUS
 62
     5
 10
17.49999999999989
 20
11.05011599999991
 30
0.0
 11
13.99999999999989
 21
11.05011599999991
 31
0.0
  0
LINE
  5
196
  8
DETAIL
  6
CONTINUOUS
 62
     5
 10
13.99999999999989
 20
11.05011599999991
 30
0.0
 11
13.99999999999989
 21
10.920984000000111
 31
0.0
  0
LINE
  5
197
  8
DETAIL
  6
CONTINUOUS
 62
     5
 10
13.99999999999989
 20
10.920984000000111
 30
0.0
 11
14.299999999999841
 21
10.7248440000001
 31
0.0
  0
ARC
  5
198
  8
DETAIL
  6
CONTINUOUS
 62
     5
 10
18.32343499999989
 20
13.506550000000081
 30
0.0
 40
3.0000000000000182
 50
248.00792100000029
 51
270.0
  0
LINE
  5
199
  8
DETAIL
  6
CONTINUOUS
 62
     5
 10
17.49999999999989
 20
10.920984000000111
 30
0.0
 11
17.49999999999989
 21
10.6217710000001
 31
0.0
  0
ARC
  5
19A
  8
DETAIL
  6
CONTINUOUS
 62
     5
 10
20.199999999999921
 20
8.5000000000000213
 30
0.0
 40
1.0
 50
359.99999799999722
 51
90.0
  0
LINE
  5
19B
  8
DETAIL
  6
CONTINUOUS
 62
     5
 10
21.199999999999928
 20
8.5000000000000213
 30
0.0
 11
21.199999999999928
 21
0.0000000000000213
 31
0.0
  0
LINE
  5
19C
  8
DETAIL
  6
CONTINUOUS
 62
     5
 10
21.199999999999928
 20
0.0000000000000213
 30
0.0
 11
21.199999999999928
 21
-8.4999999999999751
 31
0.0
  0
ARC
  5
19D
  8
DETAIL
  6
CONTINUOUS
 62
     5
 10
20.199999999999921
 20
-8.4999999999999751
 30
0.0
 40
1.0
 50
270.0
 51
359.99999799999722
  0
LINE
  5
19E
  8
DETAIL
  6
CONTINUOUS
 62
     5
 10
20.199999999999921
 20
-9.4999999999999751
 30
0.0
 11
9.8999999999999755
 21
-9.4999999999999751
 31
0.0
  0
LINE
  5
19F
  8
DETAIL
  6
CONTINUOUS
 62
     5
 10
9.8999999999999755
 20
9.5000000000000195
 30
0.0
 11
20.199999999999921
 21
9.5000000000000195
 31
0.0
  0
ARC
  5
1A0
  8
DETAIL
  6
CONTINUOUS
 62
     5
 10
19.99999999999989
 20
9.5000000000000195
 30
0.0
 40
1.5000000000000011
 50
359.9999980000012
 51
90.0
  0
LINE
  5
1A1
  8
DETAIL
  6
CONTINUOUS
 62
     5
 10
19.99999999999989
 20
11.00000000000002
 30
0.0
 11
18.199999999999921
 21
11.00000000000002
 31
0.0
  0
ARC
  5
1A2
  8
DETAIL
  6
CONTINUOUS
 62
     5
 10
18.199999999999921
 20
10.50000000000002
 30
0.0
 40
0.5
 50
90.0
 51
171.83951300000109
  0
LINE
  5
1A3
  8
DETAIL
  6
CONTINUOUS
 62
     5
 10
21.49999999999989
 20
7.6203279999999927
 30
0.0
 11
21.49999999999989
 21
9.5000000000000195
 31
0.0
  0
LINE
  5
1A4
  8
DETAIL
  6
CONTINUOUS
 62
     5
 10
21.549999999999841
 20
8.2000000000000668
 30
0.0
 11
21.49999999999989
 21
8.2000000000000668
 31
0.0
  0
LINE
  5
1A5
  8
DETAIL
  6
CONTINUOUS
 62
     5
 10
21.49999999999989
 20
5.299999999999975
 30
0.0
 11
21.549999999999841
 21
5.299999999999975
 31
0.0
  0
LINE
  5
1A6
  8
DETAIL
  6
CONTINUOUS
 62
     5
 10
21.549999999999841
 20
-5.2999999999999332
 30
0.0
 11
21.49999999999989
 21
-5.2999999999999332
 31
0.0
  0
LINE
  5
1A7
  8
DETAIL
  6
CONTINUOUS
 62
     5
 10
21.49999999999989
 20
-8.2000000000000242
 30
0.0
 11
21.549999999999841
 21
-8.2000000000000242
 31
0.0
  0
ARC
  5
1A8
  8
DETAIL
  6
CONTINUOUS
 62
     5
 10
-8.8999999999999773
 20
-10.200000000000021
 30
0.0
 40
1.200000000000045
 50
180.0
 51
270.0
  0
LINE
  5
1A9
  8
DETAIL
  6
CONTINUOUS
 62
     5
 10
-10.100000000000019
 20
-9.7035780000000837
 30
0.0
 11
-10.100000000000019
 21
-10.200000000000021
 31
0.0
  0
LINE
  5
1AA
  8
DETAIL
  6
CONTINUOUS
 62
     5
 10
-10.100000000000019
 20
-9.7035780000000837
 30
0.0
 11
-9.8999999999999755
 21
-9.4999999999999751
 31
0.0
  0
LINE
  5
1AB
  8
DETAIL
  6
CONTINUOUS
 62
     5
 10
-21.899999999999981
 20
-8.0999999999998842
 30
0.0
 11
-21.899999999999981
 21
-5.4000000000000687
 31
0.0
  0
LINE
  5
1AC
  8
DETAIL
  6
CONTINUOUS
 62
     5
 10
-18.450000000000159
 20
-4.5499999999999332
 30
0.0
 11
-15.450000000000159
 21
-4.5499999999999332
 31
0.0
  0
LINE
  5
1AD
  8
DETAIL
  6
CONTINUOUS
 62
     5
 10
-15.450000000000159
 20
-4.5499999999999332
 30
0.0
 11
-15.450000000000159
 21
4.549999999999975
 31
0.0
  0
LINE
  5
1AE
  8
DETAIL
  6
CONTINUOUS
 62
     5
 10
-15.450000000000159
 20
4.549999999999975
 30
0.0
 11
-18.450000000000159
 21
4.549999999999975
 31
0.0
  0
LINE
  5
1AF
  8
DETAIL
  6
CONTINUOUS
 62
     5
 10
-18.450000000000159
 20
4.549999999999975
 30
0.0
 11
-18.450000000000159
 21
-4.5499999999999332
 31
0.0
  0
LINE
  5
1B0
  8
DETAIL
  6
CONTINUOUS
 62
     5
 10
-18.200000000000159
 20
-4.0499999999999332
 30
0.0
 11
-15.700000000000159
 21
-4.0499999999999332
 31
0.0
  0
LINE
  5
1B1
  8
DETAIL
  6
CONTINUOUS
 62
     5
 10
-15.700000000000159
 20
-4.0499999999999332
 30
0.0
 11
-15.700000000000159
 21
4.049999999999975
 31
0.0
  0
LINE
  5
1B2
  8
DETAIL
  6
CONTINUOUS
 62
     5
 10
-15.700000000000159
 20
4.049999999999975
 30
0.0
 11
-18.200000000000159
 21
4.049999999999975
 31
0.0
  0
LINE
  5
1B3
  8
DETAIL
  6
CONTINUOUS
 62
     5
 10
-18.200000000000159
 20
4.049999999999975
 30
0.0
 11
-18.200000000000159
 21
-4.0499999999999332
 31
0.0
  0
ARC
  5
1B4
  8
DETAIL
  6
CONTINUOUS
 62
     5
 10
-17.700000000000159
 20
1.400000000000112
 30
0.0
 40
0.5
 50
90.0
 51
180.0
  0
LINE
  5
1B5
  8
DETAIL
  6
CONTINUOUS
 62
     5
 10
-17.700000000000159
 20
1.9000000000001109
 30
0.0
 11
-15.700000000000159
 21
1.9000000000001109
 31
0.0
  0
LINE
  5
1B6
  8
DETAIL
  6
CONTINUOUS
 62
     5
 10
-15.700000000000159
 20
-1.900000000000069
 30
0.0
 11
-17.700000000000159
 21
-1.900000000000069
 31
0.0
  0
ARC
  5
1B7
  8
DETAIL
  6
CONTINUOUS
 62
     5
 10
-17.700000000000159
 20
-1.4000000000000701
 30
0.0
 40
0.5
 50
180.0
 51
270.0
  0
LINE
  5
1B8
  8
DETAIL
  6
CONTINUOUS
 62
     5
 10
-18.200000000000159
 20
-1.4000000000000701
 30
0.0
 11
-18.200000000000159
 21
1.400000000000112
 31
0.0
  0
ARC
  5
1B9
  8
DETAIL
  6
CONTINUOUS
 62
     5
 10
-17.700000000000159
 20
3.00000000000002
 30
0.0
 40
0.5
 50
90.0
 51
180.0
  0
LINE
  5
1BA
  8
DETAIL
  6
CONTINUOUS
 62
     5
 10
-17.700000000000159
 20
3.50000000000002
 30
0.0
 11
-15.700000000000159
 21
3.50000000000002
 31
0.0
  0
LINE
  5
1BB
  8
DETAIL
  6
CONTINUOUS
 62
     5
 10
-15.700000000000159
 20
-3.4999999999999791
 30
0.0
 11
-17.700000000000159
 21
-3.4999999999999791
 31
0.0
  0
ARC
  5
1BC
  8
DETAIL
  6
CONTINUOUS
 62
     5
 10
-17.700000000000159
 20
-2.9999999999999791
 30
0.0
 40
0.5
 50
180.0
 51
270.0
  0
LINE
  5
1BD
  8
DETAIL
  6
CONTINUOUS
 62
     5
 10
-18.200000000000159
 20
-2.9999999999999791
 30
0.0
 11
-18.200000000000159
 21
3.00000000000002
 31
0.0
  0
CIRCLE
  5
1BE
  8
DETAIL
  6
CONTINUOUS
 62
     5
 10
-13.00000000000011
 20
4.7500000000000204
 30
0.0
 40
1.2000000000000031
  0
CIRCLE
  5
1BF
  8
DETAIL
  6
CONTINUOUS
 62
     5
 10
-13.00000000000011
 20
4.7500000000000204
 30
0.0
 40
1.8999999999999979
  0
CIRCLE
  5
1C0
  8
DETAIL
  6
CONTINUOUS
 62
     5
 10
-13.00000000000011
 20
4.7500000000000204
 30
0.0
 40
1.2000000000000031
  0
CIRCLE
  5
1C1
  8
DETAIL
  6
CONTINUOUS
 62
     5
 10
-13.00000000000011
 20
4.7500000000000204
 30
0.0
 40
1.8999999999999979
  0
CIRCLE
  5
1C2
  8
DETAIL
  6
CONTINUOUS
 62
     5
 10
-13.00000000000011
 20
4.7500000000000204
 30
0.0
 40
1.799999999999996
  0
LINE
  5
1C3
  8
DETAIL
  6
CONTINUOUS
 62
     5
 10
-15.700000000000159
 20
4.049999999999975
 30
0.0
 11
-15.450000000000159
 21
4.549999999999975
 31
0.0
  0
LINE
  5
1C4
  8
DETAIL
  6
CONTINUOUS
 62
     5
 10
-18.200000000000159
 20
4.049999999999975
 30
0.0
 11
-18.450000000000159
 21
4.549999999999975
 31
0.0
  0
LINE
  5
1C5
  8
DETAIL
  6
CONTINUOUS
 62
     5
 10
-15.450000000000159
 20
-4.5499999999999332
 30
0.0
 11
-15.700000000000159
 21
-4.0499999999999332
 31
0.0
  0
LINE
  5
1C6
  8
DETAIL
  6
CONTINUOUS
 62
     5
 10
-18.450000000000159
 20
-4.5499999999999332
 30
0.0
 11
-18.200000000000159
 21
-4.0499999999999332
 31
0.0
  0
ARC
  5
1C7
  8
DETAIL
  6
CONTINUOUS
 62
     5
 10
-14.388147
 20
-10.703578000000091
 30
0.0
 40
1.0
 50
90.0
 51
109.9432750000088
  0
LINE
  5
1C8
  8
DETAIL
  6
CONTINUOUS
 62
     5
 10
-14.72923700000012
 20
-9.7635469999999973
 30
0.0
 11
-15.00849200000005
 21
-9.8648749999999623
 31
0.0
  0
ARC
  5
1C9
  8
DETAIL
  6
CONTINUOUS
 62
     5
 10
-15.34958200000017
 20
-8.9248439999998723
 30
0.0
 40
1.0
 50
270.0
 51
289.94327399999338
  0
LINE
  5
1CA
  8
DETAIL
  6
CONTINUOUS
 62
     5
 10
-15.34958200000017
 20
-9.9248439999998723
 30
0.0
 11
-16.27339000000018
 21
-9.9248439999998723
 31
0.0
  0
ARC
  5
1CB
  8
DETAIL
  6
CONTINUOUS
 62
     5
 10
-16.27339000000018
 20
-8.9248439999998723
 30
0.0
 40
0.9999999999999039
 50
247.33877100000771
 51
270.0
  0
LINE
  5
1CC
  8
DETAIL
  6
CONTINUOUS
 62
     5
 10
-16.658672000000141
 20
-9.8476430000000406
 30
0.0
 11
-16.81882000000007
 21
-9.7807789999999173
 31
0.0
  0
ARC
  5
1CD
  8
DETAIL
  6
CONTINUOUS
 62
     5
 10
-17.204102000000031
 20
-10.703578000000091
 30
0.0
 40
1.0000000000000711
 50
67.33877200000704
 51
90.0
  0
LINE
  5
1CE
  8
DETAIL
  6
CONTINUOUS
 62
     5
 10
-17.204102000000031
 20
-9.7035780000000837
 30
0.0
 11
-19.08836899999994
 21
-9.7035780000000837
 31
0.0
  0
LINE
  5
1CF
  8
DETAIL
  6
CONTINUOUS
 62
     5
 10
-19.08836899999994
 20
-9.7035780000000837
 30
0.0
 11
-19.08836899999994
 21
-10.50655099999992
 31
0.0
  0
LINE
  5
1D0
  8
DETAIL
  6
CONTINUOUS
 62
     5
 10
-19.08836899999994
 20
-10.50655099999992
 30
0.0
 11
-17.201613000000069
 21
-10.50655099999992
 31
0.0
  0
ARC
  5
1D1
  8
DETAIL
  6
CONTINUOUS
 62
     5
 10
-17.201613000000069
 20
-11.50655099999992
 30
0.0
 40
0.9999999999999948
 50
67.613034000006337
 51
90.0
  0
LINE
  5
1D2
  8
DETAIL
  6
CONTINUOUS
 62
     5
 10
-16.820753000000082
 20
-10.581918000000069
 30
0.0
 11
-16.656738000000011
 21
-10.64947699999991
 31
0.0
  0
ARC
  5
1D3
  8
DETAIL
  6
CONTINUOUS
 62
     5
 10
-16.275878000000262
 20
-9.7248440000000542
 30
0.0
 40
0.999999999999952
 50
247.61303200000941
 51
270.0
  0
LINE
  5
1D4
  8
DETAIL
  6
CONTINUOUS
 62
     5
 10
-16.275878000000262
 20
-10.724844000000051
 30
0.0
 11
-15.82376499999998
 21
-10.724844000000051
 31
0.0
  0
LINE
  5
1D5
  8
DETAIL
  6
CONTINUOUS
 62
     5
 10
-15.82376499999998
 20
-10.724844000000051
 30
0.0
 11
-15.34735900000021
 21
-10.724844000000051
 31
0.0
  0
ARC
  5
1D6
  8
DETAIL
  6
CONTINUOUS
 62
     5
 10
-15.34735900000021
 20
-9.7248440000000542
 30
0.0
 40
1.0
 50
270.0
 51
289.69604300000577
  0
LINE
  5
1D7
  8
DETAIL
  6
CONTINUOUS
 62
     5
 10
-15.01032800000019
 20
-10.666337999999961
 30
0.0
 11
-14.72740099999999
 21
-10.565056999999999
 31
0.0
  0
ARC
  5
1D8
  8
DETAIL
  6
CONTINUOUS
 62
     5
 10
-14.390371000000069
 20
-11.50655099999992
 30
0.0
 40
1.0
 50
90.0
 51
109.6960449999938
  0
LINE
  5
1D9
  8
DETAIL
  6
CONTINUOUS
 62
     5
 10
-17.200000000000159
 20
-10.724844000000051
 30
0.0
 11
-17.50000000000011
 21
-10.92098499999995
 31
0.0
  0
LINE
  5
1DA
  8
DETAIL
  6
CONTINUOUS
 62
     5
 10
-17.50000000000011
 20
-10.92098499999995
 30
0.0
 11
-17.50000000000011
 21
-11.050115999999861
 31
0.0
  0
LINE
  5
1DB
  8
DETAIL
  6
CONTINUOUS
 62
     5
 10
-16.902954000000019
 20
-9.7499999999999751
 30
0.0
 11
-14.689295000000021
 21
-9.7499999999999751
 31
0.0
  0
ARC
  5
1DC
  8
DETAIL
  6
CONTINUOUS
 62
     5
 10
-18.200000000000159
 20
-10.49999999999998
 30
0.0
 40
0.5
 50
270.0
 51
351.83951199999382
  0
LINE
  5
1DD
  8
DETAIL
  6
CONTINUOUS
 62
     5
 10
-21.50000000000011
 20
-7.6203290000000621
 30
0.0
 11
-21.50000000000011
 21
-9.4999999999999751
 31
0.0
  0
ARC
  5
1DE
  8
DETAIL
  6
CONTINUOUS
 62
     5
 10
-20.00000000000011
 20
-9.4999999999999751
 30
0.0
 40
1.5
 50
180.0
 51
270.0
  0
LINE
  5
1DF
  8
DETAIL
  6
CONTINUOUS
 62
     5
 10
-20.00000000000011
 20
-10.99999999999998
 30
0.0
 11
-18.200000000000159
 21
-10.99999999999998
 31
0.0
  0
ARC
  5
1E0
  8
DETAIL
  6
CONTINUOUS
 62
     5
 10
-18.323435000000121
 20
-13.50655099999992
 30
0.0
 40
3.0000000000000759
 50
68.007923000000972
 51
90.0
  0
LINE
  5
1E1
  8
DETAIL
  6
CONTINUOUS
 62
     5
 10
-17.50000000000011
 20
-10.92098499999995
 30
0.0
 11
-17.50000000000011
 21
-10.621771000000059
 31
0.0
  0
ARC
  5
1E2
  8
DETAIL
  6
CONTINUOUS
 62
     5
 10
-8.8999999999999773
 20
10.20000000000007
 30
0.0
 40
1.200000000000045
 50
90.0
 51
180.0
  0
LINE
  5
1E3
  8
DETAIL
  6
CONTINUOUS
 62
     5
 10
-12.47472800000002
 20
9.7035770000000152
 30
0.0
 11
-10.100000000000019
 21
9.7035770000000152
 31
0.0
  0
LINE
  5
1E4
  8
DETAIL
  6
CONTINUOUS
 62
     5
 10
-10.100000000000019
 20
9.7035770000000152
 30
0.0
 11
-10.100000000000019
 21
10.20000000000007
 31
0.0
  0
LINE
  5
1E5
  8
DETAIL
  6
CONTINUOUS
 62
     5
 10
-10.100000000000019
 20
9.7035770000000152
 30
0.0
 11
-9.8999999999999755
 21
9.5000000000000195
 31
0.0
  0
ARC
  5
1E6
  8
DETAIL
  6
CONTINUOUS
 62
     5
 10
-14.388147
 20
10.703577000000021
 30
0.0
 40
0.999999999999963
 50
250.05672499999119
 51
270.0
  0
LINE
  5
1E7
  8
DETAIL
  6
CONTINUOUS
 62
     5
 10
-14.72923700000012
 20
9.7635470000000382
 30
0.0
 11
-15.00849200000005
 21
9.8648740000001194
 31
0.0
  0
ARC
  5
1E8
  8
DETAIL
  6
CONTINUOUS
 62
     5
 10
-15.34958200000017
 20
8.9248439999999132
 30
0.0
 40
1.0000000000000711
 50
70.05672600000662
 51
90.0
  0
LINE
  5
1E9
  8
DETAIL
  6
CONTINUOUS
 62
     5
 10
-15.34958200000017
 20
9.9248439999999167
 30
0.0
 11
-16.27339000000018
 21
9.9248439999999167
 31
0.0
  0
ARC
  5
1EA
  8
DETAIL
  6
CONTINUOUS
 62
     5
 10
-16.27339000000018
 20
8.9248439999999132
 30
0.0
 40
1.0
 50
90.0
 51
112.6612289999922
  0
LINE
  5
1EB
  8
DETAIL
  6
CONTINUOUS
 62
     5
 10
-16.658672000000141
 20
9.8476430000000832
 30
0.0
 11
-16.81882000000007
 21
9.7807780000000761
 31
0.0
  0
ARC
  5
1EC
  8
DETAIL
  6
CONTINUOUS
 62
     5
 10
-17.204102000000031
 20
10.703577000000021
 30
0.0
 40
1.0
 50
270.0
 51
292.66122799999289
  0
LINE
  5
1ED
  8
DETAIL
  6
CONTINUOUS
 62
     5
 10
-17.204102000000031
 20
9.7035770000000152
 30
0.0
 11
-19.08836899999994
 21
9.7035770000000152
 31
0.0
  0
LINE
  5
1EE
  8
DETAIL
  6
CONTINUOUS
 62
     5
 10
-19.08836899999994
 20
9.7035770000000152
 30
0.0
 11
-19.08836899999994
 21
10.506550000000081
 31
0.0
  0
LINE
  5
1EF
  8
DETAIL
  6
CONTINUOUS
 62
     5
 10
-19.08836899999994
 20
10.506550000000081
 30
0.0
 11
-17.201613000000069
 21
10.506550000000081
 31
0.0
  0
ARC
  5
1F0
  8
DETAIL
  6
CONTINUOUS
 62
     5
 10
-17.201613000000069
 20
11.506550000000081
 30
0.0
 40
1.0
 50
270.0
 51
292.38696599999361
  0
LINE
  5
1F1
  8
DETAIL
  6
CONTINUOUS
 62
     5
 10
-16.820753000000082
 20
10.58191800000011
 30
0.0
 11
-16.656738000000011
 21
10.649476000000069
 31
0.0
  0
ARC
  5
1F2
  8
DETAIL
  6
CONTINUOUS
 62
     5
 10
-16.275878000000262
 20
9.7248440000000969
 30
0.0
 40
1.0
 50
90.0
 51
112.3869679999906
  0
LINE
  5
1F3
  8
DETAIL
  6
CONTINUOUS
 62
     5
 10
-16.275878000000262
 20
10.7248440000001
 30
0.0
 11
-15.82376499999998
 21
10.7248440000001
 31
0.0
  0
LINE
  5
1F4
  8
DETAIL
  6
CONTINUOUS
 62
     5
 10
-15.82376499999998
 20
10.7248440000001
 30
0.0
 11
-15.34735900000021
 21
10.7248440000001
 31
0.0
  0
ARC
  5
1F5
  8
DETAIL
  6
CONTINUOUS
 62
     5
 10
-15.34735900000021
 20
9.7248440000000969
 30
0.0
 40
1.000000000000081
 50
70.303956999994142
 51
90.0
  0
LINE
  5
1F6
  8
DETAIL
  6
CONTINUOUS
 62
     5
 10
-15.01032800000019
 20
10.66633700000013
 30
0.0
 11
-14.72740099999999
 21
10.56505700000004
 31
0.0
  0
ARC
  5
1F7
  8
DETAIL
  6
CONTINUOUS
 62
     5
 10
-14.390371000000069
 20
11.506550000000081
 30
0.0
 40
1.0000000000000471
 50
250.30395500000611
 51
270.0
  0
LINE
  5
1F8
  8
DETAIL
  6
CONTINUOUS
 62
     5
 10
-14.390371000000069
 20
10.506550000000081
 30
0.0
 11
-12.47472800000002
 21
10.506550000000081
 31
0.0
  0
LINE
  5
1F9
  8
DETAIL
  6
CONTINUOUS
 62
     5
 10
-12.47472800000002
 20
10.506550000000081
 30
0.0
 11
-12.47472800000002
 21
9.7035770000000152
 31
0.0
  0
LINE
  5
1FA
  8
DETAIL
  6
CONTINUOUS
 62
     5
 10
-12.47472800000002
 20
9.7035770000000152
 30
0.0
 11
-14.388147
 21
9.7035770000000152
 31
0.0
  0
LINE
  5
1FB
  8
DETAIL
  6
CONTINUOUS
 62
     5
 10
-17.200000000000159
 20
10.7248440000001
 30
0.0
 11
-17.50000000000011
 21
10.920984000000111
 31
0.0
  0
LINE
  5
1FC
  8
DETAIL
  6
CONTINUOUS
 62
     5
 10
-17.50000000000011
 20
10.920984000000111
 30
0.0
 11
-17.50000000000011
 21
11.05011599999991
 31
0.0
  0
LINE
  5
1FD
  8
DETAIL
  6
CONTINUOUS
 62
     5
 10
-17.50000000000011
 20
11.05011599999991
 30
0.0
 11
-14.00000000000011
 21
11.05011599999991
 31
0.0
  0
LINE
  5
1FE
  8
DETAIL
  6
CONTINUOUS
 62
     5
 10
-14.00000000000011
 20
11.05011599999991
 30
0.0
 11
-14.00000000000011
 21
10.920984000000111
 31
0.0
  0
LINE
  5
1FF
  8
DETAIL
  6
CONTINUOUS
 62
     5
 10
-14.00000000000011
 20
10.920984000000111
 30
0.0
 11
-14.30000000000007
 21
10.7248440000001
 31
0.0
  0
LINE
  5
200
  8
DETAIL
  6
CONTINUOUS
 62
     5
 10
-16.902954000000019
 20
9.7500000000000195
 30
0.0
 11
-14.689295000000021
 21
9.7500000000000195
 31
0.0
  0
ARC
  5
201
  8
DETAIL
  6
CONTINUOUS
 62
     5
 10
-13.1765650000001
 20
13.506550000000081
 30
0.0
 40
3.0000000000000182
 50
248.00792100000029
 51
270.0
  0
LINE
  5
202
  8
DETAIL
  6
CONTINUOUS
 62
     5
 10
-14.00000000000011
 20
10.920984000000111
 30
0.0
 11
-14.00000000000011
 21
10.7248440000001
 31
0.0
  0
LINE
  5
203
  8
DETAIL
  6
CONTINUOUS
 62
     5
 10
-14.00000000000011
 20
10.7248440000001
 30
0.0
 11
-14.00000000000011
 21
10.6217710000001
 31
0.0
  0
ARC
  5
204
  8
DETAIL
  6
CONTINUOUS
 62
     5
 10
-18.323435000000121
 20
13.506550000000081
 30
0.0
 40
3.0
 50
270.0
 51
291.99207699999891
  0
LINE
  5
205
  8
DETAIL
  6
CONTINUOUS
 62
     5
 10
-17.50000000000011
 20
10.920984000000111
 30
0.0
 11
-17.50000000000011
 21
10.6217710000001
 31
0.0
  0
LINE
  5
206
  8
DETAIL
  6
CONTINUOUS
 62
     5
 10
13.299999999999841
 20
11.40000000000011
 30
0.0
 11
-13.30000000000007
 21
11.40000000000011
 31
0.0
  0
ARC
  5
207
  8
DETAIL
  6
CONTINUOUS
 62
     5
 10
-13.291776000000141
 20
10.679992000000111
 30
0.0
 40
0.720055000000023
 50
90.654431000004905
 51
169.59935000000391
  0
ARC
  5
208
  8
DETAIL
  6
CONTINUOUS
 62
     5
 10
-20.200000000000159
 20
8.5000000000000213
 30
0.0
 40
1.0
 50
90.0
 51
180.0
  0
LINE
  5
209
  8
DETAIL
  6
CONTINUOUS
 62
     5
 10
-21.200000000000159
 20
8.5000000000000213
 30
0.0
 11
-21.200000000000159
 21
0.0000000000000213
 31
0.0
  0
LINE
  5
20A
  8
DETAIL
  6
CONTINUOUS
 62
     5
 10
-21.200000000000159
 20
0.0000000000000213
 30
0.0
 11
-21.200000000000159
 21
-8.4999999999999751
 31
0.0
  0
ARC
  5
20B
  8
DETAIL
  6
CONTINUOUS
 62
     5
 10
-20.200000000000159
 20
-8.4999999999999751
 30
0.0
 40
1.0
 50
180.0
 51
270.0
  0
LINE
  5
20C
  8
DETAIL
  6
CONTINUOUS
 62
     5
 10
-9.8999999999999755
 20
9.5000000000000195
 30
0.0
 11
-20.200000000000159
 21
9.5000000000000195
 31
0.0
  0
ARC
  5
20D
  8
DETAIL
  6
CONTINUOUS
 62
     5
 10
-20.200000000000159
 20
-8.426619000000052
 30
0.0
 40
1.299999999999726
 50
180.0
 51
270.0
  0
LINE
  5
20E
  8
DETAIL
  6
CONTINUOUS
 62
     5
 10
-21.50000000000011
 20
-8.426619000000052
 30
0.0
 11
-21.50000000000011
 21
-7.9630850000000697
 31
0.0
  0
LINE
  5
20F
  8
DETAIL
  6
CONTINUOUS
 62
     5
 10
-21.50000000000011
 20
-7.9630850000000697
 30
0.0
 11
-21.50000000000011
 21
8.4266179999999817
 31
0.0
  0
ARC
  5
210
  8
DETAIL
  6
CONTINUOUS
 62
     5
 10
-20.200000000000159
 20
8.4266179999999817
 30
0.0
 40
1.299999999999955
 50
90.0
 51
180.0
  0
LINE
  5
211
  8
DETAIL
  6
CONTINUOUS
 62
     5
 10
-20.200000000000159
 20
9.726617999999938
 30
0.0
 11
-19.08836899999994
 21
9.726617999999938
 31
0.0
  0
LINE
  5
212
  8
DETAIL
  6
CONTINUOUS
 62
     5
 10
-19.08836899999994
 20
-9.7266190000000066
 30
0.0
 11
-20.200000000000159
 21
-9.7266190000000066
 31
0.0
  0
LINE
  5
213
  8
DETAIL
  6
CONTINUOUS
 62
     5
 10
-21.60000000000025
 20
-5.2999999999999332
 30
0.0
 11
-21.50000000000011
 21
-5.2999999999999332
 31
0.0
  0
LINE
  5
214
  8
DETAIL
  6
CONTINUOUS
 62
     5
 10
-21.50000000000011
 20
5.299999999999975
 30
0.0
 11
-21.60000000000025
 21
5.299999999999975
 31
0.0
  0
LINE
  5
215
  8
DETAIL
  6
CONTINUOUS
 62
     5
 10
-21.60000000000025
 20
8.2000000000000668
 30
0.0
 11
-21.50000000000011
 21
8.2000000000000668
 31
0.0
  0
LINE
  5
216
  8
DETAIL
  6
CONTINUOUS
 62
     5
 10
-21.50000000000011
 20
-8.2000000000000242
 30
0.0
 11
-21.60000000000025
 21
-8.2000000000000242
 31
0.0
  0
ARC
  5
217
  8
DETAIL
  6
CONTINUOUS
 62
     5
 10
-18.200000000000159
 20
10.50000000000002
 30
0.0
 40
0.5000000000001811
 50
8.1604880000062163
 51
90.0
  0
LINE
  5
218
  8
DETAIL
  6
CONTINUOUS
 62
     5
 10
-21.50000000000011
 20
7.6203279999999927
 30
0.0
 11
-21.50000000000011
 21
9.5000000000000195
 31
0.0
  0
ARC
  5
219
  8
DETAIL
  6
CONTINUOUS
 62
     5
 10
-20.00000000000011
 20
9.5000000000000195
 30
0.0
 40
1.5
 50
90.0
 51
180.0
  0
LINE
  5
21A
  8
DETAIL
  6
CONTINUOUS
 62
     5
 10
-20.00000000000011
 20
11.00000000000002
 30
0.0
 11
-18.200000000000159
 21
11.00000000000002
 31
0.0
  0
LINE
  5
21B
  8
DETAIL
  6
CONTINUOUS
 62
     5
 10
-21.899999999999981
 20
5.4000000000001123
 30
0.0
 11
-21.899999999999981
 21
8.0999999999999304
 31
0.0
  0
LINE
  5
21C
  8
DETAIL
  6
CONTINUOUS
 62
     5
 10
8.8999999999999773
 20
11.20000000000007
 30
0.0
 11
-8.8999999999999773
 21
11.20000000000007
 31
0.0
  0
ARC
  5
21D
  8
DETAIL
  6
CONTINUOUS
 62
     5
 10
-8.8999999999999773
 20
10.20000000000007
 30
0.0
 40
1.0
 50
90.0
 51
180.0
  0
LINE
  5
21E
  8
DETAIL
  6
CONTINUOUS
 62
     5
 10
-9.8999999999999755
 20
10.20000000000007
 30
0.0
 11
-9.8999999999999755
 21
-10.200000000000021
 31
0.0
  0
ARC
  5
21F
  8
DETAIL
  6
CONTINUOUS
 62
     5
 10
-8.8999999999999773
 20
-10.200000000000021
 30
0.0
 40
1.0
 50
180.0
 51
270.0
  0
LINE
  5
220
  8
DETAIL
  6
CONTINUOUS
 62
     5
 10
-8.8999999999999773
 20
-11.200000000000021
 30
0.0
 11
8.8999999999999773
 21
-11.200000000000021
 31
0.0
  0
ARC
  5
221
  8
DETAIL
  6
CONTINUOUS
 62
     5
 10
-21.60000000000025
 20
7.7000000000000659
 30
0.0
 40
0.5
 50
90.0
 51
134.4270040007911
  0
ARC
  5
222
  8
DETAIL
  6
CONTINUOUS
 62
     5
 10
-21.60000000000025
 20
5.799999999999975
 30
0.0
 40
0.5000000000000031
 50
225.5729959992089
 51
270.0
  0
ARC
  5
223
  8
DETAIL
  6
CONTINUOUS
 62
     5
 10
-21.60000000000025
 20
-5.7999999999999332
 30
0.0
 40
0.5
 50
90.0
 51
134.4270040007911
  0
ARC
  5
224
  8
DETAIL
  6
CONTINUOUS
 62
     5
 10
-21.60000000000025
 20
-7.7000000000000242
 30
0.0
 40
0.5000000000000031
 50
225.5729959992089
 51
270.0
  0
CIRCLE
  5
225
  8
DETAIL
  6
CONTINUOUS
 62
     5
 10
-13.00000000000011
 20
-4.7499999999999778
 30
0.0
 40
1.799999999999996
  0
CIRCLE
  5
226
  8
DETAIL
  6
CONTINUOUS
 62
     5
 10
-13.00000000000011
 20
-4.7499999999999778
 30
0.0
 40
1.8999999999999979
  0
LINE
  5
227
  8
DETAIL
  6
CONTINUOUS
 62
     5
 10
-20.200000000000159
 20
-9.4999999999999751
 30
0.0
 11
-11.80000000000018
 21
-9.4999999999999751
 31
0.0
  0
LINE
  5
228
  8
DETAIL
  6
CONTINUOUS
 62
     5
 10
-11.80000000000018
 20
-9.4999999999999751
 30
0.0
 11
-9.8999999999999755
 21
-9.4999999999999751
 31
0.0
  0
LINE
  5
229
  8
DETAIL
  6
CONTINUOUS
 62
     5
 10
-11.80000000000018
 20
-9.7035780000000837
 30
0.0
 11
-10.100000000000019
 21
-9.7035780000000837
 31
0.0
  0
LINE
  5
22A
  8
DETAIL
  6
CONTINUOUS
 62
     5
 10
-11.80000000000018
 20
-9.7035780000000837
 30
0.0
 11
-14.388147
 21
-9.7035780000000837
 31
0.0
  0
LINE
  5
22B
  8
DETAIL
  6
CONTINUOUS
 62
     5
 10
-14.390371000000069
 20
-10.50655099999992
 30
0.0
 11
-14.200000000000159
 21
-10.50655099999992
 31
0.0
  0
ARC
  5
22C
  8
DETAIL
  6
CONTINUOUS
 62
     5
 10
-13.1765650000001
 20
-13.50655099999992
 30
0.0
 40
2.99999999999998
 50
109.9466490107915
 51
111.99207899999971
  0
LINE
  5
22D
  8
DETAIL
  6
CONTINUOUS
 62
     5
 10
-14.200000000000159
 20
-10.790224333333279
 30
0.0
 11
-14.30000000000007
 21
-10.724844000000051
 31
0.0
  0
LINE
  5
22E
  8
DETAIL
  6
CONTINUOUS
 62
     5
 10
-17.50000000000011
 20
-11.050115999999861
 30
0.0
 11
-14.200000000000159
 21
-11.050115999999861
 31
0.0
  0
LINE
  5
22F
  8
DETAIL
  6
CONTINUOUS
 62
     5
 10
13.299999999999841
 20
-11.40000000000007
 30
0.0
 11
-13.299999595173061
 21
-11.40000000000019
 31
0.0
  0
ARC
  5
230
  8
DETAIL
  6
CONTINUOUS
 62
     5
 10
20.64999999999975
 20
10.50000000000002
 30
0.0
 40
0.5
 50
0.0
 51
90.0
  0
CIRCLE
  5
231
  8
DETAIL
  6
CONTINUOUS
 62
     5
 10
10.99999999999989
 20
-50.499999999999979
 30
0.0
 40
2.75
  0
CIRCLE
  5
232
  8
DETAIL
  6
CONTINUOUS
 62
     5
 10
10.99999999999989
 20
-50.499999999999979
 30
0.0
 40
1.75
  0
ARC
  5
233
  8
DETAIL
  6
CONTINUOUS
 62
     5
 10
20.64999999999975
 20
-42.999999999999979
 30
0.0
 40
2.0
 50
270.0
 51
0.0
  0
ARC
  5
234
  8
DETAIL
  6
CONTINUOUS
 62
     5
 10
20.64999999999975
 20
-48.499999999999972
 30
0.0
 40
2.0
 50
0.0
 51
90.0
  0
LINE
  5
235
  8
DETAIL
  6
CONTINUOUS
 62
     5
 10
20.64999999999975
 20
-46.499999999999972
 30
0.0
 11
17.64999999999975
 21
-46.499999999999972
 31
0.0
  0
LINE
  5
236
  8
DETAIL
  6
CONTINUOUS
 62
     5
 10
17.64999999999975
 20
-46.499999999999972
 30
0.0
 11
17.64999999999975
 21
-44.999999999999979
 31
0.0
  0
LINE
  5
237
  8
DETAIL
  6
CONTINUOUS
 62
     5
 10
17.64999999999975
 20
-44.999999999999979
 30
0.0
 11
20.64999999999975
 21
-44.999999999999979
 31
0.0
  0
LINE
  5
238
  8
DETAIL
  6
CONTINUOUS
 62
     5
 10
22.64999999999975
 20
4.299999999999975
 30
0.0
 11
22.64999999999975
 21
4.5999999999999286
 31
0.0
  0
LINE
  5
239
  8
DETAIL
  6
CONTINUOUS
 62
     5
 10
22.64999999999975
 20
4.2000000000000659
 30
0.0
 11
22.64999999999975
 21
4.5000000000000204
 31
0.0
  0
ARC
  5
23A
  8
DETAIL
  6
CONTINUOUS
 62
     5
 10
20.64999999999975
 20
43.000000000000021
 30
0.0
 40
2.0
 50
0.0
 51
90.0
  0
ARC
  5
23B
  8
DETAIL
  6
CONTINUOUS
 62
     5
 10
20.64999999999975
 20
48.500000000000021
 30
0.0
 40
2.0
 50
270.0
 51
0.0
  0
LINE
  5
23C
  8
DETAIL
  6
CONTINUOUS
 62
     5
 10
20.64999999999975
 20
46.500000000000021
 30
0.0
 11
17.64999999999975
 21
46.500000000000021
 31
0.0
  0
LINE
  5
23D
  8
DETAIL
  6
CONTINUOUS
 62
     5
 10
17.64999999999975
 20
46.500000000000021
 30
0.0
 11
17.64999999999975
 21
45.000000000000021
 31
0.0
  0
LINE
  5
23E
  8
DETAIL
  6
CONTINUOUS
 62
     5
 10
17.64999999999975
 20
45.000000000000021
 30
0.0
 11
20.64999999999975
 21
45.000000000000021
 31
0.0
  0
ARC
  5
23F
  8
DETAIL
  6
CONTINUOUS
 62
     5
 10
18.849999999999799
 20
11.20000000000007
 30
0.0
 40
0.200000000000046
 50
179.99999800001021
 51
270.0
  0
LINE
  5
240
  8
DETAIL
  6
CONTINUOUS
 62
     5
 10
18.849999999999799
 20
11.00000000000002
 30
0.0
 11
21.049999999999841
 21
11.00000000000002
 31
0.0
  0
ARC
  5
241
  8
DETAIL
  6
CONTINUOUS
 62
     5
 10
21.049999999999841
 20
10.50000000000002
 30
0.0
 40
0.5
 50
0.0
 51
90.0
  0
LINE
  5
242
  8
DETAIL
  6
CONTINUOUS
 62
     5
 10
21.549999999999841
 20
10.50000000000002
 30
0.0
 11
21.549999999999841
 21
-10.50000000000011
 31
0.0
  0
ARC
  5
243
  8
DETAIL
  6
CONTINUOUS
 62
     5
 10
21.049999999999841
 20
-10.50000000000011
 30
0.0
 40
0.5
 50
270.0
 51
0.0
  0
LINE
  5
244
  8
DETAIL
  6
CONTINUOUS
 62
     5
 10
21.049999999999841
 20
-11.00000000000011
 30
0.0
 11
18.849999999999799
 21
-11.00000000000011
 31
0.0
  0
ARC
  5
245
  8
DETAIL
  6
CONTINUOUS
 62
     5
 10
18.849999999999799
 20
-11.200000000000159
 30
0.0
 40
0.200000000000046
 50
90.0
 51
179.99999800001021
  0
LINE
  5
246
  8
DETAIL
  6
CONTINUOUS
 62
     5
 10
18.64999999999975
 20
-11.200000000000159
 30
0.0
 11
18.64999999999975
 21
-11.75000000000011
 31
0.0
  0
LINE
  5
247
  8
DETAIL
  6
CONTINUOUS
 62
     5
 10
18.64999999999975
 20
11.75000000000002
 30
0.0
 11
18.64999999999975
 21
11.20000000000007
 31
0.0
  0
ARC
  5
248
  8
DETAIL
  6
CONTINUOUS
 62
     5
 10
20.64999999999975
 20
-10.450000000000159
 30
0.0
 40
2.0
 50
270.0
 51
0.0
  0
ARC
  5
249
  8
DETAIL
  6
CONTINUOUS
 62
     5
 10
20.64999999999975
 20
-10.75000000000011
 30
0.0
 40
2.0
 50
270.0
 51
0.0
  0
LINE
  5
24A
  8
DETAIL
  6
CONTINUOUS
 62
     5
 10
22.64999999999975
 20
-33.499999999999979
 30
0.0
 11
22.64999999999975
 21
-27.200000000000021
 31
0.0
  0
ARC
  5
24B
  8
DETAIL
  6
CONTINUOUS
 62
     5
 10
20.64999999999975
 20
10.75000000000002
 30
0.0
 40
2.0
 50
0.0
 51
90.0
  0
ARC
  5
24C
  8
DETAIL
  6
CONTINUOUS
 62
     5
 10
20.64999999999975
 20
10.45000000000007
 30
0.0
 40
2.0
 50
0.0
 51
90.0
  0
ARC
  5
24D
  8
DETAIL
  6
CONTINUOUS
 62
     5
 10
20.64999999999975
 20
33.500000000000021
 30
0.0
 40
2.0
 50
0.0
 51
90.0
  0
LINE
  5
24E
  8
DETAIL
  6
CONTINUOUS
 62
     5
 10
22.64999999999975
 20
33.500000000000021
 30
0.0
 11
22.64999999999975
 21
27.20000000000007
 31
0.0
  0
ARC
  5
24F
  8
DETAIL
  6
CONTINUOUS
 62
     5
 10
20.64999999999975
 20
53.000000000000021
 30
0.0
 40
2.0
 50
0.0
 51
90.0
  0
LINE
  5
250
  8
DETAIL
  6
CONTINUOUS
 62
     5
 10
22.64999999999975
 20
53.000000000000021
 30
0.0
 11
22.64999999999975
 21
-52.999999999999979
 31
0.0
  0
ARC
  5
251
  8
DETAIL
  6
CONTINUOUS
 62
     5
 10
20.64999999999975
 20
-52.999999999999979
 30
0.0
 40
2.0
 50
270.0
 51
0.0
  0
ARC
  5
252
  8
DETAIL
  6
CONTINUOUS
 62
     5
 10
20.64999999999975
 20
-33.499999999999979
 30
0.0
 40
2.0
 50
270.0
 51
0.0
  0
LINE
  5
253
  8
DETAIL
  6
CONTINUOUS
 62
     5
 10
14.149999999999981
 20
11.75000000000002
 30
0.0
 11
14.149999999999981
 21
11.05011599999991
 31
0.0
  0
LINE
  5
254
  8
DETAIL
  6
CONTINUOUS
 62
     5
 10
21.14999999999975
 20
10.50000000000002
 30
0.0
 11
21.14999999999975
 21
10.463068014213061
 31
0.0
  0
LINE
  5
255
  8
NOTE
  6
CONTINUOUS
 62
     4
 10
8.9529187105346182
 20
41.750000000000007
 30
0.0
 11
-8.4182596566409984
 21
41.750000000000007
 31
0.0
  0
LINE
  5
256
  8
NOTE
  6
CONTINUOUS
 62
     4
 10
8.9529187105346182
 20
-41.749999999999979
 30
0.0
 11
-8.4182596566409984
 21
-41.749999999999979
 31
0.0
  0
ARC
  5
257
  8
DETAIL
  6
CONTINUOUS
 62
     5
 10
-18.85000000000025
 20
-11.75000000000011
 30
0.0
 40
0.5
 50
0.0
 51
90.0
  0
LINE
  5
258
  8
DETAIL
  6
CONTINUOUS
 62
     5
 10
-18.85000000000025
 20
-11.25000000000011
 30
0.0
 11
-21.200000000000159
 21
-11.25000000000011
 31
0.0
  0
ARC
  5
259
  8
DETAIL
  6
CONTINUOUS
 62
     5
 10
-21.200000000000159
 20
-10.50000000000011
 30
0.0
 40
0.75
 50
179.9999979999931
 51
270.0
  0
LINE
  5
25A
  8
DETAIL
  6
CONTINUOUS
 62
     5
 10
-21.950000000000159
 20
-10.50000000000011
 30
0.0
 11
-21.950000000000159
 21
10.50000000000002
 31
0.0
  0
ARC
  5
25B
  8
DETAIL
  6
CONTINUOUS
 62
     5
 10
-21.200000000000159
 20
10.50000000000002
 30
0.0
 40
0.75
 50
90.0
 51
179.99999800001021
  0
LINE
  5
25C
  8
DETAIL
  6
CONTINUOUS
 62
     5
 10
-21.200000000000159
 20
11.25000000000002
 30
0.0
 11
-18.85000000000025
 21
11.25000000000002
 31
0.0
  0
ARC
  5
25D
  8
DETAIL
  6
CONTINUOUS
 62
     5
 10
-18.85000000000025
 20
11.75000000000002
 30
0.0
 40
0.5
 50
270.0
 51
0.0
  0
LINE
  5
25E
  8
DETAIL
  6
CONTINUOUS
 62
     5
 10
-18.35000000000025
 20
11.75000000000002
 30
0.0
 11
-18.35000000000025
 21
11.95000000000007
 31
0.0
  0
ARC
  5
25F
  8
DETAIL
  6
CONTINUOUS
 62
     5
 10
-18.85000000000025
 20
11.95000000000007
 30
0.0
 40
0.5
 50
0.0
 51
90.0
  0
ARC
  5
260
  8
DETAIL
  6
CONTINUOUS
 62
     5
 10
-18.85000000000025
 20
-11.950000000000159
 30
0.0
 40
0.5
 50
270.0
 51
0.0
  0
LINE
  5
261
  8
DETAIL
  6
CONTINUOUS
 62
     5
 10
-18.35000000000025
 20
-11.950000000000159
 30
0.0
 11
-18.35000000000025
 21
-11.75000000000011
 31
0.0
  0
LINE
  5
262
  8
DETAIL
  6
CONTINUOUS
 62
     5
 10
-21.650000000000201
 20
-9.2555709999998967
 30
0.0
 11
-21.650000000000201
 21
-10.24999999999998
 31
0.0
  0
ARC
  5
263
  8
DETAIL
  6
CONTINUOUS
 62
     5
 10
-18.550000000000299
 20
-11.200000000000159
 30
0.0
 40
0.200000000000045
 50
0.0
 51
90.0
  0
LINE
  5
264
  8
DETAIL
  6
CONTINUOUS
 62
     5
 10
-18.550000000000299
 20
-11.00000000000011
 30
0.0
 11
-21.450000000000159
 21
-11.00000000000011
 31
0.0
  0
ARC
  5
265
  8
DETAIL
  6
CONTINUOUS
 62
     5
 10
-21.450000000000159
 20
-10.50000000000011
 30
0.0
 40
0.5
 50
179.99999800001021
 51
270.0
  0
LINE
  5
266
  8
DETAIL
  6
CONTINUOUS
 62
     5
 10
-18.35000000000025
 20
-11.75000000000011
 30
0.0
 11
-18.35000000000025
 21
-11.200000000000159
 31
0.0
  0
ARC
  5
267
  8
DETAIL
  6
CONTINUOUS
 62
     5
 10
-20.35000000000025
 20
-11.75000000000011
 30
0.0
 40
0.5
 50
0.0
 51
90.0
  0
ARC
  5
268
  8
DETAIL
  6
CONTINUOUS
 62
     5
 10
-20.35000000000025
 20
-11.950000000000159
 30
0.0
 40
0.5
 50
270.0
 51
0.0
  0
LINE
  5
269
  8
DETAIL
  6
CONTINUOUS
 62
     5
 10
-19.85000000000025
 20
-11.950000000000159
 30
0.0
 11
-19.85000000000025
 21
-11.75000000000011
 31
0.0
  0
ARC
  5
26A
  8
DETAIL
  6
CONTINUOUS
 62
     5
 10
-21.050000000000299
 20
-42.999999999999979
 30
0.0
 40
2.0
 50
179.99999799999719
 51
270.0
  0
ARC
  5
26B
  8
DETAIL
  6
CONTINUOUS
 62
     5
 10
-21.050000000000299
 20
-48.499999999999972
 30
0.0
 40
2.0
 50
90.0
 51
179.99999799999719
  0
LINE
  5
26C
  8
DETAIL
  6
CONTINUOUS
 62
     5
 10
-21.050000000000299
 20
-46.499999999999972
 30
0.0
 11
-17.35000000000025
 21
-46.499999999999972
 31
0.0
  0
LINE
  5
26D
  8
DETAIL
  6
CONTINUOUS
 62
     5
 10
-17.35000000000025
 20
-46.499999999999972
 30
0.0
 11
-17.35000000000025
 21
-44.999999999999979
 31
0.0
  0
LINE
  5
26E
  8
DETAIL
  6
CONTINUOUS
 62
     5
 10
-17.35000000000025
 20
-44.999999999999979
 30
0.0
 11
-21.050000000000299
 21
-44.999999999999979
 31
0.0
  0
LINE
  5
26F
  8
DETAIL
  6
CONTINUOUS
 62
     5
 10
-21.650000000000201
 20
-4.2499999999999778
 30
0.0
 11
-21.650000000000201
 21
-2.7499999999999791
 31
0.0
  0
LINE
  5
270
  8
DETAIL
  6
CONTINUOUS
 62
     5
 10
-23.050000000000288
 20
4.5000000000000204
 30
0.0
 11
-23.050000000000288
 21
4.2000000000000659
 31
0.0
  0
LINE
  5
271
  8
DETAIL
  6
CONTINUOUS
 62
     5
 10
-23.050000000000288
 20
5.0000000000000204
 30
0.0
 11
-23.050000000000288
 21
4.7000000000000659
 31
0.0
  0
ARC
  5
272
  8
DETAIL
  6
CONTINUOUS
 62
     5
 10
-20.35000000000025
 20
11.95000000000007
 30
0.0
 40
0.5
 50
0.0
 51
90.0
  0
LINE
  5
273
  8
DETAIL
  6
CONTINUOUS
 62
     5
 10
-19.85000000000025
 20
11.95000000000007
 30
0.0
 11
-19.85000000000025
 21
11.75000000000002
 31
0.0
  0
ARC
  5
274
  8
DETAIL
  6
CONTINUOUS
 62
     5
 10
-20.35000000000025
 20
11.75000000000002
 30
0.0
 40
0.5
 50
270.0
 51
0.0
  0
ARC
  5
275
  8
DETAIL
  6
CONTINUOUS
 62
     5
 10
-18.550000000000299
 20
11.20000000000007
 30
0.0
 40
0.200000000000046
 50
270.0
 51
0.0
  0
LINE
  5
276
  8
DETAIL
  6
CONTINUOUS
 62
     5
 10
-18.550000000000299
 20
11.00000000000002
 30
0.0
 11
-21.450000000000159
 21
11.00000000000002
 31
0.0
  0
ARC
  5
277
  8
DETAIL
  6
CONTINUOUS
 62
     5
 10
-21.450000000000159
 20
10.50000000000002
 30
0.0
 40
0.5
 50
90.0
 51
179.99999800001021
  0
LINE
  5
278
  8
DETAIL
  6
CONTINUOUS
 62
     5
 10
-18.35000000000025
 20
11.75000000000002
 30
0.0
 11
-18.35000000000025
 21
11.20000000000007
 31
0.0
  0
ARC
  5
279
  8
DETAIL
  6
CONTINUOUS
 62
     5
 10
-21.050000000000299
 20
43.000000000000021
 30
0.0
 40
2.0
 50
90.0
 51
179.9999980000037
  0
ARC
  5
27A
  8
DETAIL
  6
CONTINUOUS
 62
     5
 10
-21.050000000000299
 20
48.500000000000021
 30
0.0
 40
2.0
 50
179.9999980000037
 51
270.0
  0
LINE
  5
27B
  8
DETAIL
  6
CONTINUOUS
 62
     5
 10
-21.050000000000299
 20
46.500000000000021
 30
0.0
 11
-17.35000000000025
 21
46.500000000000021
 31
0.0
  0
LINE
  5
27C
  8
DETAIL
  6
CONTINUOUS
 62
     5
 10
-17.35000000000025
 20
46.500000000000021
 30
0.0
 11
-17.35000000000025
 21
45.000000000000021
 31
0.0
  0
LINE
  5
27D
  8
DETAIL
  6
CONTINUOUS
 62
     5
 10
-17.35000000000025
 20
45.000000000000021
 30
0.0
 11
-21.050000000000299
 21
45.000000000000021
 31
0.0
  0
LINE
  5
27E
  8
DETAIL
  6
CONTINUOUS
 62
     5
 10
18.64999999999975
 20
-11.75000000000011
 30
0.0
 11
-18.35000000000025
 21
-11.75000000000011
 31
0.0
  0
LINE
  5
27F
  8
DETAIL
  6
CONTINUOUS
 62
     5
 10
-18.35000000000025
 20
11.75000000000002
 30
0.0
 11
18.64999999999975
 21
11.75000000000002
 31
0.0
  0
LINE
  5
280
  8
DETAIL
  6
CONTINUOUS
 62
     5
 10
20.64999999999975
 20
-12.450000000000159
 30
0.0
 11
-21.050000000000299
 21
-12.450000000000159
 31
0.0
  0
ARC
  5
281
  8
DETAIL
  6
CONTINUOUS
 62
     5
 10
-21.050000000000299
 20
-10.450000000000159
 30
0.0
 40
2.0
 50
179.99999799999719
 51
270.0
  0
LINE
  5
282
  8
DETAIL
  6
CONTINUOUS
 62
     5
 10
20.64999999999975
 20
-12.75000000000011
 30
0.0
 11
-21.050000000000299
 21
-12.75000000000011
 31
0.0
  0
ARC
  5
283
  8
DETAIL
  6
CONTINUOUS
 62
     5
 10
-21.050000000000299
 20
-10.75000000000011
 30
0.0
 40
2.0
 50
179.99999799999719
 51
270.0
  0
LINE
  5
284
  8
DETAIL
  6
CONTINUOUS
 62
     5
 10
-23.050000000000288
 20
-27.499999999999979
 30
0.0
 11
-23.050000000000288
 21
-33.499999999999979
 31
0.0
  0
LINE
  5
285
  8
DETAIL
  6
CONTINUOUS
 62
     5
 10
20.64999999999975
 20
12.75000000000002
 30
0.0
 11
-21.050000000000299
 21
12.75000000000002
 31
0.0
  0
ARC
  5
286
  8
DETAIL
  6
CONTINUOUS
 62
     5
 10
-21.050000000000299
 20
10.75000000000002
 30
0.0
 40
2.0
 50
90.0
 51
179.9999980000037
  0
LINE
  5
287
  8
DETAIL
  6
CONTINUOUS
 62
     5
 10
20.64999999999975
 20
12.45000000000007
 30
0.0
 11
-21.050000000000299
 21
12.45000000000007
 31
0.0
  0
ARC
  5
288
  8
DETAIL
  6
CONTINUOUS
 62
     5
 10
-21.050000000000299
 20
10.45000000000007
 30
0.0
 40
2.0
 50
90.0
 51
179.9999980000037
  0
ARC
  5
289
  8
DETAIL
  6
CONTINUOUS
 62
     5
 10
-21.050000000000299
 20
33.500000000000021
 30
0.0
 40
2.0
 50
90.0
 51
179.9999980000037
  0
LINE
  5
28A
  8
DETAIL
  6
CONTINUOUS
 62
     5
 10
-21.050000000000299
 20
35.500000000000021
 30
0.0
 11
20.64999999999975
 21
35.500000000000021
 31
0.0
  0
LINE
  5
28B
  8
DETAIL
  6
CONTINUOUS
 62
     5
 10
-23.050000000000288
 20
27.500000000000021
 30
0.0
 11
-23.050000000000288
 21
33.500000000000021
 31
0.0
  0
ARC
  5
28C
  8
DETAIL
  6
CONTINUOUS
 62
     5
 10
-21.050000000000299
 20
53.000000000000021
 30
0.0
 40
2.0
 50
90.0
 51
179.9999980000037
  0
LINE
  5
28D
  8
DETAIL
  6
CONTINUOUS
 62
     5
 10
-21.050000000000299
 20
55.000000000000021
 30
0.0
 11
20.64999999999975
 21
55.000000000000021
 31
0.0
  0
LINE
  5
28E
  8
DETAIL
  6
CONTINUOUS
 62
     5
 10
20.64999999999975
 20
-54.999999999999979
 30
0.0
 11
-21.050000000000299
 21
-54.999999999999979
 31
0.0
  0
ARC
  5
28F
  8
DETAIL
  6
CONTINUOUS
 62
     5
 10
-21.050000000000299
 20
-52.999999999999979
 30
0.0
 40
2.0
 50
179.99999799999719
 51
270.0
  0
LINE
  5
290
  8
DETAIL
  6
CONTINUOUS
 62
     5
 10
-23.050000000000288
 20
-52.999999999999979
 30
0.0
 11
-23.050000000000288
 21
53.000000000000021
 31
0.0
  0
CIRCLE
  5
291
  8
DETAIL
  6
CONTINUOUS
 62
     5
 10
-11.00000000000011
 20
50.500000000000021
 30
0.0
 40
1.75
  0
CIRCLE
  5
292
  8
DETAIL
  6
CONTINUOUS
 62
     5
 10
-11.00000000000011
 20
50.500000000000021
 30
0.0
 40
2.75
  0
LINE
  5
293
  8
DETAIL
  6
CONTINUOUS
 62
     5
 10
-21.050000000000299
 20
-35.499999999999979
 30
0.0
 11
20.64999999999975
 21
-35.499999999999979
 31
0.0
  0
ARC
  5
294
  8
DETAIL
  6
CONTINUOUS
 62
     5
 10
-21.050000000000299
 20
-33.499999999999979
 30
0.0
 40
2.0
 50
180.0
 51
270.0
  0
ARC
  5
295
  8
DETAIL
  6
CONTINUOUS
 62
     5
 10
-15.050000000000299
 20
10.25000000000002
 30
0.0
 40
1.5
 50
90.0
 51
147.7638091871215
  0
LINE
  5
296
  8
DETAIL
  6
CONTINUOUS
 62
     5
 10
-21.650000000000201
 20
-10.29500000000005
 30
0.0
 11
-21.271996462259381
 21
-10.29500000000005
 31
0.0
  0
ARC
  5
297
  8
DETAIL
  6
CONTINUOUS
 62
     5
 10
-21.15003100000024
 20
-9.2950000000000514
 30
0.0
 40
0.4999999999999771
 50
134.42202994379869
 51
180.63830799999789
  0
LINE
  5
298
  8
DETAIL
  6
CONTINUOUS
 62
     5
 10
-20.85000000000025
 20
10.735920709430751
 30
0.0
 11
-20.85000000000025
 21
11.00000000000002
 31
0.0
  0
LINE
  5
299
  8
DETAIL
  6
CONTINUOUS
 62
     5
 10
-21.271996462259381
 20
10.29499999999998
 30
0.0
 11
-21.650000000000201
 21
10.29499999999998
 31
0.0
  0
ARC
  5
29A
  8
DETAIL
  6
CONTINUOUS
 62
     5
 10
-21.349704000000091
 20
8.5950010000000461
 30
0.0
 40
0.300002000000061
 50
180.0247290000041
 51
239.93492227215961
  0
LINE
  5
29B
  8
DETAIL
  6
CONTINUOUS
 62
     5
 10
-21.650473000000261
 20
10.29499999999998
 30
0.0
 11
-21.650473000000261
 21
8.1974459531154693
 31
0.0
  0
LINE
  5
29C
  8
DETAIL
  6
CONTINUOUS
 62
     5
 10
-21.650473000000261
 20
5.302554046884346
 30
0.0
 11
-21.650473000000261
 21
-5.3025540468845298
 31
0.0
  0
LINE
  5
29D
  8
DETAIL
  6
CONTINUOUS
 62
     5
 10
-21.650473000000261
 20
-8.1974459531156523
 30
0.0
 11
-21.650473000000261
 21
-10.958050844635251
 31
0.0
  0
LINE
  5
29E
  8
NOTE
  6
CONTINUOUS
 62
     4
 10
-0.0000000000007958
 20
-65.886341763467129
 30
0.0
 11
0.0000000000003411
 21
68.414006612826284
 31
0.0
  0
LINE
  5
29F
  8
SIZE
  6
CONTINUOUS
 62
    30
 10
28.952918710534622
 20
41.75
 30
0.0
 11
217.03178245215901
 21
41.749999999999957
 31
0.0
  0
LINE
  5
2A0
  8
SIZE
  6
CONTINUOUS
 62
    30
 10
28.952918710534611
 20
-41.749999999999993
 30
0.0
 11
217.03178245215901
 21
-41.750000000000028
 31
0.0
  0
LINE
  5
2A1
  8
SIZE
  6
CONTINUOUS
 62
    30
 10
197.03178245215901
 20
-29.750000000000039
 30
0.0
 11
197.03178245215901
 21
29.749999999999961
 31
0.0
  0
LINE
  5
2A2
  8
SIZE
  6
CONTINUOUS
 62
    30
 10
197.03178245215901
 20
41.749999999999957
 30
0.0
 11
197.03178245215901
 21
279.29285714285709
 31
0.0
  0
CIRCLE
  5
2A3
  8
SIZE
  6
CONTINUOUS
 62
    30
 10
197.03178245215901
 20
-41.750000000000028
 30
0.0
 40
6.0
  0
LINE
  5
2A4
  8
SIZE
  6
CONTINUOUS
 62
    30
 10
197.03178245215901
 20
-41.750000000000028
 30
0.0
 11
197.03178245215901
 21
-29.75000000000005
 31
0.0
  0
CIRCLE
  5
2A5
  8
SIZE
  6
CONTINUOUS
 62
    30
 10
197.03178245215901
 20
41.749999999999957
 30
0.0
 40
6.0
  0
LINE
  5
2A6
  8
SIZE
  6
CONTINUOUS
 62
    30
 10
197.03178245215901
 20
41.749999999999957
 30
0.0
 11
197.03178245215901
 21
29.749999999999961
 31
0.0
  0
TEXT
  5
2A7
  8
SIZE
  6
CONTINUOUS
 62
    30
 10
172.03178245215901
 20
78.749999999999986
 30
0.0
 40
64.0
  1
83.5
 50
90.0
 41
0.9
 72
     1
 11
172.03178245215901
 21
166.52142857142849
 31
0.0
  0
POINT
  5
2A8
  8
DEFPOINTS
  6
CONTINUOUS
 62
    30
 10
8.9529187105346182
 20
41.750000000000007
 30
0.0
  0
POINT
  5
2A9
  8
DEFPOINTS
  6
CONTINUOUS
 62
    30
 10
8.9529187105346182
 20
-41.749999999999979
 30
0.0
  0
POINT
  5
2AA
  8
DEFPOINTS
  6
CONTINUOUS
 62
    30
 10
197.03178245215901
 20
-41.750000000000028
 30
0.0
  0
CIRCLE
  5
2AB
  8
FIX
  6
CONTINUOUS
 62
    11
 39
50.0
 10
0.0000000000001155
 20
41.750000000000021
 30
0.0
 40
4.0
  0
CIRCLE
  5
2AC
  8
FIX
  6
CONTINUOUS
 62
    11
 39
50.0
 10
-0.0000000000005915
 20
-41.749999999999979
 30
0.0
 40
4.0
  0
TEXT
  5
2B5
  8
ETC
  6
CONTINUOUS
 62
    61
 10
318.37179571569777
 20
17.119497041089272
 30
0.0
 40
40.0
  1
P-10SWL
 41
0.9
  0
ENDSEC
  0
EOF
