  0
SECTION
  2
HEADER
  9
$ACADVER
  1
AC1009
  9
$INSBASE
 10
0.0
 20
0.0
 30
0.0
  9
$EXTMIN
 10
-249.07141678074521
 20
-279.29285713933319
 30
0.0
  9
$EXTMAX
 10
828.43183613957422
 20
371.27632681544708
 30
50.0
  9
$LIMMIN
 10
-2970.0
 20
-2100.0
  9
$LIMMAX
 10
2970.0
 20
2100.0
  9
$ORTHOMODE
 70
     0
  9
$REGENMODE
 70
     1
  9
$FILLMODE
 70
     1
  9
$QTEXTMODE
 70
     0
  9
$MIRRTEXT
 70
     0
  9
$DRAGMODE
 70
     2
  9
$LTSCALE
 40
20.0
  9
$OSMODE
 70
    55
  9
$ATTMODE
 70
     1
  9
$TEXTSIZE
 40
64.0
  9
$TRACEWID
 40
0.05
  9
$TEXTSTYLE
  7
STANDARD
  9
$CLAYER
  8
SIZE
  9
$CELTYPE
  6
CONTINUOUS
  9
$CECOLOR
 62
     7
  9
$DIMSCALE
 40
1.0
  9
$DIMASZ
 40
12.0
  9
$DIMEXO
 40
20.0
  9
$DIMDLI
 40
200.0
  9
$DIMRND
 40
0.0
  9
$DIMDLE
 40
0.0
  9
$DIMEXE
 40
20.0
  9
$DIMTP
 40
0.0
  9
$DIMTM
 40
0.0
  9
$DIMTXT
 40
64.0
  9
$DIMCEN
 40
0.09
  9
$DIMTSZ
 40
0.0
  9
$DIMTOL
 70
     0
  9
$DIMLIM
 70
     0
  9
$DIMTIH
 70
     0
  9
$DIMTOH
 70
     0
  9
$DIMSE1
 70
     0
  9
$DIMSE2
 70
     0
  9
$DIMTAD
 70
     1
  9
$DIMZIN
 70
     8
  9
$DIMBLK
  1

  9
$DIMASO
 70
     1
  9
$DIMSHO
 70
     0
  9
$DIMPOST
  1

  9
$DIMAPOST
  1

  9
$DIMALT
 70
     0
  9
$DIMALTD
 70
     2
  9
$DIMALTF
 40
25.399999999999999
  9
$DIMLFAC
 40
1.0
  9
$DIMTOFL
 70
     1
  9
$DIMTVP
 40
0.0
  9
$DIMTIX
 70
     1
  9
$DIMSOXD
 70
     0
  9
$DIMSAH
 70
     0
  9
$DIMBLK1
  1

  9
$DIMBLK2
  1

  9
$DIMSTYLE
  2
STANDARD
  9
$DIMCLRD
 70
     7
  9
$DIMCLRE
 70
     7
  9
$DIMCLRT
 70
     7
  9
$DIMTFAC
 40
1.0
  9
$DIMGAP
 40
25.0
  9
$LUNITS
 70
     2
  9
$LUPREC
 70
     4
  9
$SKETCHINC
 40
0.1
  9
$FILLETRAD
 40
3.0
  9
$AUNITS
 70
     1
  9
$AUPREC
 70
     3
  9
$MENU
  1
ACAD
  9
$ELEVATION
 40
0.0
  9
$PELEVATION
 40
0.0
  9
$THICKNESS
 40
50.0
  9
$LIMCHECK
 70
     0
  9
$BLIPMODE
 70
     0
  9
$CHAMFERA
 40
0.0
  9
$CHAMFERB
 40
0.0
  9
$SKPOLY
 70
     0
  9
$TDCREATE
 40
2453019.6230103709
  9
$TDUPDATE
 40
2456388.6484009381
  9
$TDINDWG
 40
1.7391732638999999
  9
$TDUSRTIMER
 40
1.7391730903
  9
$USRTIMER
 70
     1
  9
$ANGBASE
 50
0.0
  9
$ANGDIR
 70
     0
  9
$PDMODE
 70
     3
  9
$PDSIZE
 40
-2.0
  9
$PLINEWID
 40
0.0
  9
$COORDS
 70
     1
  9
$SPLFRAME
 70
     0
  9
$SPLINETYPE
 70
     6
  9
$SPLINESEGS
 70
     8
  9
$ATTDIA
 70
     0
  9
$ATTREQ
 70
     1
  9
$HANDLING
 70
     1
  9
$HANDSEED
  5
1BB
  9
$SURFTAB1
 70
     6
  9
$SURFTAB2
 70
     6
  9
$SURFTYPE
 70
     6
  9
$SURFU
 70
     6
  9
$SURFV
 70
     6
  9
$UCSNAME
  2

  9
$UCSORG
 10
0.0
 20
0.0
 30
0.0
  9
$UCSXDIR
 10
1.0
 20
0.0
 30
0.0
  9
$UCSYDIR
 10
0.0
 20
1.0
 30
0.0
  9
$PUCSNAME
  2

  9
$PUCSORG
 10
0.0
 20
0.0
 30
0.0
  9
$PUCSXDIR
 10
1.0
 20
0.0
 30
0.0
  9
$PUCSYDIR
 10
0.0
 20
1.0
 30
0.0
  9
$USERI1
 70
     0
  9
$USERI2
 70
     0
  9
$USERI3
 70
     0
  9
$USERI4
 70
     0
  9
$USERI5
 70
     0
  9
$USERR1
 40
20.0
  9
$USERR2
 40
0.0
  9
$USERR3
 40
0.0
  9
$USERR4
 40
0.0
  9
$USERR5
 40
0.0
  9
$WORLDVIEW
 70
     1
  9
$SHADEDGE
 70
     3
  9
$SHADEDIF
 70
    70
  9
$TILEMODE
 70
     1
  9
$MAXACTVP
 70
    48
  9
$PLIMCHECK
 70
     0
  9
$PEXTMIN
 10
-1.0000000000000000E+020
 20
-1.0000000000000000E+020
 30
-1.0000000000000000E+020
  9
$PEXTMAX
 10
1.0000000000000000E+020
 20
1.0000000000000000E+020
 30
1.0000000000000000E+020
  9
$PLIMMIN
 10
0.0
 20
0.0
  9
$PLIMMAX
 10
12.0
 20
9.0
  9
$UNITMODE
 70
     0
  9
$VISRETAIN
 70
     0
  9
$PLINEGEN
 70
     0
  9
$PSLTSCALE
 70
     0
  0
ENDSEC
  0
SECTION
  2
TABLES
  0
TABLE
  2
VPORT
 70
     1
  0
VPORT
  2
*ACTIVE
 70
     0
 10
0.0
 20
0.0
 11
1.0
 21
1.0
 12
246.8230210422623
 22
32.187468297563839
 13
0.0
 23
0.0
 14
1.0
 24
1.0
 15
0.0
 25
0.0
 16
0.0
 26
0.0
 36
1.0
 17
0.0
 27
0.0
 37
0.0
 40
1007.195867359653
 41
1.6865079365079361
 42
50.0
 43
0.0
 44
0.0
 50
0.0
 51
0.0
 71
     0
 72
  1000
 73
     1
 74
     0
 75
     0
 76
     0
 77
     0
 78
     0
  0
ENDTAB
  0
TABLE
  2
LTYPE
 70
     3
  0
LTYPE
  2
CONTINUOUS
 70
     0
  3
実線
 72
    65
 73
     0
 40
0.0
  0
LTYPE
  2
DASHDOT
 70
     0
  3
____ _ ____ _ ____ _ ____ _ ____ _ ____ _ ____
 72
    65
 73
     4
 40
5.5
 49
4.0
 49
-0.6
 49
0.3
 49
-0.6
  0
ENDTAB
  0
TABLE
  2
LAYER
 70
    12
  0
LAYER
  2
0
 70
     0
 62
     7
  6
CONTINUOUS
  0
LAYER
  2
SIZE
 70
     0
 62
    30
  6
CONTINUOUS
  0
LAYER
  2
BASIS
 70
     4
 62
     6
  6
DASHDOT
  0
LAYER
  2
OUTLINE
 70
     0
 62
     3
  6
CONTINUOUS
  0
LAYER
  2
DETAIL
 70
     0
 62
     5
  6
CONTINUOUS
  0
LAYER
  2
ARRANGE
 70
     4
 62
     1
  6
CONTINUOUS
  0
LAYER
  2
DEFPOINTS
 70
     0
 62
     7
  6
CONTINUOUS
  0
LAYER
  2
ETC
 70
     0
 62
    61
  6
CONTINUOUS
  0
LAYER
  2
FIX
 70
     0
 62
    11
  6
CONTINUOUS
  0
LAYER
  2
NOTE
 70
     0
 62
     4
  6
CONTINUOUS
  0
LAYER
  2
SERVICESPACE
 70
     0
 62
     2
  6
DASHDOT
  0
LAYER
  2
SYMBOLLINE
 70
     0
 62
    15
  6
CONTINUOUS
  0
ENDTAB
  0
TABLE
  2
STYLE
 70
     2
  0
STYLE
  2
STANDARD
 70
     0
 40
64.0
 41
0.9
 50
0.0
 71
     0
 42
64.0
  3
SIMPLEX.shx
  4
BIGFONT.shx
  0
STYLE
  2
ANNOTATIVE
 70
     0
 40
0.0
 41
1.0
 50
0.0
 71
     0
 42
0.2
  3
txt
  4

  0
ENDTAB
  0
TABLE
  2
VIEW
 70
     1
  0
VIEW
  2
ALL
 70
     0
 40
4282.6198079999976
 10
0.0
 20
41.309904000000003
 41
5940.0
 11
0.0
 21
0.0
 31
1.0
 12
0.0
 22
0.0
 32
0.0
 42
50.0
 43
0.0
 44
0.0
 50
0.0
 71
     0
  0
ENDTAB
  0
TABLE
  2
UCS
 70
     0
  0
ENDTAB
  0
TABLE
  2
APPID
 70
    18
  0
APPID
  2
ACAD
 70
     0
  0
APPID
  2
ACADANNOTATIVE
 70
     0
  0
APPID
  2
AUTOCAD_POSTSCRIPT_FIGURE
 70
     0
  0
APPID
  2
ACAD_EXEMPT_FROM_CAD_STANDARDS
 70
     0
  0
APPID
  2
ACAD_PSEXT
 70
     0
  0
APPID
  2
ACAUTHENVIRON
 70
     0
  0
APPID
  2
GENIUS_GENOENT_13
 70
     0
  0
APPID
  2
GENIUS_GENCFG_13
 70
     0
  0
APPID
  2
GENIUS_GENCFG0_13
 70
     0
  0
APPID
  2
GENIUS_GENCFG1_13
 70
     0
  0
APPID
  2
GENIUS_GENCFG2_13
 70
     0
  0
APPID
  2
GENIUS_GENCFG3_13
 70
     0
  0
APPID
  2
GENIUS_GENCFG4_13
 70
     0
  0
APPID
  2
GENIUS_GEVCFG0_13
 70
     0
  0
APPID
  2
CONTENTBLOCKICON
 70
     0
  0
APPID
  2
CONTENTBLOCKDESCRIPTION
 70
     0
  0
APPID
  2
ACAD_NAV_VCDISPLAY
 70
     0
  0
APPID
  2
ACAD_MLEADERVER
 70
     0
  0
ENDTAB
  0
TABLE
  2
DIMSTYLE
 70
     2
  0
DIMSTYLE
  2
STANDARD
 70
     0
  3

  4

  5

  6

  7

 40
1.0
 41
0.18
 42
0.0625
 43
0.38
 44
0.18
 45
0.0
 46
0.0
 47
0.0
 48
0.0
140
0.18
141
0.09
142
0.0
143
25.399999999999999
144
1.0
145
0.0
146
1.0
147
0.09
 71
     0
 72
     0
 73
     1
 74
     1
 75
     0
 76
     0
 77
     0
 78
     0
170
     0
171
     2
172
     0
173
     0
174
     0
175
     0
176
     7
177
     7
178
     7
  0
DIMSTYLE
  2
ANNOTATIVE
 70
     0
  3

  4

  5

  6

  7

 40
1.0
 41
0.18
 42
0.0625
 43
0.38
 44
0.18
 45
0.0
 46
0.0
 47
0.0
 48
0.0
140
0.18
141
0.09
142
0.0
143
25.399999999999999
144
1.0
145
0.0
146
1.0
147
0.09
 71
     0
 72
     0
 73
     1
 74
     1
 75
     0
 76
     0
 77
     0
 78
     0
170
     0
171
     2
172
     0
173
     0
174
     0
175
     0
176
     0
177
     0
178
     0
  0
ENDTAB
  0
ENDSEC
  0
SECTION
  2
BLOCKS
  0
BLOCK
  8
0
  2
$MODEL_SPACE
 70
     0
 10
0.0
 20
0.0
 30
0.0
  3
$MODEL_SPACE
  1

  0
ENDBLK
  5
6D
  8
0
  0
BLOCK
 67
     1
  8
0
  2
$PAPER_SPACE
 70
     0
 10
0.0
 20
0.0
 30
0.0
  3
$PAPER_SPACE
  1

  0
ENDBLK
  5
69
 67
     1
  8
0
  0
BLOCK
  8
0
  2
_ORIGIN
 70
     0
 10
0.0
 20
0.0
 30
0.0
  3
_ORIGIN
  1

  0
CIRCLE
  5
90
  8
0
  6
CONTINUOUS
 62
     7
 10
0.0
 20
0.0
 30
0.0
 40
0.5
  0
LINE
  5
91
  8
0
  6
CONTINUOUS
 62
     7
 10
0.0
 20
0.0
 30
0.0
 11
-1.0
 21
0.0
 31
0.0
  0
ENDBLK
  5
92
  8
0
  0
ENDSEC
  0
SECTION
  2
ENTITIES
  0
TEXT
  5
93
  8
ETC
  6
CONTINUOUS
 62
    61
 10
271.63183613957472
 20
307.27632681544702
 30
0.0
 40
64.0
  1
P-10SWL2_4
 41
0.9
  0
TEXT
  5
94
  8
ETC
  6
CONTINUOUS
 62
    61
 10
267.44584213957432
 20
189.32101680061581
 30
0.0
 40
64.0
  1
システム部材
 41
0.9
  0
CIRCLE
  5
95
  8
ARRANGE
  6
CONTINUOUS
 62
     1
 10
0.0
 20
0.0
 30
0.0
 40
40.0
  0
POINT
  5
96
  8
ARRANGE
  6
CONTINUOUS
 62
     1
 10
0.0
 20
0.0
 30
0.0
 39
50.0
  0
TEXT
  5
97
  8
ETC
  6
CONTINUOUS
 62
    61
 10
318.15261962569508
 20
81.201680543568713
 30
0.0
 40
40.0
  1
P-10SWL2
 41
0.9
  0
LINE
  5
98
  8
BASIS
  6
DASHDOT
 62
     6
 10
-0.0000000000002274
 20
-47.85000000000003
 30
0.0
 11
-0.0000000000002274
 21
52.500000000000092
 31
0.0
  0
LINE
  5
99
  8
BASIS
  6
DASHDOT
 62
     6
 10
-48.305984952675963
 20
0.0000000000000179
 30
0.0
 11
48.317237296002077
 21
0.0000000000000179
 31
0.0
  0
ARC
  5
9A
  8
OUTLINE
  6
CONTINUOUS
 62
     3
 10
-7.5916205471322069
 20
-25.067596044273809
 30
0.0
 40
9.9999999999999982
 50
106.91063583468291
 51
126.2194665194741
  0
LINE
  5
9B
  8
OUTLINE
  6
CONTINUOUS
 62
     3
 10
-13.50041856926924
 20
-17.499999999999631
 30
0.0
 11
-13.50041856926924
 21
-16.999999999999631
 31
0.0
  0
LINE
  5
9C
  8
OUTLINE
  6
CONTINUOUS
 62
     3
 10
-10.50041856926924
 20
-17.499999999999631
 30
0.0
 11
-13.50041856926924
 21
-17.499999999999631
 31
0.0
  0
LINE
  5
9D
  8
OUTLINE
  6
CONTINUOUS
 62
     3
 10
-10.50041856926924
 20
-47.999999999999737
 30
0.0
 11
-10.50041856926924
 21
48.000000000000249
 31
0.0
  0
LINE
  5
9E
  8
OUTLINE
  6
CONTINUOUS
 62
     3
 10
-7.0004185692692431
 20
60.000000000000469
 30
0.0
 11
-0.0004185692692431
 21
60.000000000000469
 31
0.0
  0
LINE
  5
9F
  8
OUTLINE
  6
CONTINUOUS
 62
     3
 10
-7.000872510589204
 20
-59.999999999999751
 30
0.0
 11
-0.000872510589204
 21
-59.999999999999751
 31
0.0
  0
LINE
  5
A0
  8
OUTLINE
  6
CONTINUOUS
 62
     3
 10
-10.50041856926924
 20
48.000000000000249
 30
0.0
 11
-10.50041856926924
 21
56.500000000000483
 31
0.0
  0
ARC
  5
A1
  8
OUTLINE
  6
CONTINUOUS
 62
     3
 10
-7.0004185692692431
 20
56.500000000000483
 30
0.0
 40
3.5
 50
90.0
 51
180.0
  0
ARC
  5
A2
  8
OUTLINE
  6
CONTINUOUS
 62
     3
 10
-7.000872510589204
 20
-56.499999999999737
 30
0.0
 40
3.5
 50
180.0
 51
270.0
  0
LINE
  5
A3
  8
OUTLINE
  6
CONTINUOUS
 62
     3
 10
-10.50041856926924
 20
-56.556368281658003
 30
0.0
 11
-10.50041856926924
 21
-47.999999999999737
 31
0.0
  0
LINE
  5
A4
  8
OUTLINE
  6
CONTINUOUS
 62
     3
 10
0.0000117906833452
 20
60.000000000000249
 30
0.0
 11
0.0000214662692883
 21
35.454994882977793
 31
0.0
  0
LINE
  5
A5
  8
OUTLINE
  6
CONTINUOUS
 62
     3
 10
0.0000214662692883
 20
-35.545005117022207
 30
0.0
 11
-0.000872510589204
 21
-59.999999999999751
 31
0.0
  0
ARC
  5
A6
  8
OUTLINE
  6
CONTINUOUS
 62
     3
 10
30.99958143073076
 20
-10.208515117022131
 30
0.0
 40
0.9999999999999699
 50
270.48969600000243
 51
0.0
  0
LINE
  5
A7
  8
OUTLINE
  6
CONTINUOUS
 62
     3
 10
31.999581430730771
 20
-10.208515117022131
 30
0.0
 11
31.999581430730771
 21
10.20850588297785
 31
0.0
  0
ARC
  5
A8
  8
OUTLINE
  6
CONTINUOUS
 62
     3
 10
30.99958143073076
 20
10.20850588297785
 30
0.0
 40
1.0
 50
0.0
 51
89.510303999997575
  0
LINE
  5
A9
  8
OUTLINE
  6
CONTINUOUS
 62
     3
 10
31.008128430730888
 20
11.208468882977829
 30
0.0
 11
11.300021466269239
 21
11.376914204063411
 31
0.0
  0
LINE
  5
AA
  8
OUTLINE
  6
CONTINUOUS
 62
     3
 10
11.300021466269239
 20
-11.37692443810781
 30
0.0
 11
31.00812813870829
 21
-11.208479119518159
 31
0.0
  0
ARC
  5
AB
  8
OUTLINE
  6
CONTINUOUS
 62
     3
 10
2.0000214662691751
 20
-15.08230832277542
 30
0.0
 40
0.9999999999999847
 50
97.495853961082005
 51
180.0
  0
ARC
  5
AC
  8
OUTLINE
  6
CONTINUOUS
 62
     3
 10
0.5000214662692885
 20
-35.045005117022207
 30
0.0
 40
0.5
 50
270.0
 51
0.0
  0
LINE
  5
AD
  8
OUTLINE
  6
CONTINUOUS
 62
     3
 10
1.000021466269287
 20
-35.045005117022207
 30
0.0
 11
1.0000214662691751
 21
-15.08230832277545
 31
0.0
  0
LINE
  5
AE
  8
OUTLINE
  6
CONTINUOUS
 62
     3
 10
0.0000214662692883
 20
-35.545005117022207
 30
0.0
 11
0.5000214662692885
 21
-35.545005117022207
 31
0.0
  0
ARC
  5
AF
  8
OUTLINE
  6
CONTINUOUS
 62
     3
 10
0.5000214662692885
 20
34.9549948829778
 30
0.0
 40
0.5
 50
0.0
 51
90.0
  0
LINE
  5
B0
  8
OUTLINE
  6
CONTINUOUS
 62
     3
 10
1.000021466269287
 20
34.9549948829778
 30
0.0
 11
1.000021466269287
 21
13.121291882977831
 31
0.0
  0
LINE
  5
B1
  8
OUTLINE
  6
CONTINUOUS
 62
     3
 10
0.0000214662692883
 20
35.454994882977793
 30
0.0
 11
0.5000214662692885
 21
35.454994882977793
 31
0.0
  0
ARC
  5
B2
  8
OUTLINE
  6
CONTINUOUS
 62
     3
 10
11.100021466269199
 20
-12.674597117022159
 30
0.0
 40
0.200000000000006
 50
277.49585799999329
 51
0.0
  0
LINE
  5
B3
  8
OUTLINE
  6
CONTINUOUS
 62
     3
 10
11.300021466269239
 20
-12.674597117022159
 30
0.0
 11
11.300021466269239
 21
0.3949948829777838
 31
0.0
  0
LINE
  5
B4
  8
OUTLINE
  6
CONTINUOUS
 62
     3
 10
1.869567017353631
 20
-14.090854018857121
 30
0.0
 11
11.12611246626915
 21
-12.8728881170222
 31
0.0
  0
ARC
  5
B5
  8
OUTLINE
  6
CONTINUOUS
 62
     3
 10
2.000021466269287
 20
13.121291882977831
 30
0.0
 40
1.0
 50
179.99999799999719
 51
268.33166299999442
  0
LINE
  5
B6
  8
OUTLINE
  6
CONTINUOUS
 62
     3
 10
11.300021466269239
 20
0.3949948829777838
 30
0.0
 11
11.300021466269239
 21
11.655734882977841
 31
0.0
  0
ARC
  5
B7
  8
OUTLINE
  6
CONTINUOUS
 62
     3
 10
11.100021466269199
 20
11.655734882977841
 30
0.0
 40
0.200000000000045
 50
0.0
 51
88.331661999979474
  0
LINE
  5
B8
  8
OUTLINE
  6
CONTINUOUS
 62
     3
 10
11.10584446626916
 20
11.85564988297776
 30
0.0
 11
1.9709074662691239
 21
12.12171588297778
 31
0.0
  0
ARC
  5
B9
  8
DETAIL
  6
CONTINUOUS
 62
     5
 10
-7.5911901871796186
 20
-25.06759604427404
 30
0.0
 40
9.9999999999999982
 50
106.91063583468291
 51
126.2194665194741
  0
LINE
  5
BA
  8
DETAIL
  6
CONTINUOUS
 62
     5
 10
-13.499988209316649
 20
-17.499999999999851
 30
0.0
 11
-13.499988209316649
 21
-16.999999999999861
 31
0.0
  0
LINE
  5
BB
  8
DETAIL
  6
CONTINUOUS
 62
     5
 10
-10.499988209316649
 20
-17.499999999999851
 30
0.0
 11
-13.499988209316649
 21
-17.499999999999851
 31
0.0
  0
LINE
  5
BC
  8
DETAIL
  6
CONTINUOUS
 62
     5
 10
-10.499988209316649
 20
-16.999999999999861
 30
0.0
 11
-13.499988209316649
 21
-16.999999999999861
 31
0.0
  0
LINE
  5
BD
  8
DETAIL
  6
CONTINUOUS
 62
     5
 10
-10.499988209316649
 20
-47.999999999999972
 30
0.0
 11
-10.499988209316649
 21
48.000000000000021
 31
0.0
  0
LINE
  5
BE
  8
DETAIL
  6
CONTINUOUS
 62
     5
 10
-6.899988209316632
 20
-47.999999999999972
 30
0.0
 11
-10.499988209316649
 21
-47.999999999999972
 31
0.0
  0
ARC
  5
BF
  8
DETAIL
  6
CONTINUOUS
 62
     5
 10
-6.899988209316632
 20
-47.099999999999987
 30
0.0
 40
0.899999999999977
 50
270.0
 51
0.0
  0
LINE
  5
C0
  8
DETAIL
  6
CONTINUOUS
 62
     5
 10
-5.9999882093166539
 20
-47.099999999999987
 30
0.0
 11
-5.9999882093166539
 21
10.78200446729184
 31
0.0
  0
LINE
  5
C1
  8
DETAIL
  6
CONTINUOUS
 62
     5
 10
-10.499988209316649
 20
48.000000000000021
 30
0.0
 11
-6.899988209316632
 21
48.000000000000021
 31
0.0
  0
ARC
  5
C2
  8
DETAIL
  6
CONTINUOUS
 62
     5
 10
-6.899988209316632
 20
47.100000000000051
 30
0.0
 40
0.899999999999977
 50
0.0
 51
90.0
  0
LINE
  5
C3
  8
DETAIL
  6
CONTINUOUS
 62
     5
 10
-5.9999882093166539
 20
10.78200446729184
 30
0.0
 11
-5.9999882093166539
 21
47.100000000000051
 31
0.0
  0
LINE
  5
C4
  8
DETAIL
  6
CONTINUOUS
 62
     5
 10
-6.9999882093166539
 20
60.000000000000249
 30
0.0
 11
0.0000117906833452
 21
60.000000000000249
 31
0.0
  0
LINE
  5
C5
  8
DETAIL
  6
CONTINUOUS
 62
     5
 10
-7.0004421506366148
 20
-59.999999999999972
 30
0.0
 11
-0.0004421506366157
 21
-59.999999999999972
 31
0.0
  0
LINE
  5
C6
  8
DETAIL
  6
CONTINUOUS
 62
     5
 10
-10.499988209316649
 20
48.000000000000021
 30
0.0
 11
-10.499988209316649
 21
56.500000000000263
 31
0.0
  0
ARC
  5
C7
  8
DETAIL
  6
CONTINUOUS
 62
     5
 10
-6.9999882093166539
 20
56.500000000000263
 30
0.0
 40
3.5
 50
90.0
 51
180.0
  0
ARC
  5
C8
  8
DETAIL
  6
CONTINUOUS
 62
     5
 10
-7.0004421506366148
 20
-56.499999999999972
 30
0.0
 40
3.5
 50
180.0
 51
270.0
  0
LINE
  5
C9
  8
DETAIL
  6
CONTINUOUS
 62
     5
 10
-10.499988209316649
 20
-56.556368281658223
 30
0.0
 11
-10.499988209316649
 21
-47.999999999999972
 31
0.0
  0
LINE
  5
CA
  8
DETAIL
  6
CONTINUOUS
 62
     5
 10
0.0004421506359336
 20
60.000000000000021
 30
0.0
 11
0.0000471626967169
 21
6.3999948829776647
 31
0.0
  0
LINE
  5
CB
  8
DETAIL
  6
CONTINUOUS
 62
     5
 10
0.0000471626966032
 20
6.3999948829776647
 30
0.0
 11
-0.0004421506366157
 21
-59.999999999999972
 31
0.0
  0
LINE
  5
CC
  8
DETAIL
  6
CONTINUOUS
 62
     5
 10
12.53949779068347
 20
10.614707882977511
 30
0.0
 11
13.75268479068353
 21
10.50654588297752
 31
0.0
  0
LINE
  5
CD
  8
DETAIL
  6
CONTINUOUS
 62
     5
 10
13.75268479068353
 20
10.50654588297752
 30
0.0
 11
13.681095790683401
 21
9.7035728829776797
 31
0.0
  0
LINE
  5
CE
  8
DETAIL
  6
CONTINUOUS
 62
     5
 10
13.681095790683401
 20
9.7035728829776797
 30
0.0
 11
12.41433479068354
 21
9.8178028829775865
 31
0.0
  0
LINE
  5
CF
  8
DETAIL
  6
CONTINUOUS
 62
     5
 10
12.40001179068344
 20
9.7266138829776008
 30
0.0
 11
12.41433479068354
 21
9.8178028829775865
 31
0.0
  0
LINE
  5
D0
  8
DETAIL
  6
CONTINUOUS
 62
     5
 10
12.41433479068354
 20
9.8178028829775865
 30
0.0
 11
12.53949779068347
 21
10.614707882977511
 31
0.0
  0
ARC
  5
D1
  8
DETAIL
  6
CONTINUOUS
 62
     5
 10
12.40001179068344
 20
11.167508882977559
 30
0.0
 40
0.200000000000045
 50
0.0
 51
89.510304000010592
  0
LINE
  5
D2
  8
DETAIL
  6
CONTINUOUS
 62
     5
 10
12.60001179068348
 20
11.167508882977559
 30
0.0
 11
12.557207790683551
 21
10.85912388297751
 31
0.0
  0
ARC
  5
D3
  8
DETAIL
  6
CONTINUOUS
 62
     5
 10
12.40001179068344
 20
-11.16751911702241
 30
0.0
 40
0.200000000000039
 50
270.48969599998941
 51
0.0
  0
LINE
  5
D4
  8
DETAIL
  6
CONTINUOUS
 62
     5
 10
12.60001179068348
 20
-11.16751911702241
 30
0.0
 11
12.557207790683551
 21
-10.859134117022361
 31
0.0
  0
LINE
  5
D5
  8
DETAIL
  6
CONTINUOUS
 62
     5
 10
12.53949779068347
 20
-10.614717117022479
 30
0.0
 11
13.75268479068353
 21
-10.50655511702249
 31
0.0
  0
LINE
  5
D6
  8
DETAIL
  6
CONTINUOUS
 62
     5
 10
13.75268479068353
 20
-10.50655511702249
 30
0.0
 11
13.681095790683401
 21
-9.703582117022421
 31
0.0
  0
LINE
  5
D7
  8
DETAIL
  6
CONTINUOUS
 62
     5
 10
13.681095790683401
 20
-9.703582117022421
 30
0.0
 11
12.41433479068354
 21
-9.8178131170224372
 31
0.0
  0
LINE
  5
D8
  8
DETAIL
  6
CONTINUOUS
 62
     5
 10
12.41433479068354
 20
-9.8178131170224372
 30
0.0
 11
12.53949779068347
 21
-10.614717117022479
 31
0.0
  0
LINE
  5
D9
  8
DETAIL
  6
CONTINUOUS
 62
     5
 10
12.53949779068347
 20
-10.614717117022479
 30
0.0
 11
12.40001179068344
 21
-9.7266231170223421
 31
0.0
  0
ARC
  5
DA
  8
DETAIL
  6
CONTINUOUS
 62
     5
 10
24.000011790683349
 20
8.5178188829775934
 30
0.0
 40
1.0
 50
0.0
 51
88.969610999999006
  0
LINE
  5
DB
  8
DETAIL
  6
CONTINUOUS
 62
     5
 10
24.017994790683531
 20
9.517657882977657
 30
0.0
 11
12.40001179068344
 21
9.7266138829776008
 31
0.0
  0
LINE
  5
DC
  8
DETAIL
  6
CONTINUOUS
 62
     5
 10
12.40001179068344
 20
-9.7266231170223421
 30
0.0
 11
24.017994790683531
 21
-9.5176671170223983
 31
0.0
  0
ARC
  5
DD
  8
DETAIL
  6
CONTINUOUS
 62
     5
 10
24.000011790683349
 20
-8.5178281170223347
 30
0.0
 40
0.9999999999999341
 50
271.03038900000098
 51
0.0
  0
LINE
  5
DE
  8
DETAIL
  6
CONTINUOUS
 62
     5
 10
25.000011790683349
 20
-8.5178281170223347
 30
0.0
 11
25.000011790683349
 21
8.5178188829775934
 31
0.0
  0
ARC
  5
DF
  8
DETAIL
  6
CONTINUOUS
 62
     5
 10
12.36614779068344
 20
10.79999488297752
 30
0.0
 40
0.200000000000048
 50
351.07392299999719
 51
90.0
  0
LINE
  5
E0
  8
DETAIL
  6
CONTINUOUS
 62
     5
 10
12.56372579068346
 20
10.768962882977659
 30
0.0
 11
12.53949779068347
 21
10.614707882977511
 31
0.0
  0
ARC
  5
E1
  8
DETAIL
  6
CONTINUOUS
 62
     5
 10
12.36614779068344
 20
-10.80000511702238
 30
0.0
 40
0.200000000000046
 50
270.0
 51
8.9260770000028096
  0
LINE
  5
E2
  8
DETAIL
  6
CONTINUOUS
 62
     5
 10
12.56372579068346
 20
-10.76897311702251
 30
0.0
 11
12.53949779068347
 21
-10.614717117022479
 31
0.0
  0
ARC
  5
E3
  8
DETAIL
  6
CONTINUOUS
 62
     5
 10
31.000011790683349
 20
-10.20851511702236
 30
0.0
 40
0.9999999999999699
 50
270.48969600000243
 51
0.0
  0
LINE
  5
E4
  8
DETAIL
  6
CONTINUOUS
 62
     5
 10
32.000011790683359
 20
-10.20851511702236
 30
0.0
 11
32.000011790683359
 21
10.208505882977621
 31
0.0
  0
ARC
  5
E5
  8
DETAIL
  6
CONTINUOUS
 62
     5
 10
31.000011790683349
 20
10.208505882977621
 30
0.0
 40
1.0
 50
0.0
 51
89.510303999997575
  0
LINE
  5
E6
  8
DETAIL
  6
CONTINUOUS
 62
     5
 10
3.8000117906835271
 20
8.2670168829775736
 30
0.0
 11
3.8000117906835271
 21
5.2329738829776877
 31
0.0
  0
LINE
  5
E7
  8
DETAIL
  6
CONTINUOUS
 62
     5
 10
3.8000117906835271
 20
8.1999948829776184
 30
0.0
 11
4.6000117906834808
 21
8.1999948829776184
 31
0.0
  0
LINE
  5
E8
  8
DETAIL
  6
CONTINUOUS
 62
     5
 10
3.8000117906835271
 20
5.2999948829775292
 30
0.0
 11
4.6000117906834808
 21
5.2999948829775292
 31
0.0
  0
LINE
  5
E9
  8
DETAIL
  6
CONTINUOUS
 62
     5
 10
4.6000117906834808
 20
6.1246158829775084
 30
0.0
 11
4.6000117906834808
 21
5.4999948829775747
 31
0.0
  0
LINE
  5
EA
  8
DETAIL
  6
CONTINUOUS
 62
     5
 10
4.4000117906834362
 20
5.2999948829775292
 30
0.0
 11
4.4000117906834362
 21
8.1999948829776184
 31
0.0
  0
LINE
  5
EB
  8
DETAIL
  6
CONTINUOUS
 62
     5
 10
3.8000117906835271
 20
-5.2329831170224281
 30
0.0
 11
3.8000117906835271
 21
-8.2670261170223096
 31
0.0
  0
LINE
  5
EC
  8
DETAIL
  6
CONTINUOUS
 62
     5
 10
3.8000117906835271
 20
-5.300005117022379
 30
0.0
 11
4.6000117906834808
 21
-5.300005117022379
 31
0.0
  0
LINE
  5
ED
  8
DETAIL
  6
CONTINUOUS
 62
     5
 10
3.8000117906835271
 20
-8.2000051170224708
 30
0.0
 11
4.6000117906834808
 21
-8.2000051170224708
 31
0.0
  0
LINE
  5
EE
  8
DETAIL
  6
CONTINUOUS
 62
     5
 10
4.4000117906834362
 20
-5.300005117022379
 30
0.0
 11
4.4000117906834362
 21
-8.2000051170224708
 31
0.0
  0
LINE
  5
EF
  8
DETAIL
  6
CONTINUOUS
 62
     5
 10
4.6000117906834808
 20
-6.1218131170225263
 30
0.0
 11
4.6000117906834808
 21
-5.5000051170224236
 31
0.0
  0
LINE
  5
F0
  8
DETAIL
  6
CONTINUOUS
 62
     5
 10
31.00855879068348
 20
11.2084688829776
 30
0.0
 11
11.300451826221829
 21
11.37691420406318
 31
0.0
  0
LINE
  5
F1
  8
DETAIL
  6
CONTINUOUS
 62
     5
 10
11.300451826221829
 20
-11.000005117022431
 30
0.0
 11
12.36614779068344
 21
-11.000005117022431
 31
0.0
  0
LINE
  5
F2
  8
DETAIL
  6
CONTINUOUS
 62
     5
 10
11.300451826221829
 20
10.999994882977569
 30
0.0
 11
12.36614779068344
 21
10.999994882977569
 31
0.0
  0
LINE
  5
F3
  8
DETAIL
  6
CONTINUOUS
 62
     5
 10
3.8000117906835271
 20
9.5328813179384877
 30
0.0
 11
3.8000117906835271
 21
5.4999948829775747
 31
0.0
  0
LINE
  5
F4
  8
DETAIL
  6
CONTINUOUS
 62
     5
 10
4.6000117906834808
 20
5.1999948829775633
 30
0.0
 11
4.6000117906834808
 21
9.525958619310499
 31
0.0
  0
LINE
  5
F5
  8
DETAIL
  6
CONTINUOUS
 62
     5
 10
4.6000117906834808
 20
-9.5284196646303201
 30
0.0
 11
4.6000117906834808
 21
-5.2000051170224131
 31
0.0
  0
LINE
  5
F6
  8
DETAIL
  6
CONTINUOUS
 62
     5
 10
3.8000117906835271
 20
-5.5000051170224236
 30
0.0
 11
3.8000117906835271
 21
-9.5351547368385638
 31
0.0
  0
LINE
  5
F7
  8
DETAIL
  6
CONTINUOUS
 62
     5
 10
11.300451826221829
 20
-11.376924438108031
 30
0.0
 11
31.008558498660879
 21
-11.20847911951839
 31
0.0
  0
ARC
  5
F8
  8
DETAIL
  6
CONTINUOUS
 62
     5
 10
2.0004518262217621
 20
-15.082308322775649
 30
0.0
 40
0.9999999999999847
 50
97.495853961082005
 51
180.0
  0
LINE
  5
F9
  8
DETAIL
  6
CONTINUOUS
 62
     5
 10
3.8004518262218312
 20
-5.2000051170224131
 30
0.0
 11
3.8004518262218312
 21
-9.5351511170224228
 31
0.0
  0
LINE
  5
FA
  8
DETAIL
  6
CONTINUOUS
 62
     5
 10
3.8004518262218312
 20
9.5328768829776038
 30
0.0
 11
3.8004518262218312
 21
5.1999948829775633
 31
0.0
  0
ARC
  5
FB
  8
DETAIL
  6
CONTINUOUS
 62
     5
 10
0.5004518262218767
 20
-35.045005117022441
 30
0.0
 40
0.5
 50
270.0
 51
0.0
  0
LINE
  5
FC
  8
DETAIL
  6
CONTINUOUS
 62
     5
 10
1.000451826221876
 20
-35.045005117022441
 30
0.0
 11
1.0004518262217621
 21
-15.08230832277567
 31
0.0
  0
LINE
  5
FD
  8
DETAIL
  6
CONTINUOUS
 62
     5
 10
0.0004518262218767
 20
-35.545005117022441
 30
0.0
 11
0.5004518262218767
 21
-35.545005117022441
 31
0.0
  0
ARC
  5
FE
  8
DETAIL
  6
CONTINUOUS
 62
     5
 10
0.5004518262218767
 20
34.954994882977559
 30
0.0
 40
0.5
 50
0.0
 51
90.0
  0
LINE
  5
FF
  8
DETAIL
  6
CONTINUOUS
 62
     5
 10
1.000451826221876
 20
34.954994882977559
 30
0.0
 11
1.000451826221876
 21
13.1212918829776
 31
0.0
  0
LINE
  5
100
  8
DETAIL
  6
CONTINUOUS
 62
     5
 10
0.0004518262218767
 20
35.454994882977559
 30
0.0
 11
0.5004518262218767
 21
35.454994882977559
 31
0.0
  0
ARC
  5
101
  8
DETAIL
  6
CONTINUOUS
 62
     5
 10
11.100451826221789
 20
-12.67459711702239
 30
0.0
 40
0.200000000000006
 50
277.49585799999329
 51
0.0
  0
LINE
  5
102
  8
DETAIL
  6
CONTINUOUS
 62
     5
 10
11.300451826221829
 20
-12.67459711702239
 30
0.0
 11
11.300451826221829
 21
0.3949948829775565
 31
0.0
  0
LINE
  5
103
  8
DETAIL
  6
CONTINUOUS
 62
     5
 10
1.8699973773062191
 20
-14.09085401885736
 30
0.0
 11
11.126542826221741
 21
-12.872888117022431
 31
0.0
  0
LINE
  5
104
  8
DETAIL
  6
CONTINUOUS
 62
     5
 10
7.6004518262217848
 20
-8.7594469910999635
 30
0.0
 11
7.6004518262217848
 21
-8.7500051170224822
 31
0.0
  0
LINE
  5
105
  8
DETAIL
  6
CONTINUOUS
 62
     5
 10
6.8504518262217848
 20
-8.0000051170224822
 30
0.0
 11
5.1004518262217848
 21
-8.0000051170224822
 31
0.0
  0
ARC
  5
106
  8
DETAIL
  6
CONTINUOUS
 62
     5
 10
5.1004518262217848
 20
-7.5000051170224813
 30
0.0
 40
0.5
 50
179.99999799999719
 51
270.0
  0
LINE
  5
107
  8
DETAIL
  6
CONTINUOUS
 62
     5
 10
4.6004518262217848
 20
-7.5000051170224813
 30
0.0
 11
4.6004518262217848
 21
-5.2000051170224131
 31
0.0
  0
LINE
  5
108
  8
DETAIL
  6
CONTINUOUS
 62
     5
 10
4.6004518262217848
 20
-5.2000051170224131
 30
0.0
 11
1.800451826221831
 21
-5.2000051170224131
 31
0.0
  0
ARC
  5
109
  8
DETAIL
  6
CONTINUOUS
 62
     5
 10
1.800451826221831
 20
-5.0000051170224813
 30
0.0
 40
0.200000000000046
 50
179.99999800001021
 51
270.0
  0
LINE
  5
10A
  8
DETAIL
  6
CONTINUOUS
 62
     5
 10
1.6004518262217851
 20
-5.0000051170224813
 30
0.0
 11
1.6004518262217851
 21
4.9999948829775169
 31
0.0
  0
ARC
  5
10B
  8
DETAIL
  6
CONTINUOUS
 62
     5
 10
1.800451826221831
 20
4.9999948829775169
 30
0.0
 40
0.200000000000046
 50
90.0
 51
179.99999800001021
  0
LINE
  5
10C
  8
DETAIL
  6
CONTINUOUS
 62
     5
 10
1.800451826221831
 20
5.1999948829775633
 30
0.0
 11
4.6004518262217848
 21
5.1999948829775633
 31
0.0
  0
ARC
  5
10D
  8
DETAIL
  6
CONTINUOUS
 62
     5
 10
5.1004518262217848
 20
6.9999948829775169
 30
0.0
 40
0.5
 50
90.0
 51
179.99999799999719
  0
LINE
  5
10E
  8
DETAIL
  6
CONTINUOUS
 62
     5
 10
5.1004518262217848
 20
7.499994882977516
 30
0.0
 11
6.8504518262217848
 21
7.499994882977516
 31
0.0
  0
LINE
  5
10F
  8
DETAIL
  6
CONTINUOUS
 62
     5
 10
7.6004518262217848
 20
8.249994882977516
 30
0.0
 11
7.6004518262217848
 21
8.7564566418272136
 31
0.0
  0
ARC
  5
110
  8
DETAIL
  6
CONTINUOUS
 62
     5
 10
2.0004518262218758
 20
13.1212918829776
 30
0.0
 40
1.0
 50
179.99999799999719
 51
268.33166299999442
  0
LINE
  5
111
  8
DETAIL
  6
CONTINUOUS
 62
     5
 10
11.300451826221829
 20
0.3949948829775565
 30
0.0
 11
11.300451826221829
 21
11.65573488297761
 31
0.0
  0
ARC
  5
112
  8
DETAIL
  6
CONTINUOUS
 62
     5
 10
11.100451826221789
 20
11.65573488297761
 30
0.0
 40
0.200000000000045
 50
0.0
 51
88.331661999979474
  0
LINE
  5
113
  8
DETAIL
  6
CONTINUOUS
 62
     5
 10
11.10627482622175
 20
11.855649882977531
 30
0.0
 11
1.9713378262217121
 21
12.121715882977551
 31
0.0
  0
LINE
  5
114
  8
DETAIL
  6
CONTINUOUS
 62
     5
 10
4.6004518262217848
 20
5.1999948829775633
 30
0.0
 11
4.6004518262217848
 21
6.9999948829775169
 31
0.0
  0
ARC
  5
115
  8
DETAIL
  6
CONTINUOUS
 62
     5
 10
6.8504518262217848
 20
8.7564566418272136
 30
0.0
 40
0.75
 50
0.0
 51
89.504210607023253
  0
ARC
  5
116
  8
DETAIL
  6
CONTINUOUS
 62
     5
 10
6.8504518262217848
 20
8.249994882977516
 30
0.0
 40
0.75
 50
270.0
 51
0.0
  0
ARC
  5
117
  8
DETAIL
  6
CONTINUOUS
 62
     5
 10
6.8504518262217848
 20
-8.7500051170224822
 30
0.0
 40
0.75
 50
0.0
 51
90.0
  0
ARC
  5
118
  8
DETAIL
  6
CONTINUOUS
 62
     5
 10
6.8504518262217848
 20
-8.7594469910999635
 30
0.0
 40
0.7499999999999442
 50
270.482352619636
 51
0.0
  0
LINE
  5
119
  8
DETAIL
  6
CONTINUOUS
 62
     5
 10
0.000060300902021
 20
-9.5671459214279064
 30
0.0
 11
6.8567657326659051
 21
-9.5094204136859446
 31
0.0
  0
LINE
  5
11A
  8
DETAIL
  6
CONTINUOUS
 62
     5
 10
6.8569416132095844
 20
9.5064285630781722
 30
0.0
 11
0.0002012946959553
 21
9.5657624965725461
 31
0.0
  0
LINE
  5
11B
  8
DETAIL
  6
CONTINUOUS
 62
     5
 10
-16.62935830398925
 20
0.0000000000000284
 30
0.0
 11
38.207406892631241
 21
0.0000000000000284
 31
0.0
  0
LINE
  5
11C
  8
SIZE
  6
CONTINUOUS
 62
    30
 10
0.0004421506359348
 20
80.000000000000028
 30
0.0
 11
0.0004421506359377
 21
128.20718036396971
 31
0.0
  0
LINE
  5
11D
  8
SIZE
  6
CONTINUOUS
 62
    30
 10
-10.499988209316649
 20
76.50000000000027
 30
0.0
 11
-10.499988209316649
 21
128.20718036396971
 31
0.0
  0
LINE
  5
11E
  8
SIZE
  6
CONTINUOUS
 62
    30
 10
12.000442150635941
 20
108.2071803639697
 30
0.0
 11
24.000442150635951
 21
108.2071803639697
 31
0.0
  0
LINE
  5
11F
  8
SIZE
  6
CONTINUOUS
 62
    30
 10
-22.499988209316651
 20
108.2071803639697
 30
0.0
 11
-249.07141678074521
 21
108.2071803639697
 31
0.0
  0
LINE
  5
120
  8
SIZE
  6
CONTINUOUS
 62
    30
 10
0.0004421506359365
 20
108.2071803639697
 30
0.0
 11
-10.499988209316649
 21
108.2071803639697
 31
0.0
  0
CIRCLE
  5
121
  8
SIZE
  6
CONTINUOUS
 62
    30
 10
0.0004421506359365
 20
108.2071803639697
 30
0.0
 40
6.0
  0
LINE
  5
122
  8
SIZE
  6
CONTINUOUS
 62
    30
 10
0.0004421506359365
 20
108.2071803639697
 30
0.0
 11
12.00044215063593
 21
108.2071803639697
 31
0.0
  0
CIRCLE
  5
123
  8
SIZE
  6
CONTINUOUS
 62
    30
 10
-10.499988209316649
 20
108.2071803639697
 30
0.0
 40
6.0
  0
LINE
  5
124
  8
SIZE
  6
CONTINUOUS
 62
    30
 10
-10.499988209316649
 20
108.2071803639697
 30
0.0
 11
-22.499988209316651
 21
108.2071803639697
 31
0.0
  0
TEXT
  5
125
  8
SIZE
  6
CONTINUOUS
 62
    30
 10
-224.07141678074521
 20
133.20718036396971
 30
0.0
 40
64.0
  1
10.5
 41
0.9
 72
     1
 11
-141.7857024950309
 21
133.20718036396971
 31
0.0
  0
POINT
  5
126
  8
DEFPOINTS
  6
CONTINUOUS
 62
    30
 10
0.0004421506359336
 20
60.000000000000021
 30
0.0
  0
POINT
  5
127
  8
DEFPOINTS
  6
CONTINUOUS
 62
    30
 10
-10.499988209316649
 20
56.500000000000263
 30
0.0
  0
POINT
  5
128
  8
DEFPOINTS
  6
CONTINUOUS
 62
    30
 10
-10.499988209316649
 20
108.2071803639697
 30
0.0
  0
LINE
  5
129
  8
SIZE
  6
CONTINUOUS
 62
    30
 10
0.0004421506359348
 20
80.000000000000028
 30
0.0
 11
0.0004421506359377
 21
128.20718036396971
 31
0.0
  0
LINE
  5
12A
  8
SIZE
  6
CONTINUOUS
 62
    30
 10
32.000011790683359
 20
30.208505882977619
 30
0.0
 11
32.000011790683359
 21
128.20718036396971
 31
0.0
  0
LINE
  5
12B
  8
SIZE
  6
CONTINUOUS
 62
    30
 10
-11.999557849364059
 20
108.2071803639697
 30
0.0
 11
-23.999557849364049
 21
108.2071803639697
 31
0.0
  0
LINE
  5
12C
  8
SIZE
  6
CONTINUOUS
 62
    30
 10
44.000011790683352
 20
108.2071803639697
 30
0.0
 11
199.2571546478261
 21
108.2071803639697
 31
0.0
  0
LINE
  5
12D
  8
SIZE
  6
CONTINUOUS
 62
    30
 10
0.0004421506359365
 20
108.2071803639697
 30
0.0
 11
32.000011790683359
 21
108.2071803639697
 31
0.0
  0
CIRCLE
  5
12E
  8
SIZE
  6
CONTINUOUS
 62
    30
 10
0.0004421506359365
 20
108.2071803639697
 30
0.0
 40
6.0
  0
LINE
  5
12F
  8
SIZE
  6
CONTINUOUS
 62
    30
 10
0.0004421506359365
 20
108.2071803639697
 30
0.0
 11
-11.999557849364059
 21
108.2071803639697
 31
0.0
  0
CIRCLE
  5
130
  8
SIZE
  6
CONTINUOUS
 62
    30
 10
32.000011790683359
 20
108.2071803639697
 30
0.0
 40
6.0
  0
LINE
  5
131
  8
SIZE
  6
CONTINUOUS
 62
    30
 10
32.000011790683359
 20
108.2071803639697
 30
0.0
 11
44.000011790683352
 21
108.2071803639697
 31
0.0
  0
TEXT
  5
132
  8
SIZE
  6
CONTINUOUS
 62
    30
 10
81.000011790683374
 20
133.20718036396971
 30
0.0
 40
64.0
  1
32
 41
0.9
 72
     1
 11
127.62858321925481
 21
133.20718036396971
 31
0.0
  0
POINT
  5
133
  8
DEFPOINTS
  6
CONTINUOUS
 62
    30
 10
0.0004421506359336
 20
60.000000000000021
 30
0.0
  0
POINT
  5
134
  8
DEFPOINTS
  6
CONTINUOUS
 62
    30
 10
32.000011790683359
 20
10.208505882977621
 30
0.0
  0
POINT
  5
135
  8
DEFPOINTS
  6
CONTINUOUS
 62
    30
 10
32.000011790683359
 20
108.2071803639697
 30
0.0
  0
LINE
  5
136
  8
SIZE
  6
CONTINUOUS
 62
    30
 10
-26.999988209316651
 20
60.000000000000249
 30
0.0
 11
-83.292856680581238
 21
60.000000000000277
 31
0.0
  0
LINE
  5
137
  8
SIZE
  6
CONTINUOUS
 62
    30
 10
-27.000442150636609
 20
-59.999999999999957
 30
0.0
 11
-83.292856680581281
 21
-59.999999999999929
 31
0.0
  0
LINE
  5
138
  8
SIZE
  6
CONTINUOUS
 62
    30
 10
-63.292856680581238
 20
72.00000000000027
 30
0.0
 11
-63.292856680581238
 21
84.00000000000027
 31
0.0
  0
LINE
  5
139
  8
SIZE
  6
CONTINUOUS
 62
    30
 10
-63.292856680581281
 20
-71.999999999999943
 30
0.0
 11
-63.292856680581302
 21
-83.999999999999957
 31
0.0
  0
LINE
  5
13A
  8
SIZE
  6
CONTINUOUS
 62
    30
 10
-63.292856680581238
 20
60.000000000000277
 30
0.0
 11
-63.292856680581281
 21
-59.999999999999957
 31
0.0
  0
CIRCLE
  5
13B
  8
SIZE
  6
CONTINUOUS
 62
    30
 10
-63.292856680581238
 20
60.000000000000277
 30
0.0
 40
6.0
  0
LINE
  5
13C
  8
SIZE
  6
CONTINUOUS
 62
    30
 10
-63.292856680581238
 20
60.000000000000277
 30
0.0
 11
-63.292856680581238
 21
72.00000000000027
 31
0.0
  0
CIRCLE
  5
13D
  8
SIZE
  6
CONTINUOUS
 62
    30
 10
-63.292856680581281
 20
-59.999999999999957
 30
0.0
 40
6.0
  0
LINE
  5
13E
  8
SIZE
  6
CONTINUOUS
 62
    30
 10
-63.292856680581281
 20
-59.999999999999957
 30
0.0
 11
-63.292856680581281
 21
-71.999999999999943
 31
0.0
  0
TEXT
  5
13F
  8
SIZE
  6
CONTINUOUS
 62
    30
 10
-88.292856680581309
 20
-68.571428571428385
 30
0.0
 40
64.0
  1
120
 50
90.0
 41
0.9
 72
     1
 11
-88.292856680581309
 21
0.0000000000001653
 31
0.0
  0
POINT
  5
140
  8
DEFPOINTS
  6
CONTINUOUS
 62
    30
 10
-6.9999882093166539
 20
60.000000000000249
 30
0.0
  0
POINT
  5
141
  8
DEFPOINTS
  6
CONTINUOUS
 62
    30
 10
-7.0004421506366148
 20
-59.999999999999972
 30
0.0
  0
POINT
  5
142
  8
DEFPOINTS
  6
CONTINUOUS
 62
    30
 10
-63.292856680581281
 20
-59.999999999999957
 30
0.0
  0
LINE
  5
143
  8
NOTE
  6
CONTINUOUS
 62
     4
 10
-14.8499999999989
 20
41.749999999999993
 30
0.0
 11
14.85000000000001
 21
41.749999999999993
 31
0.0
  0
CIRCLE
  5
144
  8
FIX
  6
CONTINUOUS
 62
    11
 39
50.0
 10
-0.0000000000003547
 20
41.749999999999993
 30
0.0
 40
4.0
  0
LINE
  5
145
  8
NOTE
  6
CONTINUOUS
 62
     4
 10
-14.85011105840359
 20
-41.749999996475999
 30
0.0
 11
14.849888941595321
 21
-41.749999996475999
 31
0.0
  0
CIRCLE
  5
146
  8
FIX
  6
CONTINUOUS
 62
    11
 39
50.0
 10
-0.0001110584050426
 20
-41.749999996475999
 30
0.0
 40
4.0
  0
LINE
  5
147
  8
SIZE
  6
CONTINUOUS
 62
    30
 10
34.850000000000009
 20
41.749999999999993
 30
0.0
 11
176.59946727517621
 21
41.74999999999995
 31
0.0
  0
LINE
  5
148
  8
SIZE
  6
CONTINUOUS
 62
    30
 10
34.849888941595317
 20
-41.749999996475999
 30
0.0
 11
176.59946727517621
 21
-41.749999996476063
 31
0.0
  0
LINE
  5
149
  8
SIZE
  6
CONTINUOUS
 62
    30
 10
156.59946727517621
 20
29.749999999999961
 30
0.0
 11
156.59946727517621
 21
-29.749999996476049
 31
0.0
  0
LINE
  5
14A
  8
SIZE
  6
CONTINUOUS
 62
    30
 10
156.59946727517621
 20
-41.749999996476042
 30
0.0
 11
156.5994672751761
 21
-279.29285713933319
 31
0.0
  0
CIRCLE
  5
14B
  8
SIZE
  6
CONTINUOUS
 62
    30
 10
156.59946727517621
 20
41.749999999999957
 30
0.0
 40
6.0
  0
LINE
  5
14C
  8
SIZE
  6
CONTINUOUS
 62
    30
 10
156.59946727517621
 20
41.749999999999957
 30
0.0
 11
156.59946727517621
 21
29.749999999999961
 31
0.0
  0
CIRCLE
  5
14D
  8
SIZE
  6
CONTINUOUS
 62
    30
 10
156.59946727517621
 20
-41.749999996476042
 30
0.0
 40
6.0
  0
LINE
  5
14E
  8
SIZE
  6
CONTINUOUS
 62
    30
 10
156.59946727517621
 20
-41.749999996476042
 30
0.0
 11
156.59946727517621
 21
-29.749999996476049
 31
0.0
  0
TEXT
  5
14F
  8
SIZE
  6
CONTINUOUS
 62
    30
 10
131.59946727517621
 20
-254.29285713933319
 30
0.0
 40
64.0
  1
83.5
 50
90.0
 41
0.9
 72
     1
 11
131.59946727517621
 21
-166.52142856790459
 31
0.0
  0
POINT
  5
150
  8
DEFPOINTS
  6
CONTINUOUS
 62
    30
 10
14.85000000000001
 20
41.749999999999993
 30
0.0
  0
POINT
  5
151
  8
DEFPOINTS
  6
CONTINUOUS
 62
    30
 10
14.849888941595321
 20
-41.749999996475999
 30
0.0
  0
POINT
  5
152
  8
DEFPOINTS
  6
CONTINUOUS
 62
    30
 10
156.59946727517621
 20
-41.749999996476042
 30
0.0
  0
TEXT
  5
15B
  8
ETC
  6
CONTINUOUS
 62
    61
 10
322.03726602681269
 20
16.22135160420429
 30
0.0
 40
40.0
  1
P-10SWL
 41
0.9
  0
ENDSEC
  0
EOF
