  0
SECTION
  2
HEADER
  9
$ACADVER
  1
AC1009
  9
$INSBASE
 10
0.0
 20
0.0
 30
0.0
  9
$EXTMIN
 10
-421.08497826880472
 20
-101.61410069934421
 30
0.0
  9
$EXTMAX
 10
758.53929511666922
 20
431.53713342324841
 30
50.0
  9
$LIMMIN
 10
-2970.0
 20
-2100.0
  9
$LIMMAX
 10
2970.0
 20
2100.0
  9
$ORTHOMODE
 70
     1
  9
$REGENMODE
 70
     0
  9
$FILLMODE
 70
     1
  9
$QTEXTMODE
 70
     0
  9
$MIRRTEXT
 70
     0
  9
$DRAGMODE
 70
     2
  9
$LTSCALE
 40
20.0
  9
$OSMODE
 70
    55
  9
$ATTMODE
 70
     1
  9
$TEXTSIZE
 40
64.0
  9
$TRACEWID
 40
0.05
  9
$TEXTSTYLE
  7
STANDARD
  9
$CLAYER
  8
SIZE
  9
$CELTYPE
  6
CONTINUOUS
  9
$CECOLOR
 62
    30
  9
$DIMSCALE
 40
1.0
  9
$DIMASZ
 40
40.0
  9
$DIMEXO
 40
20.0
  9
$DIMDLI
 40
200.0
  9
$DIMRND
 40
0.0
  9
$DIMDLE
 40
0.0
  9
$DIMEXE
 40
20.0
  9
$DIMTP
 40
0.0
  9
$DIMTM
 40
0.000000001
  9
$DIMTXT
 40
64.0
  9
$DIMCEN
 40
0.09
  9
$DIMTSZ
 40
0.0
  9
$DIMTOL
 70
     0
  9
$DIMLIM
 70
     0
  9
$DIMTIH
 70
     0
  9
$DIMTOH
 70
     0
  9
$DIMSE1
 70
     0
  9
$DIMSE2
 70
     0
  9
$DIMTAD
 70
     1
  9
$DIMZIN
 70
     8
  9
$DIMBLK
  1
NONE
  9
$DIMASO
 70
     1
  9
$DIMSHO
 70
     0
  9
$DIMPOST
  1

  9
$DIMAPOST
  1

  9
$DIMALT
 70
     0
  9
$DIMALTD
 70
     2
  9
$DIMALTF
 40
25.399999999999999
  9
$DIMLFAC
 40
1.0
  9
$DIMTOFL
 70
     1
  9
$DIMTVP
 40
0.0
  9
$DIMTIX
 70
     1
  9
$DIMSOXD
 70
     0
  9
$DIMSAH
 70
     0
  9
$DIMBLK1
  1

  9
$DIMBLK2
  1

  9
$DIMSTYLE
  2
STANDARD
  9
$DIMCLRD
 70
   256
  9
$DIMCLRE
 70
   256
  9
$DIMCLRT
 70
   256
  9
$DIMTFAC
 40
0.7
  9
$DIMGAP
 40
20.0
  9
$LUNITS
 70
     2
  9
$LUPREC
 70
     4
  9
$SKETCHINC
 40
0.1
  9
$FILLETRAD
 40
1.0
  9
$AUNITS
 70
     1
  9
$AUPREC
 70
     3
  9
$MENU
  1
ACAD
  9
$ELEVATION
 40
0.0
  9
$PELEVATION
 40
0.0
  9
$THICKNESS
 40
50.0
  9
$LIMCHECK
 70
     0
  9
$BLIPMODE
 70
     0
  9
$CHAMFERA
 40
0.5
  9
$CHAMFERB
 40
0.5
  9
$SKPOLY
 70
     0
  9
$TDCREATE
 40
2451453.49385081
  9
$TDUPDATE
 40
2456730.554288622
  9
$TDINDWG
 40
1.2484334259000001
  9
$TDUSRTIMER
 40
1.2484308911999999
  9
$USRTIMER
 70
     1
  9
$ANGBASE
 50
0.0
  9
$ANGDIR
 70
     0
  9
$PDMODE
 70
     3
  9
$PDSIZE
 40
-2.0
  9
$PLINEWID
 40
0.0
  9
$COORDS
 70
     1
  9
$SPLFRAME
 70
     0
  9
$SPLINETYPE
 70
     6
  9
$SPLINESEGS
 70
     8
  9
$ATTDIA
 70
     0
  9
$ATTREQ
 70
     1
  9
$HANDLING
 70
     1
  9
$HANDSEED
  5
15A6
  9
$SURFTAB1
 70
     6
  9
$SURFTAB2
 70
     6
  9
$SURFTYPE
 70
     6
  9
$SURFU
 70
     6
  9
$SURFV
 70
     6
  9
$UCSNAME
  2

  9
$UCSORG
 10
0.0
 20
0.0
 30
0.0
  9
$UCSXDIR
 10
1.0
 20
0.0
 30
0.0
  9
$UCSYDIR
 10
0.0
 20
1.0
 30
0.0
  9
$PUCSNAME
  2

  9
$PUCSORG
 10
0.0
 20
0.0
 30
0.0
  9
$PUCSXDIR
 10
1.0
 20
0.0
 30
0.0
  9
$PUCSYDIR
 10
0.0
 20
1.0
 30
0.0
  9
$USERI1
 70
     0
  9
$USERI2
 70
     0
  9
$USERI3
 70
     0
  9
$USERI4
 70
     0
  9
$USERI5
 70
     0
  9
$USERR1
 40
20.0
  9
$USERR2
 40
0.0
  9
$USERR3
 40
0.0
  9
$USERR4
 40
0.0
  9
$USERR5
 40
0.0
  9
$WORLDVIEW
 70
     1
  9
$SHADEDGE
 70
     3
  9
$SHADEDIF
 70
    70
  9
$TILEMODE
 70
     1
  9
$MAXACTVP
 70
    48
  9
$PLIMCHECK
 70
     0
  9
$PEXTMIN
 10
1.0000000000000000E+020
 20
1.0000000000000000E+020
 30
1.0000000000000000E+020
  9
$PEXTMAX
 10
-1.0000000000000000E+020
 20
-1.0000000000000000E+020
 30
-1.0000000000000000E+020
  9
$PLIMMIN
 10
0.0
 20
0.0
  9
$PLIMMAX
 10
12.0
 20
9.0
  9
$UNITMODE
 70
     0
  9
$VISRETAIN
 70
     1
  9
$PLINEGEN
 70
     0
  9
$PSLTSCALE
 70
     1
  0
ENDSEC
  0
SECTION
  2
TABLES
  0
TABLE
  2
VPORT
 70
     1
  0
VPORT
  2
*ACTIVE
 70
     0
 10
0.0
 20
0.0
 11
1.0
 21
1.0
 12
434.58267300419487
 22
-39.44985449651665
 13
0.0
 23
0.0
 14
1.0
 24
1.0
 15
0.0
 25
0.0
 16
0.0
 26
0.0
 36
1.0
 17
0.0
 27
0.0
 37
0.0
 40
1465.000205285143
 41
1.695478723404255
 42
50.0
 43
0.0
 44
0.0
 50
0.0
 51
0.0
 71
     0
 72
   100
 73
     1
 74
     1
 75
     0
 76
     0
 77
     0
 78
     0
  0
ENDTAB
  0
TABLE
  2
LTYPE
 70
     4
  0
LTYPE
  2
CONTINUOUS
 70
     0
  3
実線
 72
    65
 73
     0
 40
0.0
  0
LTYPE
  2
DASHDOT
 70
     0
  3
____ _ ____ _ ____ _ ____ _ ____ _ ____ _ ____
 72
    65
 73
     4
 40
5.5
 49
4.0
 49
-0.6
 49
0.3
 49
-0.6
  0
LTYPE
  2
DASHED
 70
     0
  3
Dashed __ __ __ __ __ __ __ __ __ __ __ __ __ _
 72
    65
 73
     2
 40
0.75
 49
0.5
 49
-0.25
  0
ENDTAB
  0
TABLE
  2
LAYER
 70
    12
  0
LAYER
  2
0
 70
     0
 62
     7
  6
CONTINUOUS
  0
LAYER
  2
SIZE
 70
     0
 62
    30
  6
CONTINUOUS
  0
LAYER
  2
OUTLINE
 70
     0
 62
     3
  6
CONTINUOUS
  0
LAYER
  2
BASIS
 70
     0
 62
     6
  6
DASHDOT
  0
LAYER
  2
DETAIL
 70
     0
 62
     5
  6
CONTINUOUS
  0
LAYER
  2
ARRANGE
 70
     0
 62
     1
  6
CONTINUOUS
  0
LAYER
  2
DEFPOINTS
 70
     0
 62
     7
  6
CONTINUOUS
  0
LAYER
  2
ETC
 70
     0
 62
    61
  6
CONTINUOUS
  0
LAYER
  2
FIX
 70
     0
 62
    11
  6
CONTINUOUS
  0
LAYER
  2
NOTE
 70
     0
 62
     4
  6
CONTINUOUS
  0
LAYER
  2
SERVICESPACE
 70
     0
 62
     2
  6
DASHDOT
  0
LAYER
  2
SYMBOLLINE
 70
     0
 62
    15
  6
CONTINUOUS
  0
ENDTAB
  0
TABLE
  2
STYLE
 70
     3
  0
STYLE
  2
STANDARD
 70
     0
 40
64.0
 41
0.9
 50
0.0
 71
     0
 42
64.0
  3
SIMPLEX.shx
  4
BIGFONT.shx
  0
STYLE
  2
ANNOTATIVE
 70
     0
 40
0.0
 41
1.0
 50
0.0
 71
     0
 42
0.2
  3
txt
  4

  0
STYLE
  2

 70
     1
 40
0.0
 41
1.0
 50
0.0
 71
     0
 42
64.0
  3
ltypeshp.shx
  4

  0
ENDTAB
  0
TABLE
  2
VIEW
 70
     1
  0
VIEW
  2
ALL
 70
     0
 40
4282.6198079999967
 10
0.0
 20
41.309903999999989
 41
5940.0
 11
0.0
 21
0.0
 31
1.0
 12
0.0
 22
0.0
 32
0.0
 42
50.0
 43
0.0
 44
0.0
 50
0.0
 71
     0
  0
ENDTAB
  0
TABLE
  2
UCS
 70
     0
  0
ENDTAB
  0
TABLE
  2
APPID
 70
     5
  0
APPID
  2
ACAD
 70
     0
  0
APPID
  2
ACADANNOTATIVE
 70
     0
  0
APPID
  2
ACAD_MLEADERVER
 70
     0
  0
APPID
  2
ACAD_EXEMPT_FROM_CAD_STANDARDS
 70
     0
  0
APPID
  2
ACAD_NAV_VCDISPLAY
 70
     0
  0
ENDTAB
  0
TABLE
  2
DIMSTYLE
 70
     2
  0
DIMSTYLE
  2
STANDARD
 70
     0
  3

  4

  5

  6

  7

 40
1.0
 41
0.18
 42
0.0625
 43
0.38
 44
0.18
 45
0.0
 46
0.0
 47
0.0
 48
0.0
140
0.18
141
0.09
142
0.0
143
25.399999999999999
144
1.0
145
0.0
146
1.0
147
0.09
 71
     0
 72
     0
 73
     1
 74
     1
 75
     0
 76
     0
 77
     0
 78
     0
170
     0
171
     2
172
     0
173
     0
174
     0
175
     0
176
     0
177
     0
178
     0
  0
DIMSTYLE
  2
ANNOTATIVE
 70
     0
  3

  4

  5

  6

  7

 40
1.0
 41
0.18
 42
0.0625
 43
0.38
 44
0.18
 45
0.0
 46
0.0
 47
0.0
 48
0.0
140
0.18
141
0.09
142
0.0
143
25.399999999999999
144
1.0
145
0.0
146
1.0
147
0.09
 71
     0
 72
     0
 73
     1
 74
     1
 75
     0
 76
     0
 77
     0
 78
     0
170
     0
171
     2
172
     0
173
     0
174
     0
175
     0
176
     0
177
     0
178
     0
  0
ENDTAB
  0
ENDSEC
  0
SECTION
  2
BLOCKS
  0
BLOCK
  8
0
  2
$MODEL_SPACE
 70
     0
 10
0.0
 20
0.0
 30
0.0
  3
$MODEL_SPACE
  1

  0
ENDBLK
  5
150F
  8
0
  0
BLOCK
 67
     1
  8
0
  2
$PAPER_SPACE
 70
     0
 10
0.0
 20
0.0
 30
0.0
  3
$PAPER_SPACE
  1

  0
ENDBLK
  5
150B
 67
     1
  8
0
  0
BLOCK
  8
0
  2
DOT1
 70
     0
 10
0.0
 20
0.0
 30
0.0
  3
DOT1
  1

  0
CIRCLE
  5
12BD
  8
SIZE
  6
CONTINUOUS
 62
     7
 10
0.0
 20
0.0
 30
0.0
 40
3.0
  0
ENDBLK
  5
12BE
  8
0
  0
BLOCK
  8
0
  2
_ORIGIN
 70
     0
 10
0.0
 20
0.0
 30
0.0
  3
_ORIGIN
  1

  0
CIRCLE
  5
12C1
  8
0
  6
CONTINUOUS
 62
     7
 10
0.0
 20
0.0
 30
0.0
 40
0.5
  0
LINE
  5
12C2
  8
0
  6
CONTINUOUS
 62
     7
 10
0.0
 20
0.0
 30
0.0
 11
-1.0
 21
0.0
 31
0.0
  0
ENDBLK
  5
12C3
  8
0
  0
BLOCK
  8
0
 62
    30
  2
_NONE
 70
     0
 10
0.0
 20
0.0
 30
0.0
  3
_NONE
  1

  0
ENDBLK
  5
12C6
  8
0
 62
    30
  0
BLOCK
  8
0
 62
    30
  2
_OPEN30
 70
     0
 10
0.0
 20
0.0
 30
0.0
  3
_OPEN30
  1

  0
LINE
  5
12C9
  8
0
  6
BYBLOCK
 62
     0
 10
-1.0
 20
0.26794919
 30
0.0
 11
0.0
 21
0.0
 31
0.0
  0
LINE
  5
12CA
  8
0
  6
BYBLOCK
 62
     0
 10
0.0
 20
0.0
 30
0.0
 11
-1.0
 21
-0.26794919
 31
0.0
  0
LINE
  5
12CB
  8
0
  6
BYBLOCK
 62
     0
 10
0.0
 20
0.0
 30
0.0
 11
-1.0
 21
0.0
 31
0.0
  0
ENDBLK
  5
12CC
  8
0
 62
    30
  0
BLOCK
  8
0
 62
    30
  2
A$C4FEE6482
 70
     0
 10
0.0
 20
0.0
 30
0.0
  3
A$C4FEE6482
  1

  0
TEXT
  5
12CF
  8
SIZE
  6
CONTINUOUS
 62
    30
 10
64.000001433524176
 20
-11.519999035519531
 30
0.0
 40
64.0
  1
\U+03C6155
 50
90.0
 41
0.9
 72
     1
 11
64.000001433524176
 21
97.371429535909044
 31
0.0
  0
TEXT
  5
12D0
  8
ETC
  6
CONTINUOUS
 62
    61
 10
902.53400543352404
 20
522.74734253590896
 30
0.0
 40
64.0
  1
換気扇
 41
0.9
  0
ENDBLK
  5
12D1
  8
0
 62
    30
  0
BLOCK
  8
0
 62
    30
  2
A$C5B1D2A78
 70
     0
 10
0.0
 20
0.0
 30
0.0
  3
A$C5B1D2A78
  1

  0
TEXT
  5
12D4
  8
SIZE
  6
CONTINUOUS
 62
    30
 10
64.000001433524176
 20
-11.519999035519531
 30
0.0
 40
64.0
  1
\U+03C6155
 50
90.0
 41
0.9
 72
     1
 11
64.000001433524176
 21
97.371429535909044
 31
0.0
  0
TEXT
  5
12D5
  8
ETC
  6
CONTINUOUS
 62
    61
 10
902.53400543352404
 20
522.74734253590896
 30
0.0
 40
64.0
  1
換気扇
 41
0.9
  0
ENDBLK
  5
12D6
  8
0
 62
    30
  0
BLOCK
  8
0
 62
    30
  2
*D8
 70
     1
 10
0.0
 20
0.0
 30
0.0
  3
*D8
  1

  0
LINE
  5
12D9
  8
SIZE
  6
CONTINUOUS
 10
6821.7671629690949
 20
742.86592362535293
 30
0.0
 11
6968.3011826062066
 21
742.86592362535293
 31
0.0
  0
LINE
  5
12DA
  8
SIZE
  6
CONTINUOUS
 10
6821.7671629690949
 20
642.86592362535316
 30
0.0
 11
6968.3011826062066
 21
642.86592362535305
 31
0.0
  0
LINE
  5
12DB
  8
SIZE
  6
CONTINUOUS
 10
6948.3011826062084
 20
742.86592362535293
 30
0.0
 11
6948.3011826062084
 21
782.86592362535328
 31
0.0
  0
LINE
  5
12DC
  8
SIZE
  6
CONTINUOUS
 10
6948.3011826062084
 20
642.86592362535305
 30
0.0
 11
6948.3011826062084
 21
602.86592362535305
 31
0.0
  0
LINE
  5
12DD
  8
SIZE
  6
CONTINUOUS
 10
6948.3011826062084
 20
742.86592362535293
 30
0.0
 11
6948.3011826062084
 21
642.86592362535305
 31
0.0
  0
TEXT
  5
12DE
  8
SIZE
  6
CONTINUOUS
 10
6928.3011826062057
 20
624.29449505392574
 30
0.0
 40
64.0
  1
100
 50
90.0
 41
0.9
  0
POINT
  5
12DF
  8
DEFPOINTS
  6
CONTINUOUS
 62
     0
 10
6801.7671629690958
 20
742.86592362535293
 30
0.0
  0
POINT
  5
12E0
  8
DEFPOINTS
  6
CONTINUOUS
 62
     0
 10
6801.7671629690958
 20
642.86592362535316
 30
0.0
  0
POINT
  5
12E1
  8
DEFPOINTS
  6
CONTINUOUS
 62
     0
 10
6948.3011826062084
 20
642.86592362535305
 30
0.0
  0
ENDBLK
  5
12E2
  8
0
 62
    30
  0
BLOCK
  8
0
 62
    30
  2
*D9
 70
     1
 10
0.0
 20
0.0
 30
0.0
  3
*D9
  1

  0
LINE
  5
12E5
  8
SIZE
  6
CONTINUOUS
 10
6775.2671629690967
 20
743.86592362535293
 30
0.0
 11
7084.3735021565726
 21
743.86592362535293
 31
0.0
  0
LINE
  5
12E6
  8
SIZE
  6
CONTINUOUS
 10
6775.2671629690967
 20
641.86592362535328
 30
0.0
 11
7084.3735021565726
 21
641.86592362535328
 31
0.0
  0
LINE
  5
12E7
  8
SIZE
  6
CONTINUOUS
 10
7064.3735021565726
 20
743.86592362535293
 30
0.0
 11
7064.3735021565726
 21
783.86592362535293
 31
0.0
  0
LINE
  5
12E8
  8
SIZE
  6
CONTINUOUS
 10
7064.3735021565726
 20
641.86592362535328
 30
0.0
 11
7064.3735021565726
 21
601.86592362535305
 31
0.0
  0
LINE
  5
12E9
  8
SIZE
  6
CONTINUOUS
 10
7064.3735021565726
 20
743.86592362535293
 30
0.0
 11
7064.3735021565726
 21
641.86592362535328
 31
0.0
  0
TEXT
  5
12EA
  8
SIZE
  6
CONTINUOUS
 10
7044.3735021565744
 20
624.29449505392574
 30
0.0
 40
64.0
  1
102
 50
90.0
 41
0.9
  0
POINT
  5
12EB
  8
DEFPOINTS
  6
CONTINUOUS
 62
     0
 10
6755.2671629690958
 20
743.86592362535293
 30
0.0
  0
POINT
  5
12EC
  8
DEFPOINTS
  6
CONTINUOUS
 62
     0
 10
6755.2671629690958
 20
641.86592362535328
 30
0.0
  0
POINT
  5
12ED
  8
DEFPOINTS
  6
CONTINUOUS
 62
     0
 10
7064.3735021565726
 20
641.86592362535328
 30
0.0
  0
ENDBLK
  5
12EE
  8
0
 62
    30
  0
BLOCK
  8
0
 62
    30
  2
*D10
 70
     1
 10
0.0
 20
0.0
 30
0.0
  3
*D10
  1

  0
LINE
  5
12F1
  8
SIZE
  6
CONTINUOUS
 10
6957.4483380851816
 20
828.0456839130502
 30
0.0
 11
7125.5214195297976
 21
828.0456839130502
 31
0.0
  0
LINE
  5
12F2
  8
SIZE
  6
CONTINUOUS
 10
6957.4483380851816
 20
732.04568391304997
 30
0.0
 11
7125.5214195297976
 21
732.04568391304997
 31
0.0
  0
LINE
  5
12F3
  8
SIZE
  6
CONTINUOUS
 10
7105.5214195297967
 20
828.0456839130502
 30
0.0
 11
7105.5214195297967
 21
868.04568391304974
 31
0.0
  0
LINE
  5
12F4
  8
SIZE
  6
CONTINUOUS
 10
7105.5214195297967
 20
732.04568391304997
 30
0.0
 11
7105.5214195297967
 21
692.04568391304986
 31
0.0
  0
LINE
  5
12F5
  8
SIZE
  6
CONTINUOUS
 10
7105.5214195297967
 20
828.0456839130502
 30
0.0
 11
7105.5214195297967
 21
732.04568391304997
 31
0.0
  0
TEXT
  5
12F6
  8
SIZE
  6
CONTINUOUS
 10
7085.5214195297967
 20
734.78854105590847
 30
0.0
 40
64.0
  1
96
 50
90.0
 41
0.9
  0
POINT
  5
12F7
  8
DEFPOINTS
  6
CONTINUOUS
 62
     0
 10
6937.4483380851807
 20
828.0456839130502
 30
0.0
  0
POINT
  5
12F8
  8
DEFPOINTS
  6
CONTINUOUS
 62
     0
 10
6937.4483380851807
 20
732.04568391304997
 30
0.0
  0
POINT
  5
12F9
  8
DEFPOINTS
  6
CONTINUOUS
 62
     0
 10
7105.5214195297967
 20
732.04568391304997
 30
0.0
  0
ENDBLK
  5
12FA
  8
0
 62
    30
  0
BLOCK
  8
0
 62
    30
  2
*D11
 70
     1
 10
0.0
 20
0.0
 30
0.0
  3
*D11
  1

  0
LINE
  5
12FD
  8
SIZE
  6
CONTINUOUS
 10
6982.4483380851798
 20
829.04568391304974
 30
0.0
 11
7241.8984257112807
 21
829.04568391304974
 31
0.0
  0
LINE
  5
12FE
  8
SIZE
  6
CONTINUOUS
 10
6982.4483380851798
 20
731.04568391304974
 30
0.0
 11
7241.8984257112807
 21
731.04568391304974
 31
0.0
  0
LINE
  5
12FF
  8
SIZE
  6
CONTINUOUS
 10
7221.8984257112779
 20
829.04568391304974
 30
0.0
 11
7221.8984257112779
 21
869.04568391304974
 31
0.0
  0
LINE
  5
1300
  8
SIZE
  6
CONTINUOUS
 10
7221.8984257112779
 20
731.04568391304974
 30
0.0
 11
7221.8984257112779
 21
691.04568391305008
 31
0.0
  0
LINE
  5
1301
  8
SIZE
  6
CONTINUOUS
 10
7221.8984257112779
 20
829.04568391304974
 30
0.0
 11
7221.8984257112779
 21
731.04568391304974
 31
0.0
  0
TEXT
  5
1302
  8
SIZE
  6
CONTINUOUS
 10
7201.8984257112807
 20
733.41711248447973
 30
0.0
 40
64.0
  1
98
 50
90.0
 41
0.9
  0
POINT
  5
1303
  8
DEFPOINTS
  6
CONTINUOUS
 62
     0
 10
6962.4483380851807
 20
829.04568391304974
 30
0.0
  0
POINT
  5
1304
  8
DEFPOINTS
  6
CONTINUOUS
 62
     0
 10
6962.4483380851807
 20
731.04568391304974
 30
0.0
  0
POINT
  5
1305
  8
DEFPOINTS
  6
CONTINUOUS
 62
     0
 10
7221.8984257112779
 20
731.04568391304974
 30
0.0
  0
ENDBLK
  5
1306
  8
0
 62
    30
  0
ENDSEC
  0
SECTION
  2
ENTITIES
  0
TEXT
  5
1307
  8
ETC
  6
CONTINUOUS
 62
    61
 10
247.74098278482779
 20
285.29621459761017
 30
0.0
 40
64.0
  1
エアリゾート
 41
0.9
  0
TEXT
  5
1308
  8
ETC
  6
CONTINUOUS
 62
    61
 10
256.59643797381159
 20
367.53713342324841
 30
0.0
 40
64.0
  1
P-13CS3_4
 41
0.9
  0
TEXT
  5
1309
  8
ETC
  6
CONTINUOUS
 62
    61
 10
384.35867556099311
 20
209.63458353150239
 30
0.0
 40
50.0
  1
P-13CS3
 41
0.9
  0
LINE
  5
130A
  8
SIZE
  6
CONTINUOUS
 62
    30
 10
-228.70193639557331
 20
-52.5
 30
0.0
 11
-228.70193639557331
 21
52.500000000000462
 31
0.0
  0
LINE
  5
130B
  8
SIZE
  6
CONTINUOUS
 62
    30
 10
-125.2739812042437
 20
-51.029986509105242
 30
0.0
 11
-125.2739812042437
 21
51.029986509105711
 31
0.0
  0
TEXT
  5
130C
  8
SIZE
  6
CONTINUOUS
 62
    30
 10
-244.1521348223504
 20
-112.16478184660561
 30
0.0
 40
64.0
  1
\U+03C6105
 50
90.0
 41
0.9
 72
     1
 11
-244.1521348223504
 21
-3.2733532751771
 31
0.0
  0
LINE
  5
130D
  8
SIZE
  6
CONTINUOUS
 62
    30
 10
-337.95868710645851
 20
59.5
 30
0.0
 11
-337.95868710645851
 21
-59.499999999999773
 31
0.0
  0
TEXT
  5
130E
  8
SIZE
  6
CONTINUOUS
 62
    30
 10
-357.08497826880478
 20
-110.5171573076572
 30
0.0
 40
64.0
  1
\U+03C6119
 50
90.0
 41
0.9
 72
     1
 11
-357.08497826880478
 21
-8.4828715933715557
 31
0.0
  0
TEXT
  5
130F
  8
SIZE
  6
CONTINUOUS
 62
    30
 10
-140.68622076778141
 20
-109.7608135348037
 30
0.0
 40
64.0
  1
\U+03C6102
 50
90.0
 41
0.9
 72
     1
 11
-140.68622076778141
 21
-0.8693849633751825
 31
0.0
  0
LINE
  5
1310
  8
DETAIL
  6
CONTINUOUS
 62
     5
 39
50.0
 10
51.999999999999091
 20
-58.5
 30
0.0
 11
52.000000000002721
 21
58.5
 31
0.0
  0
LINE
  5
1311
  8
DETAIL
  6
CONTINUOUS
 62
     5
 39
50.0
 10
50.000000000003652
 20
-58.5
 30
0.0
 11
50.000000000003652
 21
58.5
 31
0.0
  0
LINE
  5
1312
  8
DETAIL
  6
CONTINUOUS
 62
     5
 39
50.0
 10
0.0000000000027285
 20
-50.0
 30
0.0
 11
0.0000000000027285
 21
50.0
 31
0.0
  0
LINE
  5
1313
  8
DETAIL
  6
CONTINUOUS
 62
     5
 39
50.0
 10
98.999999999999091
 20
-49.5
 30
0.0
 11
98.999999999999091
 21
49.5
 31
0.0
  0
LINE
  5
1314
  8
ARRANGE
  6
CONTINUOUS
 62
     1
 39
50.0
 10
14.142135623731519
 20
-14.14213562373231
 30
0.0
 11
-14.14213562373061
 21
14.142135623730949
 31
0.0
  0
LINE
  5
1315
  8
ARRANGE
  6
CONTINUOUS
 62
     1
 39
50.0
 10
-14.14213562373061
 20
-14.142135623731971
 30
0.0
 11
14.142135623731519
 21
14.142135623730381
 31
0.0
  0
CIRCLE
  5
1316
  8
ARRANGE
  6
CONTINUOUS
 62
     1
 39
50.0
 10
0.0000000000027285
 20
-0.0000000000006821
 30
0.0
 40
40.0
  0
LINE
  5
1317
  8
DETAIL
  6
CONTINUOUS
 62
     5
 39
50.0
 10
0.999550303524302
 20
-51.029986509105242
 30
0.0
 11
0.0000000000027285
 21
-50.0
 31
0.0
  0
LINE
  5
1318
  8
DETAIL
  6
CONTINUOUS
 62
     5
 39
50.0
 10
50.000000000003652
 20
-52.5
 30
0.0
 11
0.999550303524302
 21
-51.029986509105242
 31
0.0
  0
LINE
  5
1319
  8
DETAIL
  6
CONTINUOUS
 62
     5
 39
50.0
 10
51.000000000002728
 20
-59.499999999999773
 30
0.0
 11
51.000000000002728
 21
-59.499999999999773
 31
0.0
  0
CIRCLE
  5
131A
  8
SIZE
  6
CONTINUOUS
 62
    30
 39
50.0
 10
-228.70193639557331
 20
-52.499999999999538
 30
0.0
 40
6.0
  0
CIRCLE
  5
131B
  8
SIZE
  6
CONTINUOUS
 62
    30
 39
50.0
 10
-125.2739812042437
 20
-51.029986509105242
 30
0.0
 40
6.0
  0
CIRCLE
  5
131C
  8
SIZE
  6
CONTINUOUS
 62
    30
 39
50.0
 10
-337.95868710645851
 20
-59.499999999999311
 30
0.0
 40
6.0
  0
LINE
  5
131D
  8
DETAIL
  6
DASHED
 62
     5
 39
50.0
 10
25.0
 20
-47.999999999999773
 30
0.0
 11
0.0000000000027285
 21
-49.0
 31
0.0
  0
LINE
  5
131E
  8
BASIS
  6
DASHDOT
 62
     6
 39
50.0
 10
-22.842421479197569
 20
0.0
 30
0.0
 11
118.20137518857059
 21
0.0
 31
0.0
  0
LINE
  5
131F
  8
SIZE
  6
CONTINUOUS
 62
    30
 10
30.000000000002739
 20
-52.5
 30
0.0
 11
-244.51613157499739
 21
-52.5
 31
0.0
  0
LINE
  5
1320
  8
SIZE
  6
CONTINUOUS
 62
    30
 10
30.0
 20
-59.499999999999773
 30
0.0
 11
-355.2793087348964
 21
-59.499999999999773
 31
0.0
  0
LINE
  5
1321
  8
SIZE
  6
CONTINUOUS
 62
    30
 10
-337.95868710645851
 20
-59.499999999999773
 30
0.0
 11
-337.95868710645851
 21
-99.499999999999886
 31
0.0
  0
LINE
  5
1322
  8
SIZE
  6
CONTINUOUS
 62
    30
 10
-228.70193639557331
 20
-52.5
 30
0.0
 11
-228.70193639557331
 21
-92.499999999999787
 31
0.0
  0
LINE
  5
1323
  8
SIZE
  6
CONTINUOUS
 62
    30
 10
-19.000449696479329
 20
-51.029986509105242
 30
0.0
 11
-142.3473305691796
 21
-51.029986509105242
 31
0.0
  0
LINE
  5
1324
  8
SIZE
  6
CONTINUOUS
 62
    30
 10
-125.2739812042437
 20
-51.029986509105242
 30
0.0
 11
-125.2739812042437
 21
-91.029986509104305
 31
0.0
  0
LINE
  5
1325
  8
DETAIL
  6
DASHED
 62
     5
 39
50.0
 10
24.999999999995449
 20
-47.999999999999773
 30
0.0
 11
73.999999999999091
 21
-47.999999999999773
 31
0.0
  0
LINE
  5
1326
  8
DETAIL
  6
DASHED
 62
     5
 39
50.0
 10
73.999999999999091
 20
-47.999999999999773
 30
0.0
 11
98.999999999999091
 21
-49.0
 31
0.0
  0
CIRCLE
  5
1327
  8
SIZE
  6
CONTINUOUS
 62
    30
 39
50.0
 10
98.999999999999091
 20
322.50802594952012
 30
0.0
 40
6.0
  0
CIRCLE
  5
1328
  8
SIZE
  6
CONTINUOUS
 62
    30
 39
50.0
 10
0.0000000000027285
 20
322.50802594952012
 30
0.0
 40
6.0
  0
CIRCLE
  5
1329
  8
SIZE
  6
CONTINUOUS
 62
    30
 39
50.0
 10
50.000000000003652
 20
201.74936925821081
 30
0.0
 40
6.0
  0
CIRCLE
  5
132A
  8
SIZE
  6
CONTINUOUS
 62
    30
 39
50.0
 10
0.0000000000027285
 20
201.74936925821081
 30
0.0
 40
6.0
  0
CIRCLE
  5
132B
  8
SIZE
  6
CONTINUOUS
 62
    30
 39
50.0
 10
51.999999999999091
 20
201.74936925821081
 30
0.0
 40
6.0
  0
LINE
  5
132C
  8
DETAIL
  6
CONTINUOUS
 62
     5
 39
50.0
 10
0.0000000000027285
 20
50.0
 30
0.0
 11
0.999550303524302
 21
51.029986509105711
 31
0.0
  0
LINE
  5
132D
  8
DETAIL
  6
CONTINUOUS
 62
     5
 39
50.0
 10
50.000000000003652
 20
52.500000000000462
 30
0.0
 11
0.999550303524302
 21
51.029986509105711
 31
0.0
  0
LINE
  5
132E
  8
DETAIL
  6
CONTINUOUS
 62
     5
 39
50.0
 10
51.000000000002728
 20
59.5
 30
0.0
 11
51.000000000002728
 21
59.5
 31
0.0
  0
CIRCLE
  5
132F
  8
SIZE
  6
CONTINUOUS
 62
    30
 39
50.0
 10
-228.70193639557331
 20
52.500000000000462
 30
0.0
 40
6.0
  0
CIRCLE
  5
1330
  8
SIZE
  6
CONTINUOUS
 62
    30
 39
50.0
 10
-125.2739812042437
 20
51.029986509106152
 30
0.0
 40
6.0
  0
CIRCLE
  5
1331
  8
SIZE
  6
CONTINUOUS
 62
    30
 39
50.0
 10
-337.95868710645851
 20
59.5
 30
0.0
 40
6.0
  0
LINE
  5
1332
  8
DETAIL
  6
DASHED
 62
     5
 39
50.0
 10
25.0
 20
48.000000000000462
 30
0.0
 11
0.0000000000027285
 21
49.0
 31
0.0
  0
LINE
  5
1333
  8
SIZE
  6
CONTINUOUS
 62
    30
 10
98.999999999999091
 20
322.50802594952012
 30
0.0
 11
0.0000000000027285
 21
322.50802594952012
 31
0.0
  0
TEXT
  5
1334
  8
SIZE
  6
CONTINUOUS
 62
    30
 10
10.17256529890164
 20
353.15747245106837
 30
0.0
 40
64.0
  1
99
 41
0.9
  0
LINE
  5
1335
  8
SIZE
  6
CONTINUOUS
 62
    30
 10
50.000000000003652
 20
201.74936925821029
 30
0.0
 11
-117.04923553104619
 21
201.74936925821029
 31
0.0
  0
LINE
  5
1336
  8
SIZE
  6
CONTINUOUS
 62
    30
 10
30.000000000002739
 20
52.500000000000462
 30
0.0
 11
-243.91513871943059
 21
52.500000000000462
 31
0.0
  0
LINE
  5
1337
  8
SIZE
  6
CONTINUOUS
 62
    30
 10
30.0
 20
59.5
 30
0.0
 11
-352.87533731264472
 21
59.5
 31
0.0
  0
LINE
  5
1338
  8
SIZE
  6
CONTINUOUS
 62
    30
 10
0.0000000000027285
 20
69.000000000000227
 30
0.0
 11
0.0000000000027285
 21
341.12900454975818
 31
0.0
  0
LINE
  5
1339
  8
SIZE
  6
CONTINUOUS
 62
    30
 10
-337.95868710645851
 20
59.5
 30
0.0
 11
-337.95868710645851
 21
99.500000000000014
 31
0.0
  0
LINE
  5
133A
  8
SIZE
  6
CONTINUOUS
 62
    30
 10
-228.70193639557331
 20
52.500000000000462
 30
0.0
 11
-228.70193639557331
 21
92.5
 31
0.0
  0
LINE
  5
133B
  8
SIZE
  6
CONTINUOUS
 62
    30
 10
-19.000449696479329
 20
51.029986509105711
 30
0.0
 11
-142.94832342474001
 21
51.029986509105711
 31
0.0
  0
LINE
  5
133C
  8
SIZE
  6
CONTINUOUS
 62
    30
 10
-125.2739812042437
 20
51.029986509105711
 30
0.0
 11
-125.2739812042437
 21
91.029986509105584
 31
0.0
  0
TEXT
  5
133D
  8
SIZE
  6
CONTINUOUS
 62
    30
 10
-110.02602759786799
 20
223.2499943013903
 30
0.0
 40
64.0
  1
50
 41
0.9
  0
LINE
  5
133E
  8
SIZE
  6
CONTINUOUS
 62
    30
 10
0.0000000000027285
 20
322.50802594952012
 30
0.0
 11
-39.999999999997272
 21
322.50802594952012
 31
0.0
  0
LINE
  5
133F
  8
SIZE
  6
CONTINUOUS
 62
    30
 10
98.999999999999091
 20
68.000000000000455
 30
0.0
 11
98.999999999999091
 21
343.53469916400218
 31
0.0
  0
LINE
  5
1340
  8
SIZE
  6
CONTINUOUS
 62
    30
 10
50.000000000003652
 20
79.5
 30
0.0
 11
50.000000000003652
 21
221.9176621371432
 31
0.0
  0
LINE
  5
1341
  8
SIZE
  6
CONTINUOUS
 62
    30
 10
51.999999999999091
 20
79.5
 30
0.0
 11
51.999999999999091
 21
221.74936925821021
 31
0.0
  0
LINE
  5
1342
  8
DETAIL
  6
DASHED
 62
     5
 39
50.0
 10
25.0
 20
48.000000000000462
 30
0.0
 11
73.999999999999091
 21
48.000000000000462
 31
0.0
  0
LINE
  5
1343
  8
DETAIL
  6
DASHED
 62
     5
 39
50.0
 10
73.999999999999091
 20
48.000000000000462
 30
0.0
 11
98.999999999999091
 21
49.0
 31
0.0
  0
LINE
  5
1344
  8
SIZE
  6
CONTINUOUS
 62
    30
 10
51.999999999999091
 20
201.74936925821029
 30
0.0
 11
156.31823144923331
 21
201.74936925821029
 31
0.0
  0
LINE
  5
1345
  8
SIZE
  6
CONTINUOUS
 62
    30
 10
50.000000000003652
 20
201.74936925821029
 30
0.0
 11
51.999999999999091
 21
201.74936925821029
 31
0.0
  0
LINE
  5
1346
  8
SIZE
  6
CONTINUOUS
 62
    30
 10
50.000000000003652
 20
201.9176621371447
 30
0.0
 11
50.000000000003652
 21
181.74936925821081
 31
0.0
  0
TEXT
  5
1347
  8
SIZE
  6
CONTINUOUS
 62
    30
 10
130.3711550836278
 20
223.2499943013903
 30
0.0
 40
64.0
  1
2
 41
0.9
  0
LINE
  5
1348
  8
SIZE
  6
CONTINUOUS
 62
    30
 10
98.999999999999091
 20
322.50802594952012
 30
0.0
 11
139.0000000000027
 21
322.50802594952012
 31
0.0
  0
LINE
  5
1349
  8
DETAIL
  6
CONTINUOUS
 62
     5
 39
50.0
 10
0.999550303524302
 20
51.029986509105711
 30
0.0
 11
0.999550303524302
 21
-51.029986509105242
 31
0.0
  0
LINE
  5
134A
  8
OUTLINE
  6
CONTINUOUS
 62
     3
 39
50.0
 10
50.000000000003652
 20
52.500000000000462
 30
0.0
 11
0.999550303524302
 21
51.029986509105711
 31
0.0
  0
LINE
  5
134B
  8
OUTLINE
  6
CONTINUOUS
 62
     3
 39
50.0
 10
0.999550303524302
 20
51.029986509105711
 30
0.0
 11
0.0000000000027285
 21
50.0
 31
0.0
  0
LINE
  5
134C
  8
OUTLINE
  6
CONTINUOUS
 62
     3
 39
50.0
 10
0.0000000000027285
 20
50.0
 30
0.0
 11
0.0000000000027285
 21
-50.0
 31
0.0
  0
LINE
  5
134D
  8
OUTLINE
  6
CONTINUOUS
 62
     3
 39
50.0
 10
0.0000000000027285
 20
-50.0
 30
0.0
 11
0.999550303524302
 21
-51.029986509105242
 31
0.0
  0
LINE
  5
134E
  8
OUTLINE
  6
CONTINUOUS
 62
     3
 39
50.0
 10
0.999550303524302
 20
-51.029986509105242
 30
0.0
 11
50.000000000003652
 21
-52.5
 31
0.0
  0
LINE
  5
134F
  8
DETAIL
  6
CONTINUOUS
 62
     5
 39
50.0
 10
52.999999999999091
 20
-50.0
 30
0.0
 11
52.999999999999091
 21
50.000000000000227
 31
0.0
  0
LINE
  5
1350
  8
DETAIL
  6
CONTINUOUS
 62
     5
 39
50.0
 10
52.999999999999091
 20
50.000000000000227
 30
0.0
 11
51.999999999999091
 21
51.00000000000022
 31
0.0
  0
LINE
  5
1351
  8
DETAIL
  6
CONTINUOUS
 62
     5
 39
50.0
 10
52.999999999999091
 20
50.000000000000227
 30
0.0
 11
98.500000000000014
 21
50.000000000000227
 31
0.0
  0
LINE
  5
1352
  8
DETAIL
  6
CONTINUOUS
 62
     5
 39
50.0
 10
51.999999999999091
 20
-50.999999999999773
 30
0.0
 11
52.999999999999091
 21
-50.0
 31
0.0
  0
LINE
  5
1353
  8
DETAIL
  6
CONTINUOUS
 62
     5
 39
50.0
 10
52.999999999999091
 20
-50.0
 30
0.0
 11
98.500000000000014
 21
-50.0
 31
0.0
  0
LINE
  5
1354
  8
DETAIL
  6
CONTINUOUS
 62
     5
 39
50.0
 10
98.500000000000014
 20
50.000000000000227
 30
0.0
 11
98.999999999999091
 21
49.5
 31
0.0
  0
LINE
  5
1355
  8
DETAIL
  6
CONTINUOUS
 62
     5
 39
50.0
 10
98.500000000000014
 20
-50.0
 30
0.0
 11
98.999999999999091
 21
-49.5
 31
0.0
  0
LINE
  5
1356
  8
DETAIL
  6
CONTINUOUS
 62
     5
 39
50.0
 10
98.500000000000014
 20
-50.0
 30
0.0
 11
98.500000000000014
 21
50.000000000000227
 31
0.0
  0
ARC
  5
1357
  8
DETAIL
  6
CONTINUOUS
 62
     5
 39
50.0
 10
51.000000000002728
 20
58.5
 30
0.0
 40
1.0
 50
0.0
 51
90.0
  0
ARC
  5
1358
  8
DETAIL
  6
CONTINUOUS
 62
     5
 39
50.0
 10
51.000000000002728
 20
58.5
 30
0.0
 40
1.0
 50
90.0
 51
180.0
  0
ARC
  5
1359
  8
DETAIL
  6
CONTINUOUS
 62
     5
 39
50.0
 10
51.000000000002728
 20
-58.5
 30
0.0
 40
1.0
 50
180.0
 51
270.0
  0
ARC
  5
135A
  8
DETAIL
  6
CONTINUOUS
 62
     5
 39
50.0
 10
51.000000000002728
 20
-58.5
 30
0.0
 40
1.0
 50
270.0
 51
0.0
  0
LINE
  5
135B
  8
OUTLINE
  6
CONTINUOUS
 62
     3
 39
50.0
 10
50.000000000003652
 20
58.5
 30
0.0
 11
50.000000000003652
 21
-58.5
 31
0.0
  0
LINE
  5
135C
  8
OUTLINE
  6
CONTINUOUS
 62
     3
 39
50.0
 10
51.999999999999091
 20
-58.5
 30
0.0
 11
52.000000000002721
 21
58.5
 31
0.0
  0
LINE
  5
135D
  8
OUTLINE
  6
CONTINUOUS
 62
     3
 39
50.0
 10
51.999999999999091
 20
51.00000000000022
 30
0.0
 11
52.999999999999091
 21
50.000000000000227
 31
0.0
  0
LINE
  5
135E
  8
OUTLINE
  6
CONTINUOUS
 62
     3
 39
50.0
 10
52.999999999999091
 20
50.000000000000227
 30
0.0
 11
98.500000000000014
 21
50.000000000000227
 31
0.0
  0
LINE
  5
135F
  8
OUTLINE
  6
CONTINUOUS
 62
     3
 39
50.0
 10
98.500000000000014
 20
50.000000000000227
 30
0.0
 11
98.999999999999091
 21
49.0
 31
0.0
  0
LINE
  5
1360
  8
OUTLINE
  6
CONTINUOUS
 62
     3
 39
50.0
 10
98.999999999999091
 20
49.0
 30
0.0
 11
98.999999999999091
 21
-49.5
 31
0.0
  0
LINE
  5
1361
  8
OUTLINE
  6
CONTINUOUS
 62
     3
 39
50.0
 10
98.999999999999091
 20
-49.5
 30
0.0
 11
98.500000000000014
 21
-50.0
 31
0.0
  0
LINE
  5
1362
  8
OUTLINE
  6
CONTINUOUS
 62
     3
 39
50.0
 10
98.500000000000014
 20
-50.0
 30
0.0
 11
52.999999999999091
 21
-50.0
 31
0.0
  0
LINE
  5
1363
  8
OUTLINE
  6
CONTINUOUS
 62
     3
 39
50.0
 10
52.999999999999091
 20
-50.0
 30
0.0
 11
51.999999999999091
 21
-50.999999999999773
 31
0.0
  0
ARC
  5
1364
  8
OUTLINE
  6
CONTINUOUS
 62
     3
 39
50.0
 10
51.000000000002728
 20
-58.500000000000682
 30
0.0
 40
0.9999999999981808
 50
179.99999999995441
 51
0.0000000000390827
  0
ARC
  5
1365
  8
OUTLINE
  6
CONTINUOUS
 62
     3
 39
50.0
 10
51.000000000002728
 20
58.500000000000789
 30
0.0
 40
0.9999999999990903
 50
359.99999999996078
 51
180.00000000003911
  0
LINE
  5
1366
  8
SIZE
  6
CONTINUOUS
 10
72.0
 20
51.00000000000022
 30
0.0
 11
617.80566213085331
 21
50.999999999999879
 31
0.0
  0
LINE
  5
1367
  8
SIZE
  6
CONTINUOUS
 10
72.0
 20
-50.999999999999773
 30
0.0
 11
617.42285044412711
 21
-51.0
 31
0.0
  0
LINE
  5
1368
  8
SIZE
  6
CONTINUOUS
 10
602.66112290774686
 20
50.999999999999879
 30
0.0
 11
602.66112290774686
 21
91.0
 31
0.0
  0
LINE
  5
1369
  8
SIZE
  6
CONTINUOUS
 10
602.66112290774686
 20
-51.0
 30
0.0
 11
602.66112290774686
 21
-90.999999999999787
 31
0.0
  0
LINE
  5
136A
  8
SIZE
  6
CONTINUOUS
 10
602.66112290774686
 20
50.999999999999879
 30
0.0
 11
602.66112290774686
 21
-51.0
 31
0.0
  0
LINE
  5
136B
  8
SIZE
  6
CONTINUOUS
 10
118.5
 20
50.000000000000227
 30
0.0
 11
501.04779709888862
 21
50.000000000000227
 31
0.0
  0
LINE
  5
136C
  8
SIZE
  6
CONTINUOUS
 10
118.5
 20
-50.0
 30
0.0
 11
501.81342458988172
 21
-50.0
 31
0.0
  0
LINE
  5
136D
  8
SIZE
  6
CONTINUOUS
 10
486.58880335738093
 20
50.000000000000227
 30
0.0
 11
486.58880335738093
 21
90.0
 31
0.0
  0
LINE
  5
136E
  8
SIZE
  6
CONTINUOUS
 10
486.58880335738093
 20
-50.0
 30
0.0
 11
486.58880335738093
 21
-89.99999999999973
 31
0.0
  0
LINE
  5
136F
  8
SIZE
  6
CONTINUOUS
 10
486.58880335738093
 20
50.000000000000227
 30
0.0
 11
486.58880335738093
 21
-50.0
 31
0.0
  0
TEXT
  5
1370
  8
SIZE
  6
CONTINUOUS
 62
    30
 10
580.67982957771619
 20
-109.76773779820481
 30
0.0
 40
64.0
  1
\U+03C6102
 50
90.0
 41
0.9
 72
     1
 11
580.67982957771619
 21
-0.8763092267762431
 31
0.0
  0
TEXT
  5
1371
  8
SIZE
  6
CONTINUOUS
 62
    30
 10
466.1503847034291
 20
-113.1341006993442
 30
0.0
 40
64.0
  1
\U+03C6100
 50
90.0
 41
0.9
 72
     1
 11
466.1503847034291
 21
-4.2426721279156254
 31
0.0
  0
CIRCLE
  5
1372
  8
SIZE
  6
CONTINUOUS
 62
    30
 39
50.0
 10
486.58880335738093
 20
50.000000000000227
 30
0.0
 40
6.0
  0
CIRCLE
  5
1373
  8
SIZE
  6
CONTINUOUS
 62
    30
 39
50.0
 10
486.58880335738093
 20
-50.0
 30
0.0
 40
6.0
  0
CIRCLE
  5
1374
  8
SIZE
  6
CONTINUOUS
 62
    30
 39
50.0
 10
602.66112290774686
 20
-51.0
 30
0.0
 40
6.0
  0
CIRCLE
  5
1375
  8
SIZE
  6
CONTINUOUS
 62
    30
 39
50.0
 10
602.66112290774686
 20
50.999999999999879
 30
0.0
 40
6.0
  0
CIRCLE
  5
1376
  8
SIZE
  6
CONTINUOUS
 62
    30
 39
50.0
 10
358.45008762609632
 20
49.0
 30
0.0
 40
6.0
  0
CIRCLE
  5
1377
  8
SIZE
  6
CONTINUOUS
 62
    30
 39
50.0
 10
358.45008762609632
 20
-49.0
 30
0.0
 40
6.0
  0
CIRCLE
  5
1378
  8
SIZE
  6
CONTINUOUS
 62
    30
 39
50.0
 10
242.07308144461609
 20
48.000000000000462
 30
0.0
 40
6.0
  0
CIRCLE
  5
1379
  8
SIZE
  6
CONTINUOUS
 62
    30
 39
50.0
 10
242.07308144461609
 20
-47.999999999999773
 30
0.0
 40
6.0
  0
LINE
  5
137A
  8
SIZE
  6
CONTINUOUS
 10
94.0
 20
48.000000000000462
 30
0.0
 11
262.073081444617
 21
48.000000000000462
 31
0.0
  0
LINE
  5
137B
  8
SIZE
  6
CONTINUOUS
 10
94.0
 20
-47.999999999999773
 30
0.0
 11
262.073081444617
 21
-47.999999999999773
 31
0.0
  0
LINE
  5
137C
  8
SIZE
  6
CONTINUOUS
 10
242.07308144461609
 20
48.000000000000462
 30
0.0
 11
242.07308144461609
 21
88.0
 31
0.0
  0
LINE
  5
137D
  8
SIZE
  6
CONTINUOUS
 10
242.07308144461609
 20
-47.999999999999773
 30
0.0
 11
242.07308144461609
 21
-87.999999999999787
 31
0.0
  0
LINE
  5
137E
  8
SIZE
  6
CONTINUOUS
 10
242.07308144461609
 20
48.000000000000462
 30
0.0
 11
242.07308144461609
 21
-47.999999999999773
 31
0.0
  0
LINE
  5
137F
  8
SIZE
  6
CONTINUOUS
 10
118.9999999999981
 20
49.0
 30
0.0
 11
378.45008762609888
 21
49.0
 31
0.0
  0
LINE
  5
1380
  8
SIZE
  6
CONTINUOUS
 10
118.9999999999981
 20
-49.0
 30
0.0
 11
378.45008762609888
 21
-49.0
 31
0.0
  0
LINE
  5
1381
  8
SIZE
  6
CONTINUOUS
 10
358.45008762609632
 20
49.0
 30
0.0
 11
358.45008762609632
 21
89.0
 31
0.0
  0
LINE
  5
1382
  8
SIZE
  6
CONTINUOUS
 10
358.45008762609632
 20
-49.0
 30
0.0
 11
358.45008762609632
 21
-88.999999999999659
 31
0.0
  0
LINE
  5
1383
  8
SIZE
  6
CONTINUOUS
 10
358.45008762609632
 20
49.0
 30
0.0
 11
358.45008762609632
 21
-49.0
 31
0.0
  0
TEXT
  5
1384
  8
SIZE
  6
CONTINUOUS
 62
    30
 10
335.20769514308358
 20
-95.024919705878247
 30
0.0
 40
64.0
  1
\U+03C698
 50
90.0
 41
0.9
 72
     1
 11
335.20769514308358
 21
-8.0763482773068063
 31
0.0
  0
TEXT
  5
1385
  8
SIZE
  6
CONTINUOUS
 62
    30
 10
219.59826928883561
 20
-95.948902939587299
 30
0.0
 40
64.0
  1
\U+03C696
 50
90.0
 41
0.9
 72
     1
 11
219.59826928883561
 21
-10.371760082444441
 31
0.0
  0
TEXT
  5
1547
  8
ETC
  6
CONTINUOUS
 62
    61
 10
384.94407086788209
 20
129.8131206713943
 30
0.0
 40
50.0
  1
P-13CS2
 41
0.9
  0
ENDSEC
  0
EOF
