  0
SECTION
  2
HEADER
  9
$ACADVER
  1
AC1009
  9
$INSBASE
 10
0.0
 20
0.0
 30
0.0
  9
$EXTMIN
 10
-634.74994108781607
 20
-106.5756859050402
 30
0.0
  9
$EXTMAX
 10
755.67345724959102
 20
417.15747245107042
 30
50.0
  9
$LIMMIN
 10
-2970.0
 20
-2100.0
  9
$LIMMAX
 10
2970.0
 20
2100.0
  9
$ORTHOMODE
 70
     0
  9
$REGENMODE
 70
     0
  9
$FILLMODE
 70
     1
  9
$QTEXTMODE
 70
     0
  9
$MIRRTEXT
 70
     0
  9
$DRAGMODE
 70
     2
  9
$LTSCALE
 40
20.0
  9
$OSMODE
 70
    55
  9
$ATTMODE
 70
     1
  9
$TEXTSIZE
 40
64.0
  9
$TRACEWID
 40
0.05
  9
$TEXTSTYLE
  7
STANDARD
  9
$CLAYER
  8
SIZE
  9
$CELTYPE
  6
CONTINUOUS
  9
$CECOLOR
 62
    30
  9
$DIMSCALE
 40
1.0
  9
$DIMASZ
 40
40.0
  9
$DIMEXO
 40
20.0
  9
$DIMDLI
 40
200.0
  9
$DIMRND
 40
0.0
  9
$DIMDLE
 40
0.0
  9
$DIMEXE
 40
20.0
  9
$DIMTP
 40
0.0
  9
$DIMTM
 40
0.000000001
  9
$DIMTXT
 40
64.0
  9
$DIMCEN
 40
0.09
  9
$DIMTSZ
 40
0.0
  9
$DIMTOL
 70
     0
  9
$DIMLIM
 70
     0
  9
$DIMTIH
 70
     0
  9
$DIMTOH
 70
     0
  9
$DIMSE1
 70
     0
  9
$DIMSE2
 70
     0
  9
$DIMTAD
 70
     1
  9
$DIMZIN
 70
     8
  9
$DIMBLK
  1
NONE
  9
$DIMASO
 70
     1
  9
$DIMSHO
 70
     0
  9
$DIMPOST
  1

  9
$DIMAPOST
  1

  9
$DIMALT
 70
     0
  9
$DIMALTD
 70
     2
  9
$DIMALTF
 40
25.399999999999999
  9
$DIMLFAC
 40
1.0
  9
$DIMTOFL
 70
     1
  9
$DIMTVP
 40
0.0
  9
$DIMTIX
 70
     1
  9
$DIMSOXD
 70
     0
  9
$DIMSAH
 70
     0
  9
$DIMBLK1
  1

  9
$DIMBLK2
  1

  9
$DIMSTYLE
  2
STANDARD
  9
$DIMCLRD
 70
   256
  9
$DIMCLRE
 70
   256
  9
$DIMCLRT
 70
   256
  9
$DIMTFAC
 40
0.7
  9
$DIMGAP
 40
20.0
  9
$LUNITS
 70
     2
  9
$LUPREC
 70
     4
  9
$SKETCHINC
 40
0.1
  9
$FILLETRAD
 40
1.0
  9
$AUNITS
 70
     1
  9
$AUPREC
 70
     3
  9
$MENU
  1
ACAD
  9
$ELEVATION
 40
0.0
  9
$PELEVATION
 40
0.0
  9
$THICKNESS
 40
50.0
  9
$LIMCHECK
 70
     0
  9
$BLIPMODE
 70
     0
  9
$CHAMFERA
 40
0.5
  9
$CHAMFERB
 40
0.5
  9
$SKPOLY
 70
     0
  9
$TDCREATE
 40
2451453.49385081
  9
$TDUPDATE
 40
2456730.555933611
  9
$TDINDWG
 40
1.2360092477
  9
$TDUSRTIMER
 40
1.2360067244999999
  9
$USRTIMER
 70
     1
  9
$ANGBASE
 50
0.0
  9
$ANGDIR
 70
     0
  9
$PDMODE
 70
     3
  9
$PDSIZE
 40
-2.0
  9
$PLINEWID
 40
0.0
  9
$COORDS
 70
     1
  9
$SPLFRAME
 70
     0
  9
$SPLINETYPE
 70
     6
  9
$SPLINESEGS
 70
     8
  9
$ATTDIA
 70
     0
  9
$ATTREQ
 70
     1
  9
$HANDLING
 70
     1
  9
$HANDSEED
  5
1517
  9
$SURFTAB1
 70
     6
  9
$SURFTAB2
 70
     6
  9
$SURFTYPE
 70
     6
  9
$SURFU
 70
     6
  9
$SURFV
 70
     6
  9
$UCSNAME
  2

  9
$UCSORG
 10
0.0
 20
0.0
 30
0.0
  9
$UCSXDIR
 10
1.0
 20
0.0
 30
0.0
  9
$UCSYDIR
 10
0.0
 20
1.0
 30
0.0
  9
$PUCSNAME
  2

  9
$PUCSORG
 10
0.0
 20
0.0
 30
0.0
  9
$PUCSXDIR
 10
1.0
 20
0.0
 30
0.0
  9
$PUCSYDIR
 10
0.0
 20
1.0
 30
0.0
  9
$USERI1
 70
     0
  9
$USERI2
 70
     0
  9
$USERI3
 70
     0
  9
$USERI4
 70
     0
  9
$USERI5
 70
     0
  9
$USERR1
 40
20.0
  9
$USERR2
 40
0.0
  9
$USERR3
 40
0.0
  9
$USERR4
 40
0.0
  9
$USERR5
 40
0.0
  9
$WORLDVIEW
 70
     1
  9
$SHADEDGE
 70
     3
  9
$SHADEDIF
 70
    70
  9
$TILEMODE
 70
     1
  9
$MAXACTVP
 70
    48
  9
$PLIMCHECK
 70
     0
  9
$PEXTMIN
 10
1.0000000000000000E+020
 20
1.0000000000000000E+020
 30
1.0000000000000000E+020
  9
$PEXTMAX
 10
-1.0000000000000000E+020
 20
-1.0000000000000000E+020
 30
-1.0000000000000000E+020
  9
$PLIMMIN
 10
0.0
 20
0.0
  9
$PLIMMAX
 10
12.0
 20
9.0
  9
$UNITMODE
 70
     0
  9
$VISRETAIN
 70
     1
  9
$PLINEGEN
 70
     0
  9
$PSLTSCALE
 70
     1
  0
ENDSEC
  0
SECTION
  2
TABLES
  0
TABLE
  2
VPORT
 70
     1
  0
VPORT
  2
*ACTIVE
 70
     0
 10
0.0
 20
0.0
 11
1.0
 21
1.0
 12
244.33403798785071
 22
151.9771491533391
 13
0.0
 23
0.0
 14
1.0
 24
1.0
 15
0.0
 25
0.0
 16
0.0
 26
0.0
 36
1.0
 17
0.0
 27
0.0
 37
0.0
 40
1093.5498682893681
 41
1.695478723404255
 42
50.0
 43
0.0
 44
0.0
 50
0.0
 51
0.0
 71
     0
 72
   100
 73
     1
 74
     1
 75
     0
 76
     0
 77
     0
 78
     0
  0
ENDTAB
  0
TABLE
  2
LTYPE
 70
     4
  0
LTYPE
  2
CONTINUOUS
 70
     0
  3
実線
 72
    65
 73
     0
 40
0.0
  0
LTYPE
  2
DASHDOT
 70
     0
  3
____ _ ____ _ ____ _ ____ _ ____ _ ____ _ ____
 72
    65
 73
     4
 40
5.5
 49
4.0
 49
-0.6
 49
0.3
 49
-0.6
  0
LTYPE
  2
DASHED
 70
     0
  3
Dashed __ __ __ __ __ __ __ __ __ __ __ __ __ _
 72
    65
 73
     2
 40
0.75
 49
0.5
 49
-0.25
  0
ENDTAB
  0
TABLE
  2
LAYER
 70
    12
  0
LAYER
  2
0
 70
     0
 62
     7
  6
CONTINUOUS
  0
LAYER
  2
SIZE
 70
     0
 62
    30
  6
CONTINUOUS
  0
LAYER
  2
OUTLINE
 70
     0
 62
     3
  6
CONTINUOUS
  0
LAYER
  2
BASIS
 70
     0
 62
     6
  6
DASHDOT
  0
LAYER
  2
DETAIL
 70
     0
 62
     5
  6
CONTINUOUS
  0
LAYER
  2
ARRANGE
 70
     0
 62
     1
  6
CONTINUOUS
  0
LAYER
  2
DEFPOINTS
 70
     0
 62
     7
  6
CONTINUOUS
  0
LAYER
  2
ETC
 70
     0
 62
    61
  6
CONTINUOUS
  0
LAYER
  2
FIX
 70
     0
 62
    11
  6
CONTINUOUS
  0
LAYER
  2
NOTE
 70
     0
 62
     4
  6
CONTINUOUS
  0
LAYER
  2
SERVICESPACE
 70
     0
 62
     2
  6
DASHDOT
  0
LAYER
  2
SYMBOLLINE
 70
     0
 62
    15
  6
CONTINUOUS
  0
ENDTAB
  0
TABLE
  2
STYLE
 70
     3
  0
STYLE
  2
STANDARD
 70
     0
 40
64.0
 41
0.9
 50
0.0
 71
     0
 42
64.0
  3
SIMPLEX.shx
  4
BIGFONT.shx
  0
STYLE
  2
ANNOTATIVE
 70
     0
 40
0.0
 41
1.0
 50
0.0
 71
     0
 42
0.2
  3
txt
  4

  0
STYLE
  2

 70
     1
 40
0.0
 41
1.0
 50
0.0
 71
     0
 42
64.0
  3
ltypeshp.shx
  4

  0
ENDTAB
  0
TABLE
  2
VIEW
 70
     1
  0
VIEW
  2
ALL
 70
     0
 40
4282.6198079999967
 10
0.0
 20
41.309903999999989
 41
5940.0
 11
0.0
 21
0.0
 31
1.0
 12
0.0
 22
0.0
 32
0.0
 42
50.0
 43
0.0
 44
0.0
 50
0.0
 71
     0
  0
ENDTAB
  0
TABLE
  2
UCS
 70
     0
  0
ENDTAB
  0
TABLE
  2
APPID
 70
     5
  0
APPID
  2
ACAD
 70
     0
  0
APPID
  2
ACADANNOTATIVE
 70
     0
  0
APPID
  2
ACAD_MLEADERVER
 70
     0
  0
APPID
  2
ACAD_EXEMPT_FROM_CAD_STANDARDS
 70
     0
  0
APPID
  2
ACAD_NAV_VCDISPLAY
 70
     0
  0
ENDTAB
  0
TABLE
  2
DIMSTYLE
 70
     2
  0
DIMSTYLE
  2
STANDARD
 70
     0
  3

  4

  5

  6

  7

 40
1.0
 41
0.18
 42
0.0625
 43
0.38
 44
0.18
 45
0.0
 46
0.0
 47
0.0
 48
0.0
140
0.18
141
0.09
142
0.0
143
25.399999999999999
144
1.0
145
0.0
146
1.0
147
0.09
 71
     0
 72
     0
 73
     1
 74
     1
 75
     0
 76
     0
 77
     0
 78
     0
170
     0
171
     2
172
     0
173
     0
174
     0
175
     0
176
     0
177
     0
178
     0
  0
DIMSTYLE
  2
ANNOTATIVE
 70
     0
  3

  4

  5

  6

  7

 40
1.0
 41
0.18
 42
0.0625
 43
0.38
 44
0.18
 45
0.0
 46
0.0
 47
0.0
 48
0.0
140
0.18
141
0.09
142
0.0
143
25.399999999999999
144
1.0
145
0.0
146
1.0
147
0.09
 71
     0
 72
     0
 73
     1
 74
     1
 75
     0
 76
     0
 77
     0
 78
     0
170
     0
171
     2
172
     0
173
     0
174
     0
175
     0
176
     0
177
     0
178
     0
  0
ENDTAB
  0
ENDSEC
  0
SECTION
  2
BLOCKS
  0
BLOCK
  8
0
  2
$MODEL_SPACE
 70
     0
 10
0.0
 20
0.0
 30
0.0
  3
$MODEL_SPACE
  1

  0
ENDBLK
  5
1484
  8
0
  0
BLOCK
 67
     1
  8
0
  2
$PAPER_SPACE
 70
     0
 10
0.0
 20
0.0
 30
0.0
  3
$PAPER_SPACE
  1

  0
ENDBLK
  5
1480
 67
     1
  8
0
  0
BLOCK
  8
0
  2
DOT1
 70
     0
 10
0.0
 20
0.0
 30
0.0
  3
DOT1
  1

  0
CIRCLE
  5
124E
  8
SIZE
  6
CONTINUOUS
 62
     7
 10
0.0
 20
0.0
 30
0.0
 40
3.0
  0
ENDBLK
  5
124F
  8
0
  0
BLOCK
  8
0
  2
_ORIGIN
 70
     0
 10
0.0
 20
0.0
 30
0.0
  3
_ORIGIN
  1

  0
CIRCLE
  5
1252
  8
0
  6
CONTINUOUS
 62
     7
 10
0.0
 20
0.0
 30
0.0
 40
0.5
  0
LINE
  5
1253
  8
0
  6
CONTINUOUS
 62
     7
 10
0.0
 20
0.0
 30
0.0
 11
-1.0
 21
0.0
 31
0.0
  0
ENDBLK
  5
1254
  8
0
  0
BLOCK
  8
0
 62
    30
  2
_NONE
 70
     0
 10
0.0
 20
0.0
 30
0.0
  3
_NONE
  1

  0
ENDBLK
  5
1257
  8
0
 62
    30
  0
BLOCK
  8
0
 62
    30
  2
_OPEN30
 70
     0
 10
0.0
 20
0.0
 30
0.0
  3
_OPEN30
  1

  0
LINE
  5
125A
  8
0
  6
BYBLOCK
 62
     0
 10
-1.0
 20
0.26794919
 30
0.0
 11
0.0
 21
0.0
 31
0.0
  0
LINE
  5
125B
  8
0
  6
BYBLOCK
 62
     0
 10
0.0
 20
0.0
 30
0.0
 11
-1.0
 21
-0.26794919
 31
0.0
  0
LINE
  5
125C
  8
0
  6
BYBLOCK
 62
     0
 10
0.0
 20
0.0
 30
0.0
 11
-1.0
 21
0.0
 31
0.0
  0
ENDBLK
  5
125D
  8
0
 62
    30
  0
BLOCK
  8
0
 62
    30
  2
A$C4FEE6482
 70
     0
 10
0.0
 20
0.0
 30
0.0
  3
A$C4FEE6482
  1

  0
TEXT
  5
1260
  8
SIZE
  6
CONTINUOUS
 62
    30
 10
64.000001433524176
 20
-11.519999035519531
 30
0.0
 40
64.0
  1
\U+03C6155
 50
90.0
 41
0.9
 72
     1
 11
64.000001433524176
 21
97.371429535909044
 31
0.0
  0
TEXT
  5
1261
  8
ETC
  6
CONTINUOUS
 62
    61
 10
902.53400543352404
 20
522.74734253590896
 30
0.0
 40
64.0
  1
換気扇
 41
0.9
  0
ENDBLK
  5
1262
  8
0
 62
    30
  0
BLOCK
  8
0
 62
    30
  2
A$C5B1D2A78
 70
     0
 10
0.0
 20
0.0
 30
0.0
  3
A$C5B1D2A78
  1

  0
TEXT
  5
1265
  8
SIZE
  6
CONTINUOUS
 62
    30
 10
64.000001433524176
 20
-11.519999035519531
 30
0.0
 40
64.0
  1
\U+03C6155
 50
90.0
 41
0.9
 72
     1
 11
64.000001433524176
 21
97.371429535909044
 31
0.0
  0
TEXT
  5
1266
  8
ETC
  6
CONTINUOUS
 62
    61
 10
902.53400543352404
 20
522.74734253590896
 30
0.0
 40
64.0
  1
換気扇
 41
0.9
  0
ENDBLK
  5
1267
  8
0
 62
    30
  0
BLOCK
  8
0
 62
    30
  2
*D8
 70
     1
 10
0.0
 20
0.0
 30
0.0
  3
*D8
  1

  0
LINE
  5
126A
  8
SIZE
  6
CONTINUOUS
 10
6584.8901436933156
 20
774.62104029180341
 30
0.0
 11
6259.5889734912889
 21
774.62104029180341
 31
0.0
  0
LINE
  5
126B
  8
SIZE
  6
CONTINUOUS
 10
6584.8901436933156
 20
674.62104029180341
 30
0.0
 11
6259.5889734912889
 21
674.62104029180352
 31
0.0
  0
LINE
  5
126C
  8
SIZE
  6
CONTINUOUS
 10
6279.5889734912889
 20
774.62104029180341
 30
0.0
 11
6279.5889734912889
 21
814.62104029180341
 31
0.0
  0
LINE
  5
126D
  8
SIZE
  6
CONTINUOUS
 10
6279.5889734912889
 20
674.62104029180352
 30
0.0
 11
6279.5889734912889
 21
634.62104029180352
 31
0.0
  0
LINE
  5
126E
  8
SIZE
  6
CONTINUOUS
 10
6279.5889734912889
 20
774.62104029180341
 30
0.0
 11
6279.5889734912889
 21
674.62104029180352
 31
0.0
  0
TEXT
  5
126F
  8
SIZE
  6
CONTINUOUS
 10
6259.5889734912889
 20
656.04961172037599
 30
0.0
 40
64.0
  1
100
 50
90.0
 41
0.9
  0
POINT
  5
1270
  8
DEFPOINTS
  6
CONTINUOUS
 62
     0
 10
6604.8901436933156
 20
774.62104029180341
 30
0.0
  0
POINT
  5
1271
  8
DEFPOINTS
  6
CONTINUOUS
 62
     0
 10
6604.8901436933156
 20
674.62104029180341
 30
0.0
  0
POINT
  5
1272
  8
DEFPOINTS
  6
CONTINUOUS
 62
     0
 10
6279.5889734912889
 20
674.62104029180352
 30
0.0
  0
ENDBLK
  5
1273
  8
0
 62
    30
  0
BLOCK
  8
0
 62
    30
  2
*D9
 70
     1
 10
0.0
 20
0.0
 30
0.0
  3
*D9
  1

  0
LINE
  5
1276
  8
SIZE
  6
CONTINUOUS
 10
6631.3901436933129
 20
775.62104029180341
 30
0.0
 11
6142.2164603685324
 21
775.62104029180341
 31
0.0
  0
LINE
  5
1277
  8
SIZE
  6
CONTINUOUS
 10
6631.3901436933129
 20
673.62104029180432
 30
0.0
 11
6142.2164603685324
 21
673.62104029180432
 31
0.0
  0
LINE
  5
1278
  8
SIZE
  6
CONTINUOUS
 10
6162.2164603685314
 20
775.62104029180341
 30
0.0
 11
6162.2164603685314
 21
815.62104029180341
 31
0.0
  0
LINE
  5
1279
  8
SIZE
  6
CONTINUOUS
 10
6162.2164603685314
 20
673.62104029180432
 30
0.0
 11
6162.2164603685314
 21
633.62104029180432
 31
0.0
  0
LINE
  5
127A
  8
SIZE
  6
CONTINUOUS
 10
6162.2164603685314
 20
775.62104029180341
 30
0.0
 11
6162.2164603685314
 21
673.62104029180432
 31
0.0
  0
TEXT
  5
127B
  8
SIZE
  6
CONTINUOUS
 10
6142.2164603685324
 20
656.04961172037645
 30
0.0
 40
64.0
  1
102
 50
90.0
 41
0.9
  0
POINT
  5
127C
  8
DEFPOINTS
  6
CONTINUOUS
 62
     0
 10
6651.3901436933156
 20
775.62104029180341
 30
0.0
  0
POINT
  5
127D
  8
DEFPOINTS
  6
CONTINUOUS
 62
     0
 10
6651.3901436933156
 20
673.62104029180432
 30
0.0
  0
POINT
  5
127E
  8
DEFPOINTS
  6
CONTINUOUS
 62
     0
 10
6162.2164603685314
 20
673.62104029180432
 30
0.0
  0
ENDBLK
  5
127F
  8
0
 62
    30
  0
ENDSEC
  0
SECTION
  2
ENTITIES
  0
TEXT
  5
1280
  8
ETC
  6
CONTINUOUS
 62
    61
 10
247.61800206061071
 20
253.54109793116049
 30
0.0
 40
64.0
  1
エアリゾート
 41
0.9
  0
TEXT
  5
1281
  8
ETC
  6
CONTINUOUS
 62
    61
 10
256.47345724959081
 20
335.78201675679838
 30
0.0
 40
64.0
  1
P-13CS3_5
 41
0.9
  0
TEXT
  5
1282
  8
ETC
  6
CONTINUOUS
 62
    61
 10
384.23569483677318
 20
177.8794668650531
 30
0.0
 40
50.0
  1
P-13CS3
 41
0.9
  0
CIRCLE
  5
1283
  8
ARRANGE
  6
CONTINUOUS
 62
     1
 39
50.0
 10
-0.0000000000009095
 20
0.0000000000012506
 30
0.0
 40
40.0
  0
TEXT
  5
1284
  8
SIZE
  6
CONTINUOUS
 62
    30
 10
-208.77580835068329
 20
-92.022654246861009
 30
0.0
 40
64.0
  1
\U+03C696
 50
90.0
 41
0.9
 72
     1
 11
-208.77580835068329
 21
-6.4455113897181491
 31
0.0
  0
LINE
  5
1285
  8
SIZE
  6
CONTINUOUS
 62
    30
 10
-191.15909484850539
 20
-47.999999999998742
 30
0.0
 11
-191.15909484850539
 21
48.000000000000782
 31
0.0
  0
LINE
  5
1286
  8
SIZE
  6
CONTINUOUS
 62
    30
 10
-305.31093913279801
 20
49.000000000000902
 30
0.0
 11
-305.31093913279801
 21
-48.999999999998742
 31
0.0
  0
TEXT
  5
1287
  8
SIZE
  6
CONTINUOUS
 62
    30
 10
-329.06051838319951
 20
-92.988498150907859
 30
0.0
 40
64.0
  1
\U+03C698
 50
90.0
 41
0.9
 72
     1
 11
-329.06051838319951
 21
-6.0399267223364159
 31
0.0
  0
LINE
  5
1288
  8
SIZE
  6
CONTINUOUS
 62
    30
 10
257.57026659658192
 20
-52.499999999998742
 30
0.0
 11
257.57026659658192
 21
52.500000000000789
 31
0.0
  0
LINE
  5
1289
  8
SIZE
  6
CONTINUOUS
 62
    30
 10
154.14231140525499
 20
-51.029986509104319
 30
0.0
 11
154.14231140525499
 21
51.029986509106948
 31
0.0
  0
TEXT
  5
128A
  8
SIZE
  6
CONTINUOUS
 62
    30
 10
236.2776022259286
 20
-117.7409113833974
 30
0.0
 40
64.0
  1
\U+03C6105
 50
90.0
 41
0.9
 72
     1
 11
236.2776022259286
 21
-8.8494828119688691
 31
0.0
  0
LINE
  5
128B
  8
SIZE
  6
CONTINUOUS
 62
    30
 10
366.82701730746697
 20
59.50000000000081
 30
0.0
 11
366.82701730746697
 21
-59.499999999998742
 31
0.0
  0
TEXT
  5
128C
  8
SIZE
  6
CONTINUOUS
 62
    30
 10
346.93953380147099
 20
-118.0956859050402
 30
0.0
 40
64.0
  1
\U+03C6119
 50
90.0
 41
0.9
 72
     1
 11
346.93953380147099
 21
-16.061400190754512
 31
0.0
  0
TEXT
  5
128D
  8
SIZE
  6
CONTINUOUS
 62
    30
 10
137.64414372159709
 20
-117.7409113833974
 30
0.0
 40
64.0
  1
\U+03C6102
 50
90.0
 41
0.9
 72
     1
 11
137.64414372159709
 21
-8.8494828119688691
 31
0.0
  0
LINE
  5
128E
  8
DETAIL
  6
CONTINUOUS
 62
     5
 39
50.0
 10
-52.0
 20
-58.499999999998742
 30
0.0
 11
-52.0
 21
58.500000000000789
 31
0.0
  0
LINE
  5
128F
  8
DETAIL
  6
CONTINUOUS
 62
     5
 39
50.0
 10
-50.0
 20
-58.499999999998742
 30
0.0
 11
-49.999999999996348
 21
58.500000000000789
 31
0.0
  0
LINE
  5
1290
  8
DETAIL
  6
CONTINUOUS
 62
     5
 39
50.0
 10
0.0
 20
-49.999999999998742
 30
0.0
 11
-0.0000000000009095
 21
50.000000000000888
 31
0.0
  0
LINE
  5
1291
  8
DETAIL
  6
CONTINUOUS
 62
     5
 39
50.0
 10
-98.999999999999091
 20
-49.499999999999211
 30
0.0
 11
-98.999999999999091
 21
49.500000000000888
 31
0.0
  0
LINE
  5
1292
  8
ARRANGE
  6
CONTINUOUS
 62
     1
 39
50.0
 10
-14.142135623732431
 20
-14.14213562372959
 30
0.0
 11
14.14213562373425
 21
14.142135623732431
 31
0.0
  0
LINE
  5
1293
  8
ARRANGE
  6
CONTINUOUS
 62
     1
 39
50.0
 10
14.14213562373425
 20
-14.14213562373015
 30
0.0
 11
-14.142135623732431
 21
14.142135623733219
 31
0.0
  0
CIRCLE
  5
1294
  8
SIZE
  6
CONTINUOUS
 62
    30
 39
50.0
 10
-191.15909484850539
 20
-47.999999999998742
 30
0.0
 40
6.0
  0
LINE
  5
1295
  8
DETAIL
  6
CONTINUOUS
 62
     5
 39
50.0
 10
-0.9995503035188447
 20
-51.029986509104319
 30
0.0
 11
0.0
 21
-49.999999999998742
 31
0.0
  0
LINE
  5
1296
  8
DETAIL
  6
CONTINUOUS
 62
     5
 39
50.0
 10
-50.0
 20
-52.499999999998742
 30
0.0
 11
-0.9995503035188447
 21
-51.029986509104319
 31
0.0
  0
LINE
  5
1297
  8
DETAIL
  6
CONTINUOUS
 62
     5
 39
50.0
 10
-51.0
 20
-59.499999999998742
 30
0.0
 11
-51.0
 21
-59.499999999998742
 31
0.0
  0
CIRCLE
  5
1298
  8
SIZE
  6
CONTINUOUS
 62
    30
 39
50.0
 10
-305.31093913279801
 20
-48.999999999998742
 30
0.0
 40
6.0
  0
CIRCLE
  5
1299
  8
SIZE
  6
CONTINUOUS
 62
    30
 39
50.0
 10
257.57026659658192
 20
-52.499999999998742
 30
0.0
 40
6.0
  0
CIRCLE
  5
129A
  8
SIZE
  6
CONTINUOUS
 62
    30
 39
50.0
 10
154.14231140525499
 20
-51.029986509104319
 30
0.0
 40
6.0
  0
CIRCLE
  5
129B
  8
SIZE
  6
CONTINUOUS
 62
    30
 39
50.0
 10
366.82701730746697
 20
-59.499999999998742
 30
0.0
 40
6.0
  0
LINE
  5
129C
  8
SIZE
  6
CONTINUOUS
 62
    30
 10
-81.849575100281072
 20
-47.999999999998742
 30
0.0
 11
-203.18144699509409
 21
-47.999999999998742
 31
0.0
  0
LINE
  5
129D
  8
BASIS
  6
DASHDOT
 62
     6
 39
50.0
 10
21.056775992417901
 20
0.0000000000009095
 30
0.0
 11
-116.8055796011958
 21
0.0000000000009095
 31
0.0
  0
LINE
  5
129E
  8
SIZE
  6
CONTINUOUS
 62
    30
 10
-119.0
 20
-48.999999999998742
 30
0.0
 11
-325.31093913279801
 21
-48.999999999998742
 31
0.0
  0
LINE
  5
129F
  8
SIZE
  6
CONTINUOUS
 62
    30
 10
-305.31093913279801
 20
-48.999999999998742
 30
0.0
 11
-305.31093913279801
 21
-88.999999999998735
 31
0.0
  0
LINE
  5
12A0
  8
SIZE
  6
CONTINUOUS
 62
    30
 10
-191.15909484850539
 20
-47.999999999998742
 30
0.0
 11
-191.15909484850539
 21
-87.999999999998735
 31
0.0
  0
LINE
  5
12A1
  8
SIZE
  6
CONTINUOUS
 62
    30
 10
-29.999999999997272
 20
-59.499999999998742
 30
0.0
 11
387.80605696237939
 21
-59.499999999998742
 31
0.0
  0
LINE
  5
12A2
  8
SIZE
  6
CONTINUOUS
 62
    30
 10
19.000449696479329
 20
-51.029986509104319
 30
0.0
 11
173.84963389053061
 21
-51.029986509104319
 31
0.0
  0
LINE
  5
12A3
  8
SIZE
  6
CONTINUOUS
 62
    30
 10
-30.0
 20
-52.499999999998742
 30
0.0
 11
278.94839505504387
 21
-52.499999999998742
 31
0.0
  0
LINE
  5
12A4
  8
DETAIL
  6
DASHED
 62
     5
 39
50.0
 10
-24.999999999997272
 20
-47.999999999998742
 30
0.0
 11
-74.0
 21
-47.999999999998742
 31
0.0
  0
LINE
  5
12A5
  8
DETAIL
  6
DASHED
 62
     5
 39
50.0
 10
-24.999999999997272
 20
-47.999999999998742
 30
0.0
 11
0.0
 21
-48.999999999998742
 31
0.0
  0
LINE
  5
12A6
  8
DETAIL
  6
DASHED
 62
     5
 39
50.0
 10
-74.0
 20
-47.999999999998742
 30
0.0
 11
-98.999999999999091
 21
-48.999999999998742
 31
0.0
  0
LINE
  5
12A7
  8
SIZE
  6
CONTINUOUS
 62
    30
 10
154.14231140525499
 20
-51.029986509104319
 30
0.0
 11
154.14231140525499
 21
-91.029986509103495
 31
0.0
  0
LINE
  5
12A8
  8
SIZE
  6
CONTINUOUS
 62
    30
 10
257.57026659658192
 20
-52.499999999998742
 30
0.0
 11
257.57026659658192
 21
-92.499999999998764
 31
0.0
  0
LINE
  5
12A9
  8
SIZE
  6
CONTINUOUS
 62
    30
 10
366.82701730746697
 20
-59.499999999998742
 30
0.0
 11
366.82701730746697
 21
-99.499999999998664
 31
0.0
  0
CIRCLE
  5
12AA
  8
SIZE
  6
CONTINUOUS
 62
    30
 39
50.0
 10
-98.999999999999091
 20
322.50802594952142
 30
0.0
 40
6.0
  0
CIRCLE
  5
12AB
  8
SIZE
  6
CONTINUOUS
 62
    30
 39
50.0
 10
0.0
 20
322.50802594952142
 30
0.0
 40
6.0
  0
CIRCLE
  5
12AC
  8
SIZE
  6
CONTINUOUS
 62
    30
 39
50.0
 10
-50.0
 20
201.7493692582116
 30
0.0
 40
6.0
  0
CIRCLE
  5
12AD
  8
SIZE
  6
CONTINUOUS
 62
    30
 39
50.0
 10
0.0
 20
201.7493692582118
 30
0.0
 40
6.0
  0
CIRCLE
  5
12AE
  8
SIZE
  6
CONTINUOUS
 62
    30
 39
50.0
 10
-51.999999999999091
 20
201.7493692582116
 30
0.0
 40
6.0
  0
CIRCLE
  5
12AF
  8
SIZE
  6
CONTINUOUS
 62
    30
 39
50.0
 10
-191.15909484850539
 20
48.000000000000782
 30
0.0
 40
6.0
  0
LINE
  5
12B0
  8
DETAIL
  6
CONTINUOUS
 62
     5
 39
50.0
 10
-0.0000000000009095
 20
50.000000000000888
 30
0.0
 11
-0.9995503035188447
 21
51.029986509106948
 31
0.0
  0
LINE
  5
12B1
  8
DETAIL
  6
CONTINUOUS
 62
     5
 39
50.0
 10
-50.0
 20
52.500000000000789
 30
0.0
 11
-0.9995503035188447
 21
51.029986509106948
 31
0.0
  0
LINE
  5
12B2
  8
DETAIL
  6
CONTINUOUS
 62
     5
 39
50.0
 10
-50.999999999996348
 20
59.50000000000081
 30
0.0
 11
-51.0
 21
59.50000000000081
 31
0.0
  0
CIRCLE
  5
12B3
  8
SIZE
  6
CONTINUOUS
 62
    30
 39
50.0
 10
-305.31093913279801
 20
49.000000000000902
 30
0.0
 40
6.0
  0
CIRCLE
  5
12B4
  8
SIZE
  6
CONTINUOUS
 62
    30
 39
50.0
 10
257.57026659658192
 20
52.500000000000789
 30
0.0
 40
6.0
  0
CIRCLE
  5
12B5
  8
SIZE
  6
CONTINUOUS
 62
    30
 39
50.0
 10
154.14231140525499
 20
51.029986509107069
 30
0.0
 40
6.0
  0
CIRCLE
  5
12B6
  8
SIZE
  6
CONTINUOUS
 62
    30
 39
50.0
 10
366.82701730746697
 20
59.50000000000081
 30
0.0
 40
6.0
  0
LINE
  5
12B7
  8
SIZE
  6
CONTINUOUS
 62
    30
 10
-83.051560811404656
 20
48.000000000000782
 30
0.0
 11
-202.58031670271521
 21
48.000000000000782
 31
0.0
  0
LINE
  5
12B8
  8
SIZE
  6
CONTINUOUS
 62
    30
 10
-98.999999999999091
 20
322.50802594952142
 30
0.0
 11
-139.0000000000027
 21
322.50802594952142
 31
0.0
  0
LINE
  5
12B9
  8
SIZE
  6
CONTINUOUS
 62
    30
 10
-51.999999999999091
 20
201.7493692582116
 30
0.0
 11
-156.3182314492305
 21
201.7493692582116
 31
0.0
  0
LINE
  5
12BA
  8
SIZE
  6
CONTINUOUS
 62
    30
 10
-119.0
 20
49.000000000000902
 30
0.0
 11
-325.31093913279801
 21
49.000000000000902
 31
0.0
  0
LINE
  5
12BB
  8
SIZE
  6
CONTINUOUS
 62
    30
 10
-305.31093913279801
 20
49.000000000000902
 30
0.0
 11
-305.31093913279801
 21
89.000000000000782
 31
0.0
  0
LINE
  5
12BC
  8
SIZE
  6
CONTINUOUS
 62
    30
 10
-191.15909484850539
 20
48.000000000000782
 30
0.0
 11
-191.15909484850539
 21
88.000000000001265
 31
0.0
  0
TEXT
  5
12BD
  8
SIZE
  6
CONTINUOUS
 62
    30
 10
-168.77115508362931
 20
223.2499943013913
 30
0.0
 40
64.0
  1
2
 41
0.9
  0
LINE
  5
12BE
  8
SIZE
  6
CONTINUOUS
 62
    30
 10
-29.999999999997272
 20
59.50000000000081
 30
0.0
 11
389.00890168455209
 21
59.50000000000081
 31
0.0
  0
LINE
  5
12BF
  8
SIZE
  6
CONTINUOUS
 62
    30
 10
-98.999999999999091
 20
68.000000000000895
 30
0.0
 11
-98.999999999999091
 21
343.53469916400348
 31
0.0
  0
LINE
  5
12C0
  8
SIZE
  6
CONTINUOUS
 62
    30
 10
-50.0
 20
201.9176621371459
 30
0.0
 11
-50.0
 21
181.74936925821109
 31
0.0
  0
LINE
  5
12C1
  8
SIZE
  6
CONTINUOUS
 62
    30
 10
-50.0
 20
79.500000000000909
 30
0.0
 11
-50.0
 21
221.91766213714541
 31
0.0
  0
LINE
  5
12C2
  8
SIZE
  6
CONTINUOUS
 62
    30
 10
-51.999999999999091
 20
79.500000000000909
 30
0.0
 11
-51.999999999999091
 21
221.74936925821041
 31
0.0
  0
LINE
  5
12C3
  8
SIZE
  6
CONTINUOUS
 62
    30
 10
0.0
 20
69.000000000001023
 30
0.0
 11
0.0
 21
341.12900454975937
 31
0.0
  0
LINE
  5
12C4
  8
SIZE
  6
CONTINUOUS
 62
    30
 10
19.00044969647843
 20
51.029986509106948
 30
0.0
 11
173.54892141751131
 21
51.029986509106948
 31
0.0
  0
LINE
  5
12C5
  8
SIZE
  6
CONTINUOUS
 62
    30
 10
-30.0
 20
52.500000000000789
 30
0.0
 11
279.54982000108072
 21
52.500000000000789
 31
0.0
  0
LINE
  5
12C6
  8
DETAIL
  6
DASHED
 62
     5
 39
50.0
 10
-24.999999999997272
 20
48.000000000000782
 30
0.0
 11
-74.0
 21
48.000000000000782
 31
0.0
  0
LINE
  5
12C7
  8
DETAIL
  6
DASHED
 62
     5
 39
50.0
 10
-24.999999999997272
 20
48.000000000000782
 30
0.0
 11
-0.0000000000009095
 21
49.000000000000902
 31
0.0
  0
LINE
  5
12C8
  8
DETAIL
  6
DASHED
 62
     5
 39
50.0
 10
-74.0
 20
48.000000000000782
 30
0.0
 11
-98.999999999999091
 21
49.000000000000902
 31
0.0
  0
LINE
  5
12C9
  8
SIZE
  6
CONTINUOUS
 62
    30
 10
154.14231140525499
 20
51.029986509106948
 30
0.0
 11
154.14231140525499
 21
91.029986509106948
 31
0.0
  0
LINE
  5
12CA
  8
SIZE
  6
CONTINUOUS
 62
    30
 10
257.57026659658192
 20
52.500000000000789
 30
0.0
 11
257.57026659658192
 21
92.500000000001265
 31
0.0
  0
LINE
  5
12CB
  8
SIZE
  6
CONTINUOUS
 62
    30
 10
-50.0
 20
201.7493692582116
 30
0.0
 11
117.04923553104619
 21
201.7493692582116
 31
0.0
  0
TEXT
  5
12CC
  8
SIZE
  6
CONTINUOUS
 62
    30
 10
16.768884740724388
 20
223.2499943013913
 30
0.0
 40
64.0
  1
50
 41
0.9
  0
LINE
  5
12CD
  8
SIZE
  6
CONTINUOUS
 62
    30
 10
-50.0
 20
201.7493692582116
 30
0.0
 11
-51.999999999999091
 21
201.7493692582116
 31
0.0
  0
LINE
  5
12CE
  8
SIZE
  6
CONTINUOUS
 62
    30
 10
0.0
 20
322.50802594952142
 30
0.0
 11
40.0
 21
322.50802594952142
 31
0.0
  0
LINE
  5
12CF
  8
SIZE
  6
CONTINUOUS
 62
    30
 10
-98.999999999999091
 20
322.50802594952142
 30
0.0
 11
0.0
 21
322.50802594952142
 31
0.0
  0
LINE
  5
12D0
  8
SIZE
  6
CONTINUOUS
 62
    30
 10
366.82701730746697
 20
59.50000000000081
 30
0.0
 11
366.82701730746697
 21
99.500000000001236
 31
0.0
  0
TEXT
  5
12D1
  8
SIZE
  6
CONTINUOUS
 62
    30
 10
-100.6868510131862
 20
353.15747245107042
 30
0.0
 40
64.0
  1
99
 41
0.9
  0
LINE
  5
12D2
  8
DETAIL
  6
CONTINUOUS
 62
     5
 39
50.0
 10
-0.9995503035188447
 20
51.029986509106948
 30
0.0
 11
-0.9995503035188447
 21
-51.029986509104319
 31
0.0
  0
LINE
  5
12D3
  8
OUTLINE
  6
CONTINUOUS
 62
     3
 39
50.0
 10
-50.0
 20
-52.499999999998742
 30
0.0
 11
-0.9995503035188447
 21
-51.029986509104319
 31
0.0
  0
LINE
  5
12D4
  8
OUTLINE
  6
CONTINUOUS
 62
     3
 39
50.0
 10
-0.9995503035188447
 20
-51.029986509104319
 30
0.0
 11
0.0
 21
-49.999999999998742
 31
0.0
  0
LINE
  5
12D5
  8
OUTLINE
  6
CONTINUOUS
 62
     3
 39
50.0
 10
0.0
 20
-49.999999999998742
 30
0.0
 11
-0.0000000000009095
 21
50.000000000000888
 31
0.0
  0
LINE
  5
12D6
  8
OUTLINE
  6
CONTINUOUS
 62
     3
 39
50.0
 10
-0.0000000000009095
 20
50.000000000000888
 30
0.0
 11
-0.9995503035188447
 21
51.029986509106948
 31
0.0
  0
LINE
  5
12D7
  8
OUTLINE
  6
CONTINUOUS
 62
     3
 39
50.0
 10
-0.9995503035188447
 20
51.029986509106948
 30
0.0
 11
-50.0
 21
52.500000000000789
 31
0.0
  0
LINE
  5
12D8
  8
DETAIL
  6
CONTINUOUS
 62
     5
 39
50.0
 10
-53.0
 20
-49.999999999999091
 30
0.0
 11
-53.0
 21
50.000000000000888
 31
0.0
  0
LINE
  5
12D9
  8
DETAIL
  6
CONTINUOUS
 62
     5
 39
50.0
 10
-51.999999999999091
 20
51.000000000000902
 30
0.0
 11
-53.0
 21
50.000000000000888
 31
0.0
  0
LINE
  5
12DA
  8
DETAIL
  6
CONTINUOUS
 62
     5
 39
50.0
 10
-53.0
 20
50.000000000000888
 30
0.0
 11
-98.500000000000014
 21
50.000000000000888
 31
0.0
  0
LINE
  5
12DB
  8
DETAIL
  6
CONTINUOUS
 62
     5
 39
50.0
 10
-51.999999999999091
 20
-50.999999999999091
 30
0.0
 11
-53.0
 21
-49.999999999999091
 31
0.0
  0
LINE
  5
12DC
  8
DETAIL
  6
CONTINUOUS
 62
     5
 39
50.0
 10
-53.0
 20
-49.999999999999091
 30
0.0
 11
-98.499999999997272
 21
-49.999999999999091
 31
0.0
  0
LINE
  5
12DD
  8
DETAIL
  6
CONTINUOUS
 62
     5
 39
50.0
 10
-98.500000000000014
 20
50.000000000000888
 30
0.0
 11
-98.999999999999091
 21
49.500000000000888
 31
0.0
  0
LINE
  5
12DE
  8
DETAIL
  6
CONTINUOUS
 62
     5
 39
50.0
 10
-98.499999999997272
 20
-49.999999999999091
 30
0.0
 11
-98.999999999999091
 21
-49.499999999999211
 31
0.0
  0
LINE
  5
12DF
  8
DETAIL
  6
CONTINUOUS
 62
     5
 39
50.0
 10
-98.500000000000014
 20
50.000000000000888
 30
0.0
 11
-98.499999999997272
 21
-49.999999999999091
 31
0.0
  0
ARC
  5
12E0
  8
DETAIL
  6
CONTINUOUS
 62
     5
 39
50.0
 10
-50.999999999996348
 20
58.500000000000789
 30
0.0
 40
1.0
 50
0.0
 51
90.0
  0
ARC
  5
12E1
  8
DETAIL
  6
CONTINUOUS
 62
     5
 39
50.0
 10
-51.0
 20
58.500000000000789
 30
0.0
 40
1.0
 50
90.0
 51
180.0
  0
ARC
  5
12E2
  8
DETAIL
  6
CONTINUOUS
 62
     5
 39
50.0
 10
-51.0
 20
-58.499999999998742
 30
0.0
 40
1.0
 50
270.0
 51
0.0
  0
ARC
  5
12E3
  8
DETAIL
  6
CONTINUOUS
 62
     5
 39
50.0
 10
-51.0
 20
-58.499999999998742
 30
0.0
 40
1.0
 50
180.0
 51
270.0
  0
LINE
  5
12E4
  8
OUTLINE
  6
CONTINUOUS
 62
     3
 39
50.0
 10
-49.999999999996348
 20
58.500000000000789
 30
0.0
 11
-50.0
 21
-58.499999999998742
 31
0.0
  0
LINE
  5
12E5
  8
OUTLINE
  6
CONTINUOUS
 62
     3
 39
50.0
 10
-52.0
 20
-58.499999999998742
 30
0.0
 11
-52.0
 21
58.500000000000789
 31
0.0
  0
ARC
  5
12E6
  8
OUTLINE
  6
CONTINUOUS
 62
     3
 39
50.0
 10
-50.999999999999091
 20
58.499999999999091
 30
0.0
 40
1.0000000000018181
 50
0.0000000001042204
 51
179.99999999989569
  0
ARC
  5
12E7
  8
OUTLINE
  6
CONTINUOUS
 62
     3
 39
50.0
 10
-51.0
 20
-58.49999999999919
 30
0.0
 40
1.0
 50
179.99999999997391
 51
0.0000000000260551
  0
LINE
  5
12E8
  8
OUTLINE
  6
CONTINUOUS
 62
     3
 39
50.0
 10
-51.999999999999091
 20
51.000000000000902
 30
0.0
 11
-53.0
 21
50.000000000000888
 31
0.0
  0
LINE
  5
12E9
  8
OUTLINE
  6
CONTINUOUS
 62
     3
 39
50.0
 10
-53.0
 20
50.000000000000888
 30
0.0
 11
-98.500000000000014
 21
50.000000000000888
 31
0.0
  0
LINE
  5
12EA
  8
OUTLINE
  6
CONTINUOUS
 62
     3
 39
50.0
 10
-98.500000000000014
 20
50.000000000000888
 30
0.0
 11
-98.999999999999091
 21
49.000000000000902
 31
0.0
  0
LINE
  5
12EB
  8
OUTLINE
  6
CONTINUOUS
 62
     3
 39
50.0
 10
-98.999999999999091
 20
49.000000000000902
 30
0.0
 11
-98.999999999999091
 21
-48.999999999998742
 31
0.0
  0
LINE
  5
12EC
  8
OUTLINE
  6
CONTINUOUS
 62
     3
 39
50.0
 10
-98.999999999999091
 20
-48.999999999998742
 30
0.0
 11
-98.499999999997272
 21
-49.999999999999091
 31
0.0
  0
LINE
  5
12ED
  8
OUTLINE
  6
CONTINUOUS
 62
     3
 39
50.0
 10
-98.499999999997272
 20
-49.999999999999091
 30
0.0
 11
-53.0
 21
-49.999999999999091
 31
0.0
  0
LINE
  5
12EE
  8
OUTLINE
  6
CONTINUOUS
 62
     3
 39
50.0
 10
-53.0
 20
-49.999999999999091
 30
0.0
 11
-51.999999999999091
 21
-50.999999999999091
 31
0.0
  0
CIRCLE
  5
12EF
  8
SIZE
  6
CONTINUOUS
 62
    30
 39
50.0
 10
-541.17368332478395
 20
51.000000000000902
 30
0.0
 40
6.0
  0
CIRCLE
  5
12F0
  8
SIZE
  6
CONTINUOUS
 62
    30
 39
50.0
 10
-541.17368332478395
 20
-50.999999999997939
 30
0.0
 40
6.0
  0
CIRCLE
  5
12F1
  8
SIZE
  6
CONTINUOUS
 62
    30
 39
50.0
 10
-423.8011702020267
 20
-49.999999999999091
 30
0.0
 40
6.0
  0
CIRCLE
  5
12F2
  8
SIZE
  6
CONTINUOUS
 62
    30
 39
50.0
 10
-423.8011702020267
 20
50.000000000000888
 30
0.0
 40
6.0
  0
LINE
  5
12F3
  8
SIZE
  6
CONTINUOUS
 10
-72.000000000000909
 20
51.000000000000902
 30
0.0
 11
-561.17368332478407
 21
51.000000000000902
 31
0.0
  0
LINE
  5
12F4
  8
SIZE
  6
CONTINUOUS
 10
-72.000000000000909
 20
-50.999999999998181
 30
0.0
 11
-561.17368332478407
 21
-50.999999999997939
 31
0.0
  0
LINE
  5
12F5
  8
SIZE
  6
CONTINUOUS
 10
-541.17368332478395
 20
51.000000000000902
 30
0.0
 11
-541.17368332478395
 21
91.000000000000924
 31
0.0
  0
LINE
  5
12F6
  8
SIZE
  6
CONTINUOUS
 10
-541.17368332478395
 20
-50.999999999997939
 30
0.0
 11
-541.17368332478395
 21
-90.99999999999784
 31
0.0
  0
LINE
  5
12F7
  8
SIZE
  6
CONTINUOUS
 10
-541.17368332478395
 20
51.000000000000902
 30
0.0
 11
-541.17368332478395
 21
-50.999999999997939
 31
0.0
  0
LINE
  5
12F8
  8
SIZE
  6
CONTINUOUS
 10
-118.5
 20
50.000000000000888
 30
0.0
 11
-443.80117020202391
 21
50.000000000000888
 31
0.0
  0
LINE
  5
12F9
  8
SIZE
  6
CONTINUOUS
 10
-118.5
 20
-49.999999999999091
 30
0.0
 11
-443.80117020202391
 21
-49.999999999999091
 31
0.0
  0
LINE
  5
12FA
  8
SIZE
  6
CONTINUOUS
 10
-423.8011702020267
 20
50.000000000000888
 30
0.0
 11
-423.8011702020267
 21
90.000000000001265
 31
0.0
  0
LINE
  5
12FB
  8
SIZE
  6
CONTINUOUS
 10
-423.8011702020267
 20
-49.999999999999091
 30
0.0
 11
-423.8011702020267
 21
-89.999999999998977
 31
0.0
  0
LINE
  5
12FC
  8
SIZE
  6
CONTINUOUS
 10
-423.8011702020267
 20
50.000000000000888
 30
0.0
 11
-423.8011702020267
 21
-49.999999999999091
 31
0.0
  0
TEXT
  5
12FD
  8
SIZE
  6
CONTINUOUS
 62
    30
 10
-570.74994108781618
 20
-112.3400444634795
 30
0.0
 40
64.0
  1
\U+03C6102
 50
90.0
 41
0.9
 72
     1
 11
-570.74994108781618
 21
-3.4486158920509511
 31
0.0
  0
TEXT
  5
12FE
  8
SIZE
  6
CONTINUOUS
 62
    30
 10
-445.99637486332892
 20
-112.3400444634795
 30
0.0
 40
64.0
  1
\U+03C6100
 50
90.0
 41
0.9
 72
     1
 11
-445.99637486332892
 21
-3.4486158920509511
 31
0.0
  0
TEXT
  5
14B8
  8
ETC
  6
CONTINUOUS
 62
    61
 10
384.55326764443078
 20
106.9571675285939
 30
0.0
 40
50.0
  1
P-13CS2
 41
0.9
  0
ENDSEC
  0
EOF
