  0
SECTION
  2
HEADER
  9
$ACADVER
  1
AC1009
  9
$INSBASE
 10
0.0
 20
0.0
 30
0.0
  9
$EXTMIN
 10
-382.5194419999998
 20
-358.92032499999999
 30
0.0
  9
$EXTMAX
 10
769.49627524139055
 20
501.85776620078468
 30
50.0
  9
$LIMMIN
 10
-2970.0
 20
-2100.0
  9
$LIMMAX
 10
2970.0
 20
2100.0
  9
$ORTHOMODE
 70
     1
  9
$REGENMODE
 70
     0
  9
$FILLMODE
 70
     1
  9
$QTEXTMODE
 70
     0
  9
$MIRRTEXT
 70
     0
  9
$DRAGMODE
 70
     2
  9
$LTSCALE
 40
20.0
  9
$OSMODE
 70
    41
  9
$ATTMODE
 70
     1
  9
$TEXTSIZE
 40
64.0
  9
$TRACEWID
 40
0.05
  9
$TEXTSTYLE
  7
STANDARD
  9
$CLAYER
  8
SIZE
  9
$CELTYPE
  6
CONTINUOUS
  9
$CECOLOR
 62
     8
  9
$DIMSCALE
 40
1.0
  9
$DIMASZ
 40
12.0
  9
$DIMEXO
 40
20.0
  9
$DIMDLI
 40
200.0
  9
$DIMRND
 40
0.0
  9
$DIMDLE
 40
0.0
  9
$DIMEXE
 40
20.0
  9
$DIMTP
 40
0.0
  9
$DIMTM
 40
0.0
  9
$DIMTXT
 40
64.0
  9
$DIMCEN
 40
0.09
  9
$DIMTSZ
 40
0.0
  9
$DIMTOL
 70
     0
  9
$DIMLIM
 70
     0
  9
$DIMTIH
 70
     0
  9
$DIMTOH
 70
     0
  9
$DIMSE1
 70
     0
  9
$DIMSE2
 70
     0
  9
$DIMTAD
 70
     1
  9
$DIMZIN
 70
     8
  9
$DIMBLK
  1
DOT1
  9
$DIMASO
 70
     1
  9
$DIMSHO
 70
     0
  9
$DIMPOST
  1

  9
$DIMAPOST
  1

  9
$DIMALT
 70
     0
  9
$DIMALTD
 70
     2
  9
$DIMALTF
 40
25.399999999999999
  9
$DIMLFAC
 40
1.0
  9
$DIMTOFL
 70
     1
  9
$DIMTVP
 40
0.0
  9
$DIMTIX
 70
     1
  9
$DIMSOXD
 70
     0
  9
$DIMSAH
 70
     1
  9
$DIMBLK1
  1
ORIGIN
  9
$DIMBLK2
  1
ORIGIN
  9
$DIMSTYLE
  2
STANDARD
  9
$DIMCLRD
 70
     0
  9
$DIMCLRE
 70
     0
  9
$DIMCLRT
 70
     0
  9
$DIMTFAC
 40
1.0
  9
$DIMGAP
 40
0.09
  9
$LUNITS
 70
     2
  9
$LUPREC
 70
     4
  9
$SKETCHINC
 40
0.1
  9
$FILLETRAD
 40
2.0
  9
$AUNITS
 70
     1
  9
$AUPREC
 70
     3
  9
$MENU
  1
ACAD
  9
$ELEVATION
 40
0.0
  9
$PELEVATION
 40
0.0
  9
$THICKNESS
 40
50.0
  9
$LIMCHECK
 70
     0
  9
$BLIPMODE
 70
     0
  9
$CHAMFERA
 40
0.0
  9
$CHAMFERB
 40
0.0
  9
$SKPOLY
 70
     0
  9
$TDCREATE
 40
2451453.4938508091
  9
$TDUPDATE
 40
2453462.8494507628
  9
$TDINDWG
 40
0.6114502431
  9
$TDUSRTIMER
 40
0.6114502431
  9
$USRTIMER
 70
     1
  9
$ANGBASE
 50
0.0
  9
$ANGDIR
 70
     0
  9
$PDMODE
 70
     3
  9
$PDSIZE
 40
-2.0
  9
$PLINEWID
 40
0.0
  9
$COORDS
 70
     2
  9
$SPLFRAME
 70
     0
  9
$SPLINETYPE
 70
     6
  9
$SPLINESEGS
 70
     8
  9
$ATTDIA
 70
     0
  9
$ATTREQ
 70
     1
  9
$HANDLING
 70
 22529
  9
$HANDSEED
  5
1E7
  9
$SURFTAB1
 70
     6
  9
$SURFTAB2
 70
     6
  9
$SURFTYPE
 70
     6
  9
$SURFU
 70
     6
  9
$SURFV
 70
     6
  9
$UCSNAME
  2

  9
$UCSORG
 10
0.0
 20
0.0
 30
0.0
  9
$UCSXDIR
 10
1.0
 20
0.0
 30
0.0
  9
$UCSYDIR
 10
0.0
 20
1.0
 30
0.0
  9
$PUCSNAME
  2

  9
$PUCSORG
 10
0.0
 20
0.0
 30
0.0
  9
$PUCSXDIR
 10
1.0
 20
0.0
 30
0.0
  9
$PUCSYDIR
 10
0.0
 20
1.0
 30
0.0
  9
$USERI1
 70
     0
  9
$USERI2
 70
     0
  9
$USERI3
 70
     0
  9
$USERI4
 70
     0
  9
$USERI5
 70
     0
  9
$USERR1
 40
20.0
  9
$USERR2
 40
0.0
  9
$USERR3
 40
0.0
  9
$USERR4
 40
0.0
  9
$USERR5
 40
0.0
  9
$WORLDVIEW
 70
     1
  9
$SHADEDGE
 70
     3
  9
$SHADEDIF
 70
    70
  9
$TILEMODE
 70
     1
  9
$MAXACTVP
 70
    64
  9
$PLIMCHECK
 70
     0
  9
$PEXTMIN
 10
1.0000000000000000E+020
 20
1.0000000000000000E+020
 30
1.0000000000000000E+020
  9
$PEXTMAX
 10
-1.0000000000000000E+020
 20
-1.0000000000000000E+020
 30
-1.0000000000000000E+020
  9
$PLIMMIN
 10
0.0
 20
0.0
  9
$PLIMMAX
 10
12.0
 20
9.0
  9
$UNITMODE
 70
     0
  9
$VISRETAIN
 70
     1
  9
$PLINEGEN
 70
     0
  9
$PSLTSCALE
 70
     1
  0
ENDSEC
  0
SECTION
  2
TABLES
  0
TABLE
  2
VPORT
 70
     3
  0
VPORT
  2
*ACTIVE
 70
     0
 10
0.0
 20
0.0
 11
1.0
 21
1.0
 12
165.76987837533059
 22
46.288951392841447
 13
0.0
 23
0.0
 14
1.0
 24
1.0
 15
0.0
 25
0.0
 16
0.0
 26
0.0
 36
1.0
 17
0.0
 27
0.0
 37
0.0
 40
1060.99716038879
 41
1.4423558897243101
 42
50.0
 43
0.0
 44
0.0
 50
0.0
 51
0.0
 71
     0
 72
   100
 73
     1
 74
     1
 75
     0
 76
     0
 77
     0
 78
     0
  0
ENDTAB
  0
TABLE
  2
LTYPE
 70
     2
  0
LTYPE
  2
CONTINUOUS
 70
     0
  3
実線
 72
    65
 73
     0
 40
0.0
  0
LTYPE
  2
DASHDOT
 70
     0
  3
____ _ ____ _ ____ _ ____ _ ____ _ ____ _ ____
 72
    65
 73
     4
 40
5.5
 49
4.0
 49
-0.6
 49
0.3
 49
-0.6
  0
ENDTAB
  0
TABLE
  2
LAYER
 70
    12
  0
LAYER
  2
0
 70
     0
 62
     7
  6
CONTINUOUS
  0
LAYER
  2
SIZE
 70
     0
 62
    30
  6
CONTINUOUS
  0
LAYER
  2
BASIS
 70
     0
 62
     6
  6
DASHDOT
  0
LAYER
  2
OUTLINE
 70
     0
 62
     3
  6
CONTINUOUS
  0
LAYER
  2
DETAIL
 70
     0
 62
     5
  6
CONTINUOUS
  0
LAYER
  2
ARRANGE
 70
     0
 62
     1
  6
CONTINUOUS
  0
LAYER
  2
DEFPOINTS
 70
     0
 62
     7
  6
CONTINUOUS
  0
LAYER
  2
ETC
 70
     0
 62
    61
  6
CONTINUOUS
  0
LAYER
  2
FIX
 70
     0
 62
    11
  6
CONTINUOUS
  0
LAYER
  2
NOTE
 70
     0
 62
     4
  6
CONTINUOUS
  0
LAYER
  2
SERVICESPACE
 70
     0
 62
     2
  6
DASHDOT
  0
LAYER
  2
SYMBOLLINE
 70
     0
 62
    15
  6
CONTINUOUS
  0
ENDTAB
  0
TABLE
  2
STYLE
 70
     1
  0
STYLE
  2
STANDARD
 70
     0
 40
64.0
 41
0.9
 50
0.0
 71
     0
 42
64.0
  3
SIMPLEX.shx
  4
BIGFONT.shx
  0
ENDTAB
  0
TABLE
  2
VIEW
 70
     1
  0
VIEW
  2
ALL
 70
     0
 40
4282.6198079999976
 10
0.0
 20
41.309903999999989
 41
5940.0
 11
0.0
 21
0.0
 31
1.0
 12
0.0
 22
0.0
 32
0.0
 42
50.0
 43
0.0
 44
0.0
 50
0.0
 71
     0
  0
ENDTAB
  0
TABLE
  2
UCS
 70
     0
  0
ENDTAB
  0
TABLE
  2
APPID
 70
     1
  0
APPID
  2
ACAD
 70
     0
  0
ENDTAB
  0
TABLE
  2
DIMSTYLE
 70
     1
  0
DIMSTYLE
  2
STANDARD
 70
     0
  3

  4

  5

  6

  7

 40
1.0
 41
0.18
 42
0.0625
 43
0.38
 44
0.18
 45
0.0
 46
0.0
 47
0.0
 48
0.0
140
0.18
141
0.09
142
0.0
143
25.399999999999999
144
1.0
145
0.0
146
1.0
147
0.09
 71
     0
 72
     0
 73
     1
 74
     1
 75
     0
 76
     0
 77
     0
 78
     0
170
     0
171
     2
172
     0
173
     0
174
     0
175
     0
176
     0
177
     0
178
     0
  0
ENDTAB
  0
ENDSEC
  0
SECTION
  2
BLOCKS
  0
BLOCK
  8
0
  2
$MODEL_SPACE
 70
     0
 10
0.0
 20
0.0
 30
0.0
  3
$MODEL_SPACE
  1

  0
ENDBLK
  5
116
  8
0
  0
BLOCK
 67
     1
  8
0
  2
$PAPER_SPACE
 70
     0
 10
0.0
 20
0.0
 30
0.0
  3
$PAPER_SPACE
  1

  0
ENDBLK
  5
112
 67
     1
  8
0
  0
BLOCK
  8
0
  2
DOT1
 70
     0
 10
0.0
 20
0.0
 30
0.0
  3
DOT1
  1

  0
CIRCLE
  5
131
  8
SIZE
  6
CONTINUOUS
 62
     7
 10
0.0
 20
0.0
 30
0.0
 40
3.0
  0
ENDBLK
  5
132
  8
0
  0
BLOCK
  8
0
  2
_ORIGIN
 70
     0
 10
0.0
 20
0.0
 30
0.0
  3
_ORIGIN
  1

  0
CIRCLE
  5
135
  8
0
  6
CONTINUOUS
 62
     7
 10
0.0
 20
0.0
 30
0.0
 40
0.5
  0
LINE
  5
136
  8
0
  6
CONTINUOUS
 62
     7
 10
0.0
 20
0.0
 30
0.0
 11
-1.0
 21
0.0
 31
0.0
  0
ENDBLK
  5
137
  8
0
  0
ENDSEC
  0
SECTION
  2
ENTITIES
  0
LINE
  5
138
  8
DETAIL
  6
CONTINUOUS
 62
     5
 10
-48.5
 20
0.0
 30
0.0
 11
-48.5
 21
52.0
 31
0.0
  0
LINE
  5
139
  8
DETAIL
  6
CONTINUOUS
 62
     5
 10
48.5
 20
0.0
 30
0.0
 11
48.5
 21
52.0
 31
0.0
  0
LINE
  5
13A
  8
BASIS
  6
DASHDOT
 62
     6
 10
0.0
 20
85.616950999999986
 30
0.0
 11
0.0
 21
-119.395555
 31
0.0
  0
LINE
  5
13B
  8
SIZE
  6
CONTINUOUS
 62
    30
 10
-48.5
 20
72.0
 30
0.0
 11
-48.5
 21
179.965304
 31
0.0
  0
LINE
  5
13C
  8
SIZE
  6
CONTINUOUS
 62
    30
 10
48.5
 20
72.0
 30
0.0
 11
48.5
 21
179.965304
 31
0.0
  0
LINE
  5
13D
  8
SIZE
  6
CONTINUOUS
 62
    30
 10
-36.5
 20
159.9653039999998
 30
0.0
 11
36.5
 21
159.9653039999998
 31
0.0
  0
TEXT
  5
13E
  8
SIZE
  6
CONTINUOUS
 62
    30
 10
-99.195850428571433
 20
185.62429499999999
 30
0.0
 40
64.0
  1
φ97
 41
0.9
 72
     1
 11
-12.24727899999999
 21
185.62429499999999
 31
0.0
  0
CIRCLE
  5
13F
  8
SIZE
  6
CONTINUOUS
 62
    30
 10
-48.5
 20
159.9653039999998
 30
0.0
 40
6.0
  0
LINE
  5
140
  8
SIZE
  6
CONTINUOUS
 62
    30
 10
-48.5
 20
159.9653039999998
 30
0.0
 11
-36.5
 21
159.9653039999998
 31
0.0
  0
CIRCLE
  5
141
  8
SIZE
  6
CONTINUOUS
 62
    30
 10
48.5
 20
159.9653039999998
 30
0.0
 40
6.0
  0
LINE
  5
142
  8
SIZE
  6
CONTINUOUS
 62
    30
 10
48.5
 20
159.9653039999998
 30
0.0
 11
36.5
 21
159.9653039999998
 31
0.0
  0
POINT
  5
143
  8
DEFPOINTS
  6
CONTINUOUS
 62
    30
 10
-48.5
 20
52.0
 30
0.0
  0
POINT
  5
144
  8
DEFPOINTS
  6
CONTINUOUS
 62
    30
 10
48.5
 20
52.0
 30
0.0
  0
POINT
  5
145
  8
DEFPOINTS
  6
CONTINUOUS
 62
    30
 10
48.5
 20
159.9653039999998
 30
0.0
  0
LINE
  5
146
  8
DETAIL
  6
CONTINUOUS
 62
     5
 10
-62.5
 20
-13.0
 30
0.0
 11
-62.5
 21
-20.921489999999999
 31
0.0
  0
LINE
  5
147
  8
DETAIL
  6
CONTINUOUS
 62
     5
 10
62.5
 20
-13.0
 30
0.0
 11
62.5
 21
-20.921489999999999
 31
0.0
  0
ARC
  5
148
  8
DETAIL
  6
CONTINUOUS
 62
     5
 10
0.0
 20
-13.0
 30
0.0
 40
63.0
 50
187.22337200000001
 51
352.77662800000002
  0
LINE
  5
149
  8
DETAIL
  6
CONTINUOUS
 62
     5
 10
-88.0
 20
-13.0
 30
0.0
 11
88.0
 21
-13.0
 31
0.0
  0
LINE
  5
14A
  8
DETAIL
  6
CONTINUOUS
 62
     5
 10
-88.0
 20
-2.0
 30
0.0
 11
-88.0
 21
-13.0
 31
0.0
  0
LINE
  5
14B
  8
DETAIL
  6
CONTINUOUS
 62
     5
 10
88.0
 20
-2.0
 30
0.0
 11
88.0
 21
-13.0
 31
0.0
  0
LINE
  5
14C
  8
DETAIL
  6
CONTINUOUS
 62
     5
 10
-86.0
 20
0.0
 30
0.0
 11
86.0
 21
0.0
 31
0.0
  0
ARC
  5
14D
  8
DETAIL
  6
CONTINUOUS
 62
     5
 10
-86.0
 20
-2.0
 30
0.0
 40
2.0
 50
90.0
 51
180.0
  0
ARC
  5
14E
  8
DETAIL
  6
CONTINUOUS
 62
     5
 10
86.0
 20
-2.0
 30
0.0
 40
2.0
 50
0.0
 51
90.0
  0
LINE
  5
14F
  8
SIZE
  6
CONTINUOUS
 62
    30
 10
-106.0
 20
0.0
 30
0.0
 11
-182.10958199999999
 21
0.0
 31
0.0
  0
LINE
  5
150
  8
SIZE
  6
CONTINUOUS
 62
    30
 10
-108.0
 20
-13.0
 30
0.0
 11
-182.10958199999999
 21
-13.0
 31
0.0
  0
LINE
  5
151
  8
SIZE
  6
CONTINUOUS
 62
    30
 10
-162.1095819999999
 20
12.0
 30
0.0
 11
-162.1095819999999
 21
24.0
 31
0.0
  0
LINE
  5
152
  8
SIZE
  6
CONTINUOUS
 62
    30
 10
-162.1095819999999
 20
-25.0
 30
0.0
 11
-162.1095819999999
 21
-37.0
 31
0.0
  0
LINE
  5
153
  8
SIZE
  6
CONTINUOUS
 62
    30
 10
-162.1095819999999
 20
-221.55699300000001
 30
0.0
 11
-162.1095819999999
 21
-13.0
 31
0.0
  0
TEXT
  5
154
  8
SIZE
  6
CONTINUOUS
 62
    30
 10
-187.1095819999999
 20
-196.5569931428571
 30
0.0
 40
64.0
  1
13
 50
90.0
 41
0.9
 72
     1
 11
-187.1095819999999
 21
-155.41413600000001
 31
0.0
  0
LINE
  5
155
  8
SIZE
  6
CONTINUOUS
 62
    30
 10
-162.1095819999999
 20
0.0
 30
0.0
 11
-162.1095819999999
 21
-13.0
 31
0.0
  0
LINE
  5
156
  8
SIZE
  6
CONTINUOUS
 62
    30
 10
-162.1095819999999
 20
0.0
 30
0.0
 11
-162.1095819999999
 21
-13.0
 31
0.0
  0
CIRCLE
  5
157
  8
SIZE
  6
CONTINUOUS
 62
    30
 10
-162.1095819999999
 20
0.0
 30
0.0
 40
6.0
  0
LINE
  5
158
  8
SIZE
  6
CONTINUOUS
 62
    30
 10
-162.1095819999999
 20
0.0
 30
0.0
 11
-162.1095819999999
 21
12.0
 31
0.0
  0
CIRCLE
  5
159
  8
SIZE
  6
CONTINUOUS
 62
    30
 10
-162.1095819999999
 20
-13.0
 30
0.0
 40
6.0
  0
LINE
  5
15A
  8
SIZE
  6
CONTINUOUS
 62
    30
 10
-162.1095819999999
 20
-13.0
 30
0.0
 11
-162.1095819999999
 21
-25.0
 31
0.0
  0
POINT
  5
15B
  8
DEFPOINTS
  6
CONTINUOUS
 62
    30
 10
-86.0
 20
0.0
 30
0.0
  0
POINT
  5
15C
  8
DEFPOINTS
  6
CONTINUOUS
 62
    30
 10
-88.0
 20
-13.0
 30
0.0
  0
POINT
  5
15D
  8
DEFPOINTS
  6
CONTINUOUS
 62
    30
 10
-162.1095819999999
 20
-13.0
 30
0.0
  0
LINE
  5
15E
  8
DETAIL
  6
CONTINUOUS
 62
     5
 10
-48.5
 20
52.0
 30
0.0
 11
48.5
 21
52.0
 31
0.0
  0
LINE
  5
15F
  8
SIZE
  6
CONTINUOUS
 62
    30
 10
-68.5
 20
52.0
 30
0.0
 11
-313.51944199999991
 21
52.0
 31
0.0
  0
LINE
  5
160
  8
SIZE
  6
CONTINUOUS
 62
    30
 10
-106.0
 20
0.0
 30
0.0
 11
-313.51944199999991
 21
0.0
 31
0.0
  0
LINE
  5
161
  8
SIZE
  6
CONTINUOUS
 62
    30
 10
-293.51944199999991
 20
64.0
 30
0.0
 11
-293.51944199999991
 21
76.0
 31
0.0
  0
LINE
  5
162
  8
SIZE
  6
CONTINUOUS
 62
    30
 10
-293.51944199999991
 20
-12.0
 30
0.0
 11
-293.51944199999991
 21
-24.0
 31
0.0
  0
LINE
  5
163
  8
SIZE
  6
CONTINUOUS
 62
    30
 10
-293.51944199999991
 20
228.17495199999991
 30
0.0
 11
-293.51944199999991
 21
52.0
 31
0.0
  0
TEXT
  5
164
  8
SIZE
  6
CONTINUOUS
 62
    30
 10
-318.51944199999991
 20
109.91780957142841
 30
0.0
 40
64.0
  1
52
 50
90.0
 41
0.9
 72
     1
 11
-318.51944199999991
 21
156.54638099999991
 31
0.0
  0
LINE
  5
165
  8
SIZE
  6
CONTINUOUS
 62
    30
 10
-293.51944199999991
 20
52.0
 30
0.0
 11
-293.51944199999991
 21
0.0
 31
0.0
  0
LINE
  5
166
  8
SIZE
  6
CONTINUOUS
 62
    30
 10
-293.51944199999991
 20
52.0
 30
0.0
 11
-293.51944199999991
 21
0.0
 31
0.0
  0
CIRCLE
  5
167
  8
SIZE
  6
CONTINUOUS
 62
    30
 10
-293.51944199999991
 20
52.0
 30
0.0
 40
6.0
  0
LINE
  5
168
  8
SIZE
  6
CONTINUOUS
 62
    30
 10
-293.51944199999991
 20
52.0
 30
0.0
 11
-293.51944199999991
 21
64.0
 31
0.0
  0
CIRCLE
  5
169
  8
SIZE
  6
CONTINUOUS
 62
    30
 10
-293.51944199999991
 20
0.0
 30
0.0
 40
6.0
  0
LINE
  5
16A
  8
SIZE
  6
CONTINUOUS
 62
    30
 10
-293.51944199999991
 20
0.0
 30
0.0
 11
-293.51944199999991
 21
-12.0
 31
0.0
  0
POINT
  5
16B
  8
DEFPOINTS
  6
CONTINUOUS
 62
    30
 10
-48.5
 20
52.0
 30
0.0
  0
POINT
  5
16C
  8
DEFPOINTS
  6
CONTINUOUS
 62
    30
 10
-86.0
 20
0.0
 30
0.0
  0
POINT
  5
16D
  8
DEFPOINTS
  6
CONTINUOUS
 62
    30
 10
-293.51944199999991
 20
0.0
 30
0.0
  0
LINE
  5
16E
  8
SIZE
  6
CONTINUOUS
 62
    30
 10
-106.0
 20
0.0
 30
0.0
 11
-313.51944199999991
 21
0.0
 31
0.0
  0
LINE
  5
16F
  8
SIZE
  6
CONTINUOUS
 62
    30
 10
-20.0
 20
-76.0
 30
0.0
 11
-313.51944199999991
 21
-76.0
 31
0.0
  0
LINE
  5
170
  8
SIZE
  6
CONTINUOUS
 62
    30
 10
-293.51944199999991
 20
-12.0
 30
0.0
 11
-293.51944199999991
 21
-64.0
 31
0.0
  0
LINE
  5
171
  8
SIZE
  6
CONTINUOUS
 62
    30
 10
-293.51944199999991
 20
-237.849189
 30
0.0
 11
-293.51944199999991
 21
-76.0
 31
0.0
  0
TEXT
  5
172
  8
SIZE
  6
CONTINUOUS
 62
    30
 10
-318.51944199999991
 20
-212.84918885714271
 30
0.0
 40
64.0
  1
76
 50
90.0
 41
0.9
 72
     1
 11
-318.51944199999991
 21
-167.5920459999999
 31
0.0
  0
CIRCLE
  5
173
  8
SIZE
  6
CONTINUOUS
 62
    30
 10
-293.51944199999991
 20
0.0
 30
0.0
 40
6.0
  0
LINE
  5
174
  8
SIZE
  6
CONTINUOUS
 62
    30
 10
-293.51944199999991
 20
0.0
 30
0.0
 11
-293.51944199999991
 21
-12.0
 31
0.0
  0
CIRCLE
  5
175
  8
SIZE
  6
CONTINUOUS
 62
    30
 10
-293.51944199999991
 20
-76.0
 30
0.0
 40
6.0
  0
LINE
  5
176
  8
SIZE
  6
CONTINUOUS
 62
    30
 10
-293.51944199999991
 20
-76.0
 30
0.0
 11
-293.51944199999991
 21
-64.0
 31
0.0
  0
POINT
  5
177
  8
DEFPOINTS
  6
CONTINUOUS
 62
    30
 10
-86.0
 20
0.0
 30
0.0
  0
POINT
  5
178
  8
DEFPOINTS
  6
CONTINUOUS
 62
    30
 10
0.0
 20
-76.0
 30
0.0
  0
POINT
  5
179
  8
DEFPOINTS
  6
CONTINUOUS
 62
    30
 10
-293.51944199999991
 20
-76.0
 30
0.0
  0
LINE
  5
17A
  8
SIZE
  6
CONTINUOUS
 62
    30
 10
-62.5
 20
-33.0
 30
0.0
 11
-62.5
 21
-225.42443700000001
 31
0.0
  0
LINE
  5
17B
  8
SIZE
  6
CONTINUOUS
 62
    30
 10
62.5
 20
-33.0
 30
0.0
 11
62.5
 21
-225.42443700000001
 31
0.0
  0
LINE
  5
17C
  8
SIZE
  6
CONTINUOUS
 62
    30
 10
-50.5
 20
-205.42443700000001
 30
0.0
 11
50.5
 21
-205.42443700000001
 31
0.0
  0
LINE
  5
17D
  8
SIZE
  6
CONTINUOUS
 62
    30
 10
329.86735699999991
 20
-205.42443700000001
 30
0.0
 11
62.5
 21
-205.42443700000001
 31
0.0
  0
TEXT
  5
17E
  8
SIZE
  6
CONTINUOUS
 62
    30
 10
101.3473574285713
 20
-180.42443700000001
 30
0.0
 40
64.0
  1
φ125
 41
0.9
 72
     1
 11
210.23878599999981
 21
-180.42443700000001
 31
0.0
  0
CIRCLE
  5
17F
  8
SIZE
  6
CONTINUOUS
 62
    30
 10
-62.5
 20
-205.42443700000001
 30
0.0
 40
6.0
  0
LINE
  5
180
  8
SIZE
  6
CONTINUOUS
 62
    30
 10
-62.5
 20
-205.42443700000001
 30
0.0
 11
-50.5
 21
-205.42443700000001
 31
0.0
  0
CIRCLE
  5
181
  8
SIZE
  6
CONTINUOUS
 62
    30
 10
62.5
 20
-205.42443700000001
 30
0.0
 40
6.0
  0
LINE
  5
182
  8
SIZE
  6
CONTINUOUS
 62
    30
 10
62.5
 20
-205.42443700000001
 30
0.0
 11
50.5
 21
-205.42443700000001
 31
0.0
  0
POINT
  5
183
  8
DEFPOINTS
  6
CONTINUOUS
 62
    30
 10
-62.5
 20
-13.0
 30
0.0
  0
POINT
  5
184
  8
DEFPOINTS
  6
CONTINUOUS
 62
    30
 10
62.5
 20
-13.0
 30
0.0
  0
POINT
  5
185
  8
DEFPOINTS
  6
CONTINUOUS
 62
    30
 10
62.5
 20
-205.42443700000001
 30
0.0
  0
LINE
  5
186
  8
SIZE
  6
CONTINUOUS
 62
    30
 10
88.0
 20
-33.0
 30
0.0
 11
88.0
 21
-358.92032499999999
 31
0.0
  0
LINE
  5
187
  8
SIZE
  6
CONTINUOUS
 62
    30
 10
-88.0
 20
-33.0
 30
0.0
 11
-88.0
 21
-358.92032499999999
 31
0.0
  0
LINE
  5
188
  8
SIZE
  6
CONTINUOUS
 62
    30
 10
76.0
 20
-338.92032499999999
 30
0.0
 11
-76.0
 21
-338.92032499999999
 31
0.0
  0
TEXT
  5
189
  8
SIZE
  6
CONTINUOUS
 62
    30
 10
-67.114614000000003
 20
-313.92032499999999
 30
0.0
 40
64.0
  1
176
 41
0.9
 72
     1
 11
0.085386
 21
-313.92032499999999
 31
0.0
  0
CIRCLE
  5
18A
  8
SIZE
  6
CONTINUOUS
 62
    30
 10
88.0
 20
-338.92032499999999
 30
0.0
 40
6.0
  0
LINE
  5
18B
  8
SIZE
  6
CONTINUOUS
 62
    30
 10
88.0
 20
-338.92032499999999
 30
0.0
 11
76.0
 21
-338.92032499999999
 31
0.0
  0
CIRCLE
  5
18C
  8
SIZE
  6
CONTINUOUS
 62
    30
 10
-88.0
 20
-338.92032499999999
 30
0.0
 40
6.0
  0
LINE
  5
18D
  8
SIZE
  6
CONTINUOUS
 62
    30
 10
-88.0
 20
-338.92032499999999
 30
0.0
 11
-76.0
 21
-338.92032499999999
 31
0.0
  0
POINT
  5
18E
  8
DEFPOINTS
  6
CONTINUOUS
 62
    30
 10
88.0
 20
-13.0
 30
0.0
  0
POINT
  5
18F
  8
DEFPOINTS
  6
CONTINUOUS
 62
    30
 10
-88.0
 20
-13.0
 30
0.0
  0
POINT
  5
190
  8
DEFPOINTS
  6
CONTINUOUS
 62
    30
 10
-88.0
 20
-338.92032499999999
 30
0.0
  0
CIRCLE
  5
191
  8
ARRANGE
  6
CONTINUOUS
 62
     1
 39
50.0
 10
0.0
 20
0.0
 30
0.0
 40
40.0
  0
POINT
  5
192
  8
ARRANGE
  6
CONTINUOUS
 62
     1
 10
0.0
 20
0.0
 30
0.0
 39
50.0
  0
LINE
  5
193
  8
OUTLINE
  6
CONTINUOUS
 62
     3
 10
-88.0
 20
-13.0
 30
0.0
 11
88.0
 21
-13.0
 31
0.0
  0
LINE
  5
194
  8
OUTLINE
  6
CONTINUOUS
 62
     3
 10
-48.5
 20
52.0
 30
0.0
 11
48.5
 21
52.0
 31
0.0
  0
ARC
  5
195
  8
OUTLINE
  6
CONTINUOUS
 62
     3
 10
0.0
 20
-13.0
 30
0.0
 40
63.0
 50
187.22337200000001
 51
352.77662800000002
  0
LINE
  5
196
  8
OUTLINE
  6
CONTINUOUS
 62
     3
 10
-86.0
 20
0.0
 30
0.0
 11
86.0
 21
0.0
 31
0.0
  0
ARC
  5
197
  8
OUTLINE
  6
CONTINUOUS
 62
     3
 10
-86.0
 20
-2.0
 30
0.0
 40
2.0
 50
90.0
 51
180.0
  0
LINE
  5
198
  8
OUTLINE
  6
CONTINUOUS
 62
     3
 10
-48.5
 20
0.0
 30
0.0
 11
-48.5
 21
52.0
 31
0.0
  0
LINE
  5
199
  8
OUTLINE
  6
CONTINUOUS
 62
     3
 10
-88.0
 20
-2.0
 30
0.0
 11
-88.0
 21
-13.0
 31
0.0
  0
LINE
  5
19A
  8
OUTLINE
  6
CONTINUOUS
 62
     3
 10
-62.5
 20
-13.0
 30
0.0
 11
-62.5
 21
-20.921489999999999
 31
0.0
  0
ARC
  5
19B
  8
OUTLINE
  6
CONTINUOUS
 62
     3
 10
86.0
 20
-2.0
 30
0.0
 40
2.0
 50
0.0
 51
90.0
  0
LINE
  5
19C
  8
OUTLINE
  6
CONTINUOUS
 62
     3
 10
48.5
 20
0.0
 30
0.0
 11
48.5
 21
52.0
 31
0.0
  0
LINE
  5
19D
  8
OUTLINE
  6
CONTINUOUS
 62
     3
 10
88.0
 20
-2.0
 30
0.0
 11
88.0
 21
-13.0
 31
0.0
  0
LINE
  5
19E
  8
OUTLINE
  6
CONTINUOUS
 62
     3
 10
62.5
 20
-13.0
 30
0.0
 11
62.5
 21
-20.921489999999999
 31
0.0
  0
TEXT
  5
19F
  8
ETC
  6
CONTINUOUS
 62
    61
 10
322.23770532221482
 20
-14.724310870328321
 30
0.0
 40
50.0
  1
P-13DFAQD2
 41
0.9
  0
TEXT
  5
1A0
  8
ETC
  6
CONTINUOUS
 62
    61
 10
319.83824685929079
 20
66.825969161967748
 30
0.0
 40
50.0
  1
P-13DFAQ2
 41
0.9
  0
TEXT
  5
1A1
  8
ETC
  6
CONTINUOUS
 62
    61
 10
322.23770532221482
 20
155.57185964479771
 30
0.0
 40
50.0
  1
P-13DFAD2
 41
0.9
  0
TEXT
  5
1A2
  8
ETC
  6
CONTINUOUS
 62
    61
 10
322.23770532221482
 20
246.71628843181799
 30
0.0
 40
50.0
  1
P-13DFA2
 41
0.9
  0
TEXT
  5
1A3
  8
ETC
  6
CONTINUOUS
 62
    61
 10
206.5820665271045
 20
341.29739220078437
 30
0.0
 40
64.0
  1
システム部材
 41
0.9
  0
TEXT
  5
1A4
  8
ETC
  6
CONTINUOUS
 62
    61
 10
218.18198952710461
 20
437.85776620078462
 30
0.0
 40
64.0
  1
P-13DFA2_6
 41
0.9
  0
ENDSEC
  0
EOF
