  0
SECTION
  2
HEADER
  9
$ACADVER
  1
AC1009
  9
$DWGCODEPAGE
  3
dos932
  9
$INSBASE
 10
0.0
 20
0.0
 30
0.0
  9
$EXTMIN
 10
-313.604719
 20
-318.832386
 30
-0.003052
  9
$EXTMAX
 10
687.483227
 20
382.598885
 30
50.003052
  9
$LIMMIN
 10
-2970.0
 20
-2100.0
  9
$LIMMAX
 10
2970.0
 20
2100.0
  9
$ORTHOMODE
 70
     1
  9
$REGENMODE
 70
     1
  9
$FILLMODE
 70
     1
  9
$QTEXTMODE
 70
     0
  9
$MIRRTEXT
 70
     0
  9
$DRAGMODE
 70
     2
  9
$LTSCALE
 40
20.0
  9
$OSMODE
 70
  1023
  9
$ATTMODE
 70
     1
  9
$TEXTSIZE
 40
64.0
  9
$TRACEWID
 40
0.05
  9
$TEXTSTYLE
  7
STANDARD
  9
$CLAYER
  8
SIZE
  9
$CELTYPE
  6
CONTINUOUS
  9
$CECOLOR
 62
    30
  9
$DIMSCALE
 40
1.0
  9
$DIMASZ
 40
12.0
  9
$DIMEXO
 40
20.0
  9
$DIMDLI
 40
200.0
  9
$DIMRND
 40
0.0
  9
$DIMDLE
 40
0.0
  9
$DIMEXE
 40
20.0
  9
$DIMTP
 40
0.0
  9
$DIMTM
 40
0.0
  9
$DIMTXT
 40
64.0
  9
$DIMCEN
 40
0.09
  9
$DIMTSZ
 40
0.0
  9
$DIMTOL
 70
     0
  9
$DIMLIM
 70
     0
  9
$DIMTIH
 70
     0
  9
$DIMTOH
 70
     0
  9
$DIMSE1
 70
     0
  9
$DIMSE2
 70
     0
  9
$DIMTAD
 70
     1
  9
$DIMZIN
 70
     8
  9
$DIMBLK
  1
DOT1
  9
$DIMASO
 70
     1
  9
$DIMSHO
 70
     0
  9
$DIMPOST
  1

  9
$DIMAPOST
  1

  9
$DIMALT
 70
     0
  9
$DIMALTD
 70
     2
  9
$DIMALTF
 40
25.4
  9
$DIMLFAC
 40
1.0
  9
$DIMTOFL
 70
     1
  9
$DIMTVP
 40
0.0
  9
$DIMTIX
 70
     1
  9
$DIMSOXD
 70
     0
  9
$DIMSAH
 70
     1
  9
$DIMBLK1
  1
_ORIGIN
  9
$DIMBLK2
  1
_ORIGIN
  9
$DIMSTYLE
  2
STANDARD
  9
$DIMCLRD
 70
     7
  9
$DIMCLRE
 70
     7
  9
$DIMCLRT
 70
     7
  9
$DIMTFAC
 40
1.0
  9
$DIMGAP
 40
25.0
  9
$LUNITS
 70
     2
  9
$LUPREC
 70
     4
  9
$SKETCHINC
 40
0.1
  9
$FILLETRAD
 40
10.0
  9
$AUNITS
 70
     1
  9
$AUPREC
 70
     3
  9
$MENU
  1
ACAD
  9
$ELEVATION
 40
0.0
  9
$PELEVATION
 40
0.0
  9
$THICKNESS
 40
50.0
  9
$LIMCHECK
 70
     0
  9
$BLIPMODE
 70
     0
  9
$CHAMFERA
 40
0.0
  9
$CHAMFERB
 40
0.0
  9
$SKPOLY
 70
     0
  9
$TDCREATE
 40
2451453.493850809
  9
$TDUPDATE
 40
2453481.66922831
  9
$TDINDWG
 40
0.640275081
  9
$TDUSRTIMER
 40
0.640275081
  9
$USRTIMER
 70
     1
  9
$ANGBASE
 50
0.0
  9
$ANGDIR
 70
     0
  9
$PDMODE
 70
     3
  9
$PDSIZE
 40
-2.0
  9
$PLINEWID
 40
0.0
  9
$COORDS
 70
     2
  9
$SPLFRAME
 70
     0
  9
$SPLINETYPE
 70
     6
  9
$SPLINESEGS
 70
     8
  9
$ATTDIA
 70
     0
  9
$ATTREQ
 70
     1
  9
$HANDLING
 70
     0
  9
$HANDSEED
  5
17ED
  9
$SURFTAB1
 70
     6
  9
$SURFTAB2
 70
     6
  9
$SURFTYPE
 70
     6
  9
$SURFU
 70
     6
  9
$SURFV
 70
     6
  9
$UCSNAME
  2

  9
$UCSORG
 10
0.0
 20
0.0
 30
0.0
  9
$UCSXDIR
 10
1.0
 20
0.0
 30
0.0
  9
$UCSYDIR
 10
0.0
 20
1.0
 30
0.0
  9
$PUCSNAME
  2

  9
$PUCSORG
 10
0.0
 20
0.0
 30
0.0
  9
$PUCSXDIR
 10
1.0
 20
0.0
 30
0.0
  9
$PUCSYDIR
 10
0.0
 20
1.0
 30
0.0
  9
$USERI1
 70
     0
  9
$USERI2
 70
     0
  9
$USERI3
 70
     0
  9
$USERI4
 70
     0
  9
$USERI5
 70
     0
  9
$USERR1
 40
20.0
  9
$USERR2
 40
0.0
  9
$USERR3
 40
0.0
  9
$USERR4
 40
0.0
  9
$USERR5
 40
0.0
  9
$WORLDVIEW
 70
     1
  9
$SHADEDGE
 70
     3
  9
$SHADEDIF
 70
    70
  9
$TILEMODE
 70
     1
  9
$MAXACTVP
 70
    48
  9
$PINSBASE
 10
0.0
 20
0.0
 30
0.0
  9
$PLIMCHECK
 70
     0
  9
$PEXTMIN
 10
-100000000000000000000.0
 20
-100000000000000000000.0
 30
-100000000000000000000.0
  9
$PEXTMAX
 10
100000000000000000000.0
 20
100000000000000000000.0
 30
100000000000000000000.0
  9
$PLIMMIN
 10
0.0
 20
0.0
  9
$PLIMMAX
 10
12.0
 20
9.0
  9
$UNITMODE
 70
     0
  9
$VISRETAIN
 70
     0
  9
$PLINEGEN
 70
     0
  9
$PSLTSCALE
 70
     0
  9
$TREEDEPTH
 70
  3020
  0
ENDSEC
  0
SECTION
  2
TABLES
  0
TABLE
  2
LTYPE
 70
     2
  0
LTYPE
  2
CONTINUOUS
 70
     0
  3
実線
 72
    65
 73
     0
 40
0.0
  0
LTYPE
  2
DASHDOT
 70
     0
  3
____ _ ____ _ ____ _ ____ _ ____ _ ____ _ ____
 72
    65
 73
     4
 40
5.5
 49
4.0
 49
-0.6
 49
0.3
 49
-0.6
  0
ENDTAB
  0
TABLE
  2
LAYER
 70
    12
  0
LAYER
  2
0
 70
     0
 62
     7
  6
CONTINUOUS
  0
LAYER
  2
BASIS
 70
     0
 62
     6
  6
DASHDOT
  0
LAYER
  2
OUTLINE
 70
     0
 62
     3
  6
CONTINUOUS
  0
LAYER
  2
DETAIL
 70
     0
 62
     5
  6
CONTINUOUS
  0
LAYER
  2
SIZE
 70
     0
 62
    30
  6
CONTINUOUS
  0
LAYER
  2
ARRANGE
 70
     0
 62
     1
  6
CONTINUOUS
  0
LAYER
  2
DEFPOINTS
 70
     0
 62
     7
  6
CONTINUOUS
  0
LAYER
  2
ETC
 70
     0
 62
    61
  6
CONTINUOUS
  0
LAYER
  2
FIX
 70
    64
 62
    11
  6
CONTINUOUS
  0
LAYER
  2
NOTE
 70
    64
 62
     4
  6
CONTINUOUS
  0
LAYER
  2
SERVICESPACE
 70
    64
 62
     2
  6
DASHDOT
  0
LAYER
  2
SYMBOLLINE
 70
    64
 62
    15
  6
CONTINUOUS
  0
ENDTAB
  0
TABLE
  2
STYLE
 70
     1
  0
STYLE
  2
STANDARD
 70
     0
 40
64.0
 41
0.9
 50
0.0
 71
     0
 42
64.0
  3
SIMPLEX.shx
  4
BIGFONT.shx
  0
ENDTAB
  0
TABLE
  2
APPID
 70
     2
  0
APPID
  2
ACAD
 70
     0
  0
APPID
  2
AUTOCAD_POSTSCRIPT_FIGURE
 70
     0
  0
ENDTAB
  0
TABLE
  2
DIMSTYLE
 70
     1
  0
DIMSTYLE
  2
STANDARD
 70
     0
  3

  4

  5

  6

  7

 40
1.0
 41
0.18
 42
0.0625
 43
0.38
 44
0.18
 45
0.0
 46
0.0
 47
0.0
 48
0.0
140
0.18
141
0.09
142
0.0
143
25.4
144
1.0
145
0.0
146
1.0
147
0.09
 71
     0
 72
     0
 73
     1
 74
     1
 75
     0
 76
     0
 77
     0
 78
     0
170
     0
171
     2
172
     0
173
     0
174
     0
175
     0
176
     7
177
     7
178
     7
  0
ENDTAB
  0
TABLE
  2
VIEW
 70
     1
  0
VIEW
  2
ALL
 70
     0
 40
4282.619808
 10
0.0
 20
41.309904
 41
5940.0
 11
0.0
 21
0.0
 31
1.0
 12
0.0
 22
0.0
 32
0.0
 42
50.0
 43
0.0
 44
0.0
 50
0.0
 71
     0
  0
ENDTAB
  0
TABLE
  2
UCS
 70
     0
  0
ENDTAB
  0
TABLE
  2
VPORT
 70
     1
  0
VPORT
  2
*ACTIVE
 70
     0
 10
0.0
 20
0.0
 11
1.0
 21
1.0
 12
186.939254
 22
31.88325
 13
0.0
 23
0.0
 14
1.0
 24
1.0
 15
0.0
 25
0.0
 16
0.0
 26
0.0
 36
1.0
 17
0.0
 27
0.0
 37
0.0
 40
707.065256
 41
1.571046
 42
50.0
 43
0.0
 44
0.0
 50
0.0
 51
0.0
 71
     0
 72
   100
 73
     1
 74
     1
 75
     0
 76
     0
 77
     0
 78
     0
  0
ENDTAB
  0
ENDSEC
  0
SECTION
  2
BLOCKS
  0
BLOCK
  8
0
  2
DOT1
 70
     0
 10
0.0
 20
0.0
 30
0.0
  3
DOT1
  1

  0
CIRCLE
  8
SIZE
  6
CONTINUOUS
 62
     7
 10
0.0
 20
0.0
 30
0.0
 40
3.0
  0
ENDBLK
  8
0
  0
BLOCK
  8
0
  2
_ORIGIN
 70
     0
 10
0.0
 20
0.0
 30
0.0
  3
_ORIGIN
  1

  0
CIRCLE
  8
0
  6
CONTINUOUS
 62
     7
 10
0.0
 20
0.0
 30
0.0
 40
0.5
  0
LINE
  8
0
  6
CONTINUOUS
 62
     7
 10
0.0
 20
0.0
 30
0.0
 11
-1.0
 21
0.0
 31
0.0
  0
ENDBLK
  8
0
  0
ENDSEC
  0
SECTION
  2
ENTITIES
  0
TEXT
  8
ETC
  6
CONTINUOUS
 62
    61
 10
340.715453
 20
239.196276
 30
0.0
 40
40.0
  1
システム部材
 41
0.9
  0
LINE
  8
DETAIL
  6
CONTINUOUS
 62
     5
 10
0.0
 20
48.5
 30
0.0
 11
-52.0
 21
48.5
 31
0.0
  0
LINE
  8
DETAIL
  6
CONTINUOUS
 62
     5
 10
0.0
 20
-48.5
 30
0.0
 11
-52.0
 21
-48.5
 31
0.0
  0
LINE
  8
BASIS
  6
DASHDOT
 62
     6
 10
-86.672203
 20
0.0
 30
0.0
 11
118.340302
 21
0.0
 31
0.0
  0
TEXT
  8
ETC
  6
CONTINUOUS
 62
    61
 10
344.322534
 20
307.271533
 30
0.0
 40
40.0
  1
P-13DFS2_5
 41
0.9
  0
LINE
  8
SIZE
  6
CONTINUOUS
 62
    30
 10
-72.0
 20
48.5
 30
0.0
 11
-244.521055
 21
48.5
 31
0.0
  0
LINE
  8
SIZE
  6
CONTINUOUS
 62
    30
 10
-72.0
 20
-48.5
 30
0.0
 11
-244.521055
 21
-48.5
 31
0.0
  0
LINE
  8
SIZE
  6
CONTINUOUS
 62
    30
 10
-224.521055
 20
36.5
 30
0.0
 11
-224.521055
 21
-36.5
 31
0.0
  0
LINE
  8
SIZE
  6
CONTINUOUS
 62
    30
 10
-224.521055
 20
-281.390923
 30
0.0
 11
-224.521055
 21
-48.5
 31
0.0
  0
TEXT
  8
SIZE
  6
CONTINUOUS
 62
    30
 10
-249.521055
 20
-269.090351
 30
0.0
 40
64.0
  1
φ97
 50
90.0
 41
0.9
 51
0.0
  7
STANDARD
 71
     0
 72
     1
 11
-249.521055
 21
-180.962351
 31
0.0
210
0.0
220
0.0
230
1.0
  0
CIRCLE
  8
SIZE
  6
CONTINUOUS
 62
    30
 10
-224.521055
 20
48.5
 30
0.0
 40
6.0
  0
LINE
  8
SIZE
  6
CONTINUOUS
 62
    30
 10
-224.521055
 20
48.5
 30
0.0
 11
-224.521055
 21
36.5
 31
0.0
  0
CIRCLE
  8
SIZE
  6
CONTINUOUS
 62
    30
 10
-224.521055
 20
-48.5
 30
0.0
 40
6.0
  0
LINE
  8
SIZE
  6
CONTINUOUS
 62
    30
 10
-224.521055
 20
-48.5
 30
0.0
 11
-224.521055
 21
-36.5
 31
0.0
  0
POINT
  8
DEFPOINTS
  6
CONTINUOUS
 62
    30
 10
-52.0
 20
48.5
 30
0.0
  0
POINT
  8
DEFPOINTS
  6
CONTINUOUS
 62
    30
 10
-52.0
 20
-48.5
 30
0.0
  0
POINT
  8
DEFPOINTS
  6
CONTINUOUS
 62
    30
 10
-224.521055
 20
-48.5
 30
0.0
  0
LINE
  8
DETAIL
  6
CONTINUOUS
 62
     5
 10
13.0
 20
62.5
 30
0.0
 11
20.92149
 21
62.5
 31
0.0
  0
LINE
  8
DETAIL
  6
CONTINUOUS
 62
     5
 10
18.0
 20
-62.5
 30
0.0
 11
20.92149
 21
-62.5
 31
0.0
  0
ARC
  8
DETAIL
  6
CONTINUOUS
 62
     5
 10
13.0
 20
0.0
 30
0.0
 40
63.0
 50
277.223372
 51
82.776628
  0
LINE
  8
DETAIL
  6
CONTINUOUS
 62
     5
 10
13.0
 20
83.0
 30
0.0
 11
13.0
 21
-4.024536
 31
0.0
  0
LINE
  8
DETAIL
  6
CONTINUOUS
 62
     5
 10
2.0
 20
83.0
 30
0.0
 11
13.0
 21
83.0
 31
0.0
  0
LINE
  8
DETAIL
  6
CONTINUOUS
 62
     5
 10
2.0
 20
-89.0
 30
0.0
 11
18.0
 21
-89.0
 31
0.0
  0
LINE
  8
DETAIL
  6
CONTINUOUS
 62
     5
 10
0.0
 20
81.0
 30
0.0
 11
0.0
 21
-87.0
 31
0.0
  0
ARC
  8
DETAIL
  6
CONTINUOUS
 62
     5
 10
2.0
 20
81.0
 30
0.0
 40
2.0
 50
90.0
 51
180.0
  0
ARC
  8
DETAIL
  6
CONTINUOUS
 62
     5
 10
2.0
 20
-87.0
 30
0.0
 40
2.0
 50
180.0
 51
270.0
  0
LINE
  8
SIZE
  6
CONTINUOUS
 62
    30
 10
0.0
 20
101.0
 30
0.0
 11
0.0
 21
177.109582
 31
0.0
  0
LINE
  8
SIZE
  6
CONTINUOUS
 62
    30
 10
13.0
 20
103.0
 30
0.0
 11
13.0
 21
177.109582
 31
0.0
  0
LINE
  8
SIZE
  6
CONTINUOUS
 62
    30
 10
-12.0
 20
157.109582
 30
0.0
 11
-24.0
 21
157.109582
 31
0.0
  0
LINE
  8
SIZE
  6
CONTINUOUS
 62
    30
 10
25.0
 20
157.109582
 30
0.0
 11
37.0
 21
157.109582
 31
0.0
  0
LINE
  8
SIZE
  6
CONTINUOUS
 62
    30
 10
-206.06842
 20
157.109582
 30
0.0
 11
0.0
 21
157.109582
 31
0.0
  0
TEXT
  8
SIZE
  6
CONTINUOUS
 62
    30
 10
-187.733563
 20
182.109582
 30
0.0
 40
64.0
  1
13
 50
0.0
 41
0.9
 51
0.0
  7
STANDARD
 71
     0
 72
     1
 11
-139.925563
 21
182.109582
 31
0.0
210
0.0
220
0.0
230
1.0
  0
LINE
  8
SIZE
  6
CONTINUOUS
 62
    30
 10
0.0
 20
157.109582
 30
0.0
 11
13.0
 21
157.109582
 31
0.0
  0
LINE
  8
SIZE
  6
CONTINUOUS
 62
    30
 10
0.0
 20
157.109582
 30
0.0
 11
13.0
 21
157.109582
 31
0.0
  0
CIRCLE
  8
SIZE
  6
CONTINUOUS
 62
    30
 10
0.0
 20
157.109582
 30
0.0
 40
6.0
  0
LINE
  8
SIZE
  6
CONTINUOUS
 62
    30
 10
0.0
 20
157.109582
 30
0.0
 11
-12.0
 21
157.109582
 31
0.0
  0
CIRCLE
  8
SIZE
  6
CONTINUOUS
 62
    30
 10
13.0
 20
157.109582
 30
0.0
 40
6.0
  0
LINE
  8
SIZE
  6
CONTINUOUS
 62
    30
 10
13.0
 20
157.109582
 30
0.0
 11
25.0
 21
157.109582
 31
0.0
  0
POINT
  8
DEFPOINTS
  6
CONTINUOUS
 62
    30
 10
0.0
 20
81.0
 30
0.0
  0
POINT
  8
DEFPOINTS
  6
CONTINUOUS
 62
    30
 10
13.0
 20
83.0
 30
0.0
  0
POINT
  8
DEFPOINTS
  6
CONTINUOUS
 62
    30
 10
13.0
 20
157.109582
 30
0.0
  0
LINE
  8
DETAIL
  6
CONTINUOUS
 62
     5
 10
-52.0
 20
48.5
 30
0.0
 11
-52.0
 21
-48.5
 31
0.0
  0
CIRCLE
  8
ARRANGE
  6
CONTINUOUS
 62
     1
 39
50.0
 10
0.0
 20
0.0
 30
0.0
 40
40.0
  0
POINT
  8
ARRANGE
  6
CONTINUOUS
 62
     1
 10
0.0
 20
0.0
 30
0.0
 39
50.0
  0
LINE
  8
OUTLINE
  6
CONTINUOUS
 62
     3
 10
-52.0
 20
48.5
 30
0.0
 11
-52.0
 21
-48.5
 31
0.0
  0
ARC
  8
OUTLINE
  6
CONTINUOUS
 62
     3
 10
13.0
 20
0.0
 30
0.0
 40
63.0
 50
277.223372
 51
82.776628
  0
LINE
  8
OUTLINE
  6
CONTINUOUS
 62
     3
 10
0.0
 20
81.0
 30
0.0
 11
0.0
 21
-86.0
 31
0.0
  0
ARC
  8
OUTLINE
  6
CONTINUOUS
 62
     3
 10
2.0
 20
81.0
 30
0.0
 40
2.0
 50
90.0
 51
180.0
  0
LINE
  8
OUTLINE
  6
CONTINUOUS
 62
     3
 10
0.0
 20
48.5
 30
0.0
 11
-52.0
 21
48.5
 31
0.0
  0
LINE
  8
OUTLINE
  6
CONTINUOUS
 62
     3
 10
2.0
 20
83.0
 30
0.0
 11
13.0
 21
83.0
 31
0.0
  0
LINE
  8
OUTLINE
  6
CONTINUOUS
 62
     3
 10
13.0
 20
62.5
 30
0.0
 11
20.92149
 21
62.5
 31
0.0
  0
ARC
  8
OUTLINE
  6
CONTINUOUS
 62
     3
 10
2.0
 20
-87.0
 30
0.0
 40
2.0
 50
180.0
 51
270.0
  0
LINE
  8
OUTLINE
  6
CONTINUOUS
 62
     3
 10
0.0
 20
-48.5
 30
0.0
 11
-52.0
 21
-48.5
 31
0.0
  0
LINE
  8
OUTLINE
  6
CONTINUOUS
 62
     3
 10
18.0
 20
-62.5
 30
0.0
 11
20.92149
 21
-62.5
 31
0.0
  0
LINE
  8
DETAIL
  6
CONTINUOUS
 62
     5
 10
19.342393
 20
4.321626
 30
0.0
 11
65.062761
 21
35.474905
 31
0.0
  0
LINE
  8
DETAIL
  6
CONTINUOUS
 62
     5
 10
13.0
 20
-3.92611
 30
0.0
 11
16.628889
 21
1.568621
 31
0.0
  0
ARC
  8
DETAIL
  6
CONTINUOUS
 62
     5
 10
24.973331
 20
-3.942304
 30
0.0
 40
10.0
 50
124.270021
 51
146.558003
  0
LINE
  8
DETAIL
  6
CONTINUOUS
 62
     5
 10
18.0
 20
-4.722134
 30
0.0
 11
18.0
 21
-89.0
 31
0.0
  0
LINE
  8
DETAIL
  6
CONTINUOUS
 62
     5
 10
13.0
 20
4.404827
 30
0.0
 11
0.0
 21
2.210782
 31
0.0
  0
LINE
  8
DETAIL
  6
CONTINUOUS
 62
     5
 10
0.0
 20
-2.210782
 30
0.0
 11
18.0
 21
-4.722134
 31
0.0
  0
ARC
  8
DETAIL
  6
CONTINUOUS
 62
     5
 10
65.472954
 20
31.217698
 30
0.0
 40
2.504817
 50
70.616038
 51
350.883269
  0
CIRCLE
  8
DETAIL
  6
CONTINUOUS
 62
     5
 10
65.472954
 20
5.188022
 30
0.0
 40
2.504817
  0
CIRCLE
  8
DETAIL
  6
CONTINUOUS
 62
     5
 10
65.472954
 20
-7.827007
 30
0.0
 40
2.504817
  0
CIRCLE
  8
DETAIL
  6
CONTINUOUS
 62
     5
 10
65.472954
 20
-20.842036
 30
0.0
 40
2.504817
  0
ARC
  8
DETAIL
  6
CONTINUOUS
 62
     5
 10
65.472954
 20
-33.857065
 30
0.0
 40
2.504817
 50
45.548367
 51
248.789081
  0
CIRCLE
  8
DETAIL
  6
CONTINUOUS
 62
     5
 10
65.472954
 20
18.203051
 30
0.0
 40
2.504817
  0
ARC
  8
DETAIL
  6
CONTINUOUS
 62
     5
 10
69.23018
 20
24.710374
 30
0.0
 40
2.504817
 50
75.520608
 51
331.925605
  0
CIRCLE
  8
DETAIL
  6
CONTINUOUS
 62
     5
 10
72.987405
 20
5.188022
 30
0.0
 40
2.504817
  0
ARC
  8
DETAIL
  6
CONTINUOUS
 62
     5
 10
76.744631
 20
-1.319684
 30
0.0
 40
2.504817
 50
107.511724
 51
250.116265
  0
CIRCLE
  8
DETAIL
  6
CONTINUOUS
 62
     5
 10
72.987405
 20
-7.827007
 30
0.0
 40
2.504817
  0
ARC
  8
DETAIL
  6
CONTINUOUS
 62
     5
 10
72.987405
 20
-20.842036
 30
0.0
 40
2.504817
 50
83.579907
 51
238.101529
  0
ARC
  8
DETAIL
  6
CONTINUOUS
 62
     5
 10
72.987405
 20
18.203051
 30
0.0
 40
2.504817
 50
100.869433
 51
292.891185
  0
ARC
  8
DETAIL
  6
CONTINUOUS
 62
     5
 10
76.744631
 20
11.695345
 30
0.0
 40
2.504817
 50
147.393006
 51
233.400065
  0
CIRCLE
  8
DETAIL
  6
CONTINUOUS
 62
     5
 10
69.23018
 20
-1.319684
 30
0.0
 40
2.504817
  0
CIRCLE
  8
DETAIL
  6
CONTINUOUS
 62
     5
 10
69.23018
 20
-14.334713
 30
0.0
 40
2.504817
  0
ARC
  8
DETAIL
  6
CONTINUOUS
 62
     5
 10
69.23018
 20
-27.349741
 30
0.0
 40
2.504817
 50
54.342593
 51
253.781849
  0
CIRCLE
  8
DETAIL
  6
CONTINUOUS
 62
     5
 10
69.23018
 20
11.695345
 30
0.0
 40
2.504817
  0
CIRCLE
  8
DETAIL
  6
CONTINUOUS
 62
     5
 10
39.172376
 20
-40.36477
 30
0.0
 40
2.504817
  0
CIRCLE
  8
DETAIL
  6
CONTINUOUS
 62
     5
 10
42.929602
 20
-33.857065
 30
0.0
 40
2.504817
  0
CIRCLE
  8
DETAIL
  6
CONTINUOUS
 62
     5
 10
31.657926
 20
-40.36477
 30
0.0
 40
2.504817
  0
CIRCLE
  8
DETAIL
  6
CONTINUOUS
 62
     5
 10
35.415151
 20
-33.857065
 30
0.0
 40
2.504817
  0
CIRCLE
  8
DETAIL
  6
CONTINUOUS
 62
     5
 10
24.143475
 20
-40.36477
 30
0.0
 40
2.504817
  0
CIRCLE
  8
DETAIL
  6
CONTINUOUS
 62
     5
 10
27.9007
 20
-33.857065
 30
0.0
 40
2.504817
  0
ARC
  8
DETAIL
  6
CONTINUOUS
 62
     5
 10
16.629024
 20
-40.36477
 30
0.0
 40
2.504817
 50
303.184434
 51
56.815566
  0
CIRCLE
  8
DETAIL
  6
CONTINUOUS
 62
     5
 10
20.386249
 20
-33.857065
 30
0.0
 40
2.504817
  0
CIRCLE
  8
DETAIL
  6
CONTINUOUS
 62
     5
 10
57.958504
 20
-33.857065
 30
0.0
 40
2.504817
  0
ARC
  8
DETAIL
  6
CONTINUOUS
 62
     5
 10
61.715729
 20
-40.36477
 30
0.0
 40
2.504817
 50
57.571689
 51
223.139529
  0
CIRCLE
  8
DETAIL
  6
CONTINUOUS
 62
     5
 10
54.201278
 20
-40.36477
 30
0.0
 40
2.504817
  0
ARC
  8
DETAIL
  6
CONTINUOUS
 62
     5
 10
57.958504
 20
-46.872094
 30
0.0
 40
2.504817
 50
95.561524
 51
172.050933
  0
ARC
  8
DETAIL
  6
CONTINUOUS
 62
     5
 10
46.686827
 20
-53.379799
 30
0.0
 40
2.504817
 50
36.150087
 51
208.360172
  0
CIRCLE
  8
DETAIL
  6
CONTINUOUS
 62
     5
 10
50.444053
 20
-46.872094
 30
0.0
 40
2.504817
  0
CIRCLE
  8
DETAIL
  6
CONTINUOUS
 62
     5
 10
39.172376
 20
-53.379799
 30
0.0
 40
2.504817
  0
CIRCLE
  8
DETAIL
  6
CONTINUOUS
 62
     5
 10
42.929602
 20
-46.872094
 30
0.0
 40
2.504817
  0
CIRCLE
  8
DETAIL
  6
CONTINUOUS
 62
     5
 10
31.657926
 20
-53.379799
 30
0.0
 40
2.504817
  0
CIRCLE
  8
DETAIL
  6
CONTINUOUS
 62
     5
 10
35.415151
 20
-46.872094
 30
0.0
 40
2.504817
  0
CIRCLE
  8
DETAIL
  6
CONTINUOUS
 62
     5
 10
24.143475
 20
-53.379799
 30
0.0
 40
2.504817
  0
CIRCLE
  8
DETAIL
  6
CONTINUOUS
 62
     5
 10
27.9007
 20
-46.872094
 30
0.0
 40
2.504817
  0
ARC
  8
DETAIL
  6
CONTINUOUS
 62
     5
 10
16.629024
 20
-53.379799
 30
0.0
 40
2.504817
 50
303.184434
 51
56.815566
  0
ARC
  8
DETAIL
  6
CONTINUOUS
 62
     5
 10
20.386249
 20
-46.872094
 30
0.0
 40
2.504817
 50
197.699501
 51
162.300499
  0
CIRCLE
  8
DETAIL
  6
CONTINUOUS
 62
     5
 10
46.686827
 20
-40.36477
 30
0.0
 40
2.504817
  0
CIRCLE
  8
DETAIL
  6
CONTINUOUS
 62
     5
 10
50.444053
 20
-33.857065
 30
0.0
 40
2.504817
  0
ARC
  8
DETAIL
  6
CONTINUOUS
 62
     5
 10
35.415151
 20
-59.887123
 30
0.0
 40
2.504817
 50
43.717588
 51
177.323156
  0
ARC
  8
DETAIL
  6
CONTINUOUS
 62
     5
 10
27.9007
 20
-59.887123
 30
0.0
 40
2.504817
 50
344.047584
 51
223.896858
  0
ARC
  8
DETAIL
  6
CONTINUOUS
 62
     5
 10
20.386249
 20
-59.887123
 30
0.0
 40
2.504817
 50
197.699501
 51
162.300499
  0
ARC
  8
DETAIL
  6
CONTINUOUS
 62
     5
 10
46.686827
 20
24.710374
 30
0.0
 40
2.504817
 50
249.68816
 51
358.851883
  0
CIRCLE
  8
DETAIL
  6
CONTINUOUS
 62
     5
 10
61.715729
 20
24.710374
 30
0.0
 40
2.504817
  0
CIRCLE
  8
DETAIL
  6
CONTINUOUS
 62
     5
 10
54.201278
 20
24.710374
 30
0.0
 40
2.504817
  0
ARC
  8
DETAIL
  6
CONTINUOUS
 62
     5
 10
57.958504
 20
31.217698
 30
0.0
 40
2.504817
 50
225.370111
 51
23.169932
  0
CIRCLE
  8
DETAIL
  6
CONTINUOUS
 62
     5
 10
46.686827
 20
-27.349741
 30
0.0
 40
2.504817
  0
CIRCLE
  8
DETAIL
  6
CONTINUOUS
 62
     5
 10
50.444053
 20
-20.842036
 30
0.0
 40
2.504817
  0
CIRCLE
  8
DETAIL
  6
CONTINUOUS
 62
     5
 10
39.172376
 20
-27.349741
 30
0.0
 40
2.504817
  0
CIRCLE
  8
DETAIL
  6
CONTINUOUS
 62
     5
 10
42.929602
 20
-20.842036
 30
0.0
 40
2.504817
  0
CIRCLE
  8
DETAIL
  6
CONTINUOUS
 62
     5
 10
31.657926
 20
-27.349741
 30
0.0
 40
2.504817
  0
CIRCLE
  8
DETAIL
  6
CONTINUOUS
 62
     5
 10
35.415151
 20
-20.842036
 30
0.0
 40
2.504817
  0
CIRCLE
  8
DETAIL
  6
CONTINUOUS
 62
     5
 10
24.143475
 20
-27.349741
 30
0.0
 40
2.504817
  0
CIRCLE
  8
DETAIL
  6
CONTINUOUS
 62
     5
 10
27.9007
 20
-20.842036
 30
0.0
 40
2.504817
  0
ARC
  8
DETAIL
  6
CONTINUOUS
 62
     5
 10
16.629024
 20
-27.349741
 30
0.0
 40
2.504817
 50
303.184434
 51
56.815566
  0
ARC
  8
DETAIL
  6
CONTINUOUS
 62
     5
 10
20.386249
 20
-20.842036
 30
0.0
 40
2.504817
 50
197.699501
 51
162.300499
  0
CIRCLE
  8
DETAIL
  6
CONTINUOUS
 62
     5
 10
46.686827
 20
-14.334713
 30
0.0
 40
2.504817
  0
CIRCLE
  8
DETAIL
  6
CONTINUOUS
 62
     5
 10
50.444053
 20
-7.827007
 30
0.0
 40
2.504817
  0
CIRCLE
  8
DETAIL
  6
CONTINUOUS
 62
     5
 10
39.172376
 20
-14.334713
 30
0.0
 40
2.504817
  0
CIRCLE
  8
DETAIL
  6
CONTINUOUS
 62
     5
 10
42.929602
 20
-7.827007
 30
0.0
 40
2.504817
  0
CIRCLE
  8
DETAIL
  6
CONTINUOUS
 62
     5
 10
31.657926
 20
-14.334713
 30
0.0
 40
2.504817
  0
CIRCLE
  8
DETAIL
  6
CONTINUOUS
 62
     5
 10
35.415151
 20
-7.827007
 30
0.0
 40
2.504817
  0
CIRCLE
  8
DETAIL
  6
CONTINUOUS
 62
     5
 10
24.143475
 20
-14.334713
 30
0.0
 40
2.504817
  0
CIRCLE
  8
DETAIL
  6
CONTINUOUS
 62
     5
 10
27.9007
 20
-7.827007
 30
0.0
 40
2.504817
  0
ARC
  8
DETAIL
  6
CONTINUOUS
 62
     5
 10
16.629024
 20
-14.334713
 30
0.0
 40
2.504817
 50
303.184434
 51
56.815566
  0
ARC
  8
DETAIL
  6
CONTINUOUS
 62
     5
 10
20.386249
 20
-7.827007
 30
0.0
 40
2.504817
 50
197.699501
 51
162.300499
  0
CIRCLE
  8
DETAIL
  6
CONTINUOUS
 62
     5
 10
46.686827
 20
-1.319684
 30
0.0
 40
2.504817
  0
CIRCLE
  8
DETAIL
  6
CONTINUOUS
 62
     5
 10
50.444053
 20
5.188022
 30
0.0
 40
2.504817
  0
CIRCLE
  8
DETAIL
  6
CONTINUOUS
 62
     5
 10
39.172376
 20
-1.319684
 30
0.0
 40
2.504817
  0
CIRCLE
  8
DETAIL
  6
CONTINUOUS
 62
     5
 10
42.929602
 20
5.188022
 30
0.0
 40
2.504817
  0
CIRCLE
  8
DETAIL
  6
CONTINUOUS
 62
     5
 10
31.657926
 20
-1.319684
 30
0.0
 40
2.504817
  0
CIRCLE
  8
DETAIL
  6
CONTINUOUS
 62
     5
 10
35.415151
 20
5.188022
 30
0.0
 40
2.504817
  0
CIRCLE
  8
DETAIL
  6
CONTINUOUS
 62
     5
 10
24.143475
 20
-1.319684
 30
0.0
 40
2.504817
  0
CIRCLE
  8
DETAIL
  6
CONTINUOUS
 62
     5
 10
27.9007
 20
5.188022
 30
0.0
 40
2.504817
  0
ARC
  8
DETAIL
  6
CONTINUOUS
 62
     5
 10
16.629024
 20
-1.319684
 30
0.0
 40
2.504817
 50
197.100203
 51
96.015803
  0
ARC
  8
DETAIL
  6
CONTINUOUS
 62
     5
 10
20.386249
 20
5.188022
 30
0.0
 40
2.504817
 50
218.715914
 51
31.336393
  0
CIRCLE
  8
DETAIL
  6
CONTINUOUS
 62
     5
 10
57.958504
 20
5.188022
 30
0.0
 40
2.504817
  0
CIRCLE
  8
DETAIL
  6
CONTINUOUS
 62
     5
 10
61.715729
 20
-1.319684
 30
0.0
 40
2.504817
  0
CIRCLE
  8
DETAIL
  6
CONTINUOUS
 62
     5
 10
54.201278
 20
-1.319684
 30
0.0
 40
2.504817
  0
CIRCLE
  8
DETAIL
  6
CONTINUOUS
 62
     5
 10
57.958504
 20
-7.827007
 30
0.0
 40
2.504817
  0
CIRCLE
  8
DETAIL
  6
CONTINUOUS
 62
     5
 10
61.715729
 20
-14.334713
 30
0.0
 40
2.504817
  0
CIRCLE
  8
DETAIL
  6
CONTINUOUS
 62
     5
 10
54.201278
 20
-14.334713
 30
0.0
 40
2.504817
  0
CIRCLE
  8
DETAIL
  6
CONTINUOUS
 62
     5
 10
57.958504
 20
-20.842036
 30
0.0
 40
2.504817
  0
CIRCLE
  8
DETAIL
  6
CONTINUOUS
 62
     5
 10
61.715729
 20
-27.349741
 30
0.0
 40
2.504817
  0
CIRCLE
  8
DETAIL
  6
CONTINUOUS
 62
     5
 10
54.201278
 20
-27.349741
 30
0.0
 40
2.504817
  0
CIRCLE
  8
DETAIL
  6
CONTINUOUS
 62
     5
 10
46.686827
 20
11.695345
 30
0.0
 40
2.504817
  0
CIRCLE
  8
DETAIL
  6
CONTINUOUS
 62
     5
 10
50.444053
 20
18.203051
 30
0.0
 40
2.504817
  0
CIRCLE
  8
DETAIL
  6
CONTINUOUS
 62
     5
 10
39.172376
 20
11.695345
 30
0.0
 40
2.504817
  0
ARC
  8
DETAIL
  6
CONTINUOUS
 62
     5
 10
42.929602
 20
18.203051
 30
0.0
 40
2.504817
 50
167.98999
 51
80.550053
  0
ARC
  8
DETAIL
  6
CONTINUOUS
 62
     5
 10
31.657926
 20
11.695345
 30
0.0
 40
2.504817
 50
194.646603
 51
53.89344
  0
CIRCLE
  8
DETAIL
  6
CONTINUOUS
 62
     5
 10
57.958504
 20
18.203051
 30
0.0
 40
2.504817
  0
CIRCLE
  8
DETAIL
  6
CONTINUOUS
 62
     5
 10
61.715729
 20
11.695345
 30
0.0
 40
2.504817
  0
CIRCLE
  8
DETAIL
  6
CONTINUOUS
 62
     5
 10
54.201278
 20
11.695345
 30
0.0
 40
2.504817
  0
LINE
  8
OUTLINE
  6
CONTINUOUS
 62
     3
 10
2.0
 20
-89.0
 30
0.0
 11
18.0
 21
-89.0
 31
0.0
  0
LINE
  8
OUTLINE
  6
CONTINUOUS
 62
     3
 10
18.0
 20
-4.722134
 30
0.0
 11
18.0
 21
-89.0
 31
0.0
  0
LINE
  8
OUTLINE
  6
CONTINUOUS
 62
     3
 10
0.0
 20
-2.210782
 30
0.0
 11
18.0
 21
-4.722134
 31
0.0
  0
LINE
  8
OUTLINE
  6
CONTINUOUS
 62
     3
 10
13.0
 20
4.404827
 30
0.0
 11
0.0
 21
2.210782
 31
0.0
  0
LINE
  8
OUTLINE
  6
CONTINUOUS
 62
     3
 10
13.0
 20
83.0
 30
0.0
 11
13.0
 21
-4.024536
 31
0.0
  0
LINE
  8
SIZE
  6
CONTINUOUS
 62
    30
 10
0.0
 20
101.0
 30
0.0
 11
0.0
 21
313.519442
 31
0.0
  0
LINE
  8
SIZE
  6
CONTINUOUS
 62
    30
 10
76.0
 20
20.0
 30
0.0
 11
76.0
 21
313.519442
 31
0.0
  0
LINE
  8
SIZE
  6
CONTINUOUS
 62
    30
 10
12.0
 20
293.519442
 30
0.0
 11
64.0
 21
293.519442
 31
0.0
  0
LINE
  8
SIZE
  6
CONTINUOUS
 62
    30
 10
250.671967
 20
293.519442
 30
0.0
 11
76.0
 21
293.519442
 31
0.0
  0
TEXT
  8
SIZE
  6
CONTINUOUS
 62
    30
 10
126.846824
 20
318.519442
 30
0.0
 40
64.0
  1
76
 50
0.0
 41
0.9
 51
0.0
  7
STANDARD
 71
     0
 72
     1
 11
180.414824
 21
318.519442
 31
0.0
210
0.0
220
0.0
230
1.0
  0
CIRCLE
  8
SIZE
  6
CONTINUOUS
 62
    30
 10
0.0
 20
293.519442
 30
0.0
 40
6.0
  0
LINE
  8
SIZE
  6
CONTINUOUS
 62
    30
 10
0.0
 20
293.519442
 30
0.0
 11
12.0
 21
293.519442
 31
0.0
  0
CIRCLE
  8
SIZE
  6
CONTINUOUS
 62
    30
 10
76.0
 20
293.519442
 30
0.0
 40
6.0
  0
LINE
  8
SIZE
  6
CONTINUOUS
 62
    30
 10
76.0
 20
293.519442
 30
0.0
 11
64.0
 21
293.519442
 31
0.0
  0
POINT
  8
DEFPOINTS
  6
CONTINUOUS
 62
    30
 10
0.0
 20
81.0
 30
0.0
  0
POINT
  8
DEFPOINTS
  6
CONTINUOUS
 62
    30
 10
76.0
 20
0.0
 30
0.0
  0
POINT
  8
DEFPOINTS
  6
CONTINUOUS
 62
    30
 10
76.0
 20
293.519442
 30
0.0
  0
LINE
  8
SIZE
  6
CONTINUOUS
 62
    30
 10
0.0
 20
101.0
 30
0.0
 11
0.0
 21
313.519442
 31
0.0
  0
LINE
  8
SIZE
  6
CONTINUOUS
 62
    30
 10
-52.0
 20
68.5
 30
0.0
 11
-52.0
 21
313.519442
 31
0.0
  0
LINE
  8
SIZE
  6
CONTINUOUS
 62
    30
 10
12.0
 20
293.519442
 30
0.0
 11
24.0
 21
293.519442
 31
0.0
  0
LINE
  8
SIZE
  6
CONTINUOUS
 62
    30
 10
-64.0
 20
293.519442
 30
0.0
 11
-76.0
 21
293.519442
 31
0.0
  0
LINE
  8
SIZE
  6
CONTINUOUS
 62
    30
 10
-221.126256
 20
293.519442
 30
0.0
 11
-52.0
 21
293.519442
 31
0.0
  0
TEXT
  8
SIZE
  6
CONTINUOUS
 62
    30
 10
-203.065684
 20
318.519442
 30
0.0
 40
64.0
  1
52
 50
0.0
 41
0.9
 51
0.0
  7
STANDARD
 71
     0
 72
     1
 11
-149.497684
 21
318.519442
 31
0.0
210
0.0
220
0.0
230
1.0
  0
LINE
  8
SIZE
  6
CONTINUOUS
 62
    30
 10
0.0
 20
293.519442
 30
0.0
 11
-52.0
 21
293.519442
 31
0.0
  0
LINE
  8
SIZE
  6
CONTINUOUS
 62
    30
 10
0.0
 20
293.519442
 30
0.0
 11
-52.0
 21
293.519442
 31
0.0
  0
CIRCLE
  8
SIZE
  6
CONTINUOUS
 62
    30
 10
0.0
 20
293.519442
 30
0.0
 40
6.0
  0
LINE
  8
SIZE
  6
CONTINUOUS
 62
    30
 10
0.0
 20
293.519442
 30
0.0
 11
12.0
 21
293.519442
 31
0.0
  0
CIRCLE
  8
SIZE
  6
CONTINUOUS
 62
    30
 10
-52.0
 20
293.519442
 30
0.0
 40
6.0
  0
LINE
  8
SIZE
  6
CONTINUOUS
 62
    30
 10
-52.0
 20
293.519442
 30
0.0
 11
-64.0
 21
293.519442
 31
0.0
  0
POINT
  8
DEFPOINTS
  6
CONTINUOUS
 62
    30
 10
0.0
 20
81.0
 30
0.0
  0
POINT
  8
DEFPOINTS
  6
CONTINUOUS
 62
    30
 10
-52.0
 20
48.5
 30
0.0
  0
POINT
  8
DEFPOINTS
  6
CONTINUOUS
 62
    30
 10
-52.0
 20
293.519442
 30
0.0
  0
LINE
  8
SIZE
  6
CONTINUOUS
 62
    30
 10
0.0
 20
-106.0
 30
0.0
 11
0.0
 21
-272.895046
 31
0.0
  0
LINE
  8
SIZE
  6
CONTINUOUS
 62
    30
 10
18.0
 20
-109.0
 30
0.0
 11
18.0
 21
-272.895046
 31
0.0
  0
LINE
  8
SIZE
  6
CONTINUOUS
 62
    30
 10
-12.0
 20
-252.895046
 30
0.0
 11
-24.0
 21
-252.895046
 31
0.0
  0
LINE
  8
SIZE
  6
CONTINUOUS
 62
    30
 10
30.0
 20
-252.895046
 30
0.0
 11
42.0
 21
-252.895046
 31
0.0
  0
LINE
  8
SIZE
  6
CONTINUOUS
 62
    30
 10
-158.081146
 20
-252.895046
 30
0.0
 11
0.0
 21
-252.895046
 31
0.0
  0
TEXT
  8
SIZE
  6
CONTINUOUS
 62
    30
 10
-139.746289
 20
-227.895046
 30
0.0
 40
64.0
  1
18
 50
0.0
 41
0.9
 51
0.0
  7
STANDARD
 71
     0
 72
     1
 11
-91.938289
 21
-227.895046
 31
0.0
210
0.0
220
0.0
230
1.0
  0
LINE
  8
SIZE
  6
CONTINUOUS
 62
    30
 10
0.0
 20
-252.895046
 30
0.0
 11
18.0
 21
-252.895046
 31
0.0
  0
LINE
  8
SIZE
  6
CONTINUOUS
 62
    30
 10
0.0
 20
-252.895046
 30
0.0
 11
18.0
 21
-252.895046
 31
0.0
  0
CIRCLE
  8
SIZE
  6
CONTINUOUS
 62
    30
 10
0.0
 20
-252.895046
 30
0.0
 40
6.0
  0
LINE
  8
SIZE
  6
CONTINUOUS
 62
    30
 10
0.0
 20
-252.895046
 30
0.0
 11
-12.0
 21
-252.895046
 31
0.0
  0
CIRCLE
  8
SIZE
  6
CONTINUOUS
 62
    30
 10
18.0
 20
-252.895046
 30
0.0
 40
6.0
  0
LINE
  8
SIZE
  6
CONTINUOUS
 62
    30
 10
18.0
 20
-252.895046
 30
0.0
 11
30.0
 21
-252.895046
 31
0.0
  0
POINT
  8
DEFPOINTS
  6
CONTINUOUS
 62
    30
 10
0.0
 20
-86.0
 30
0.0
  0
POINT
  8
DEFPOINTS
  6
CONTINUOUS
 62
    30
 10
18.0
 20
-89.0
 30
0.0
  0
POINT
  8
DEFPOINTS
  6
CONTINUOUS
 62
    30
 10
18.0
 20
-252.895046
 30
0.0
  0
LINE
  8
SIZE
  6
CONTINUOUS
 62
    30
 10
33.0
 20
62.5
 30
0.0
 11
212.837273
 21
62.5
 31
0.0
  0
LINE
  8
SIZE
  6
CONTINUOUS
 62
    30
 10
38.0
 20
-62.5
 30
0.0
 11
212.837273
 21
-62.5
 31
0.0
  0
LINE
  8
SIZE
  6
CONTINUOUS
 62
    30
 10
192.837273
 20
50.5
 30
0.0
 11
192.837273
 21
-50.5
 31
0.0
  0
LINE
  8
SIZE
  6
CONTINUOUS
 62
    30
 10
192.837273
 20
-318.792432
 30
0.0
 11
192.837273
 21
-62.5
 31
0.0
  0
TEXT
  8
SIZE
  6
CONTINUOUS
 62
    30
 10
167.837273
 20
-308.31586
 30
0.0
 40
64.0
  1
φ125
 50
90.0
 41
0.9
 51
0.0
  7
STANDARD
 71
     0
 72
     1
 11
167.837273
 21
-199.16386
 31
0.0
210
0.0
220
0.0
230
1.0
  0
CIRCLE
  8
SIZE
  6
CONTINUOUS
 62
    30
 10
192.837273
 20
62.5
 30
0.0
 40
6.0
  0
LINE
  8
SIZE
  6
CONTINUOUS
 62
    30
 10
192.837273
 20
62.5
 30
0.0
 11
192.837273
 21
50.5
 31
0.0
  0
CIRCLE
  8
SIZE
  6
CONTINUOUS
 62
    30
 10
192.837273
 20
-62.5
 30
0.0
 40
6.0
  0
LINE
  8
SIZE
  6
CONTINUOUS
 62
    30
 10
192.837273
 20
-62.5
 30
0.0
 11
192.837273
 21
-50.5
 31
0.0
  0
POINT
  8
DEFPOINTS
  6
CONTINUOUS
 62
    30
 10
13.0
 20
62.5
 30
0.0
  0
POINT
  8
DEFPOINTS
  6
CONTINUOUS
 62
    30
 10
18.0
 20
-62.5
 30
0.0
  0
POINT
  8
DEFPOINTS
  6
CONTINUOUS
 62
    30
 10
192.837273
 20
-62.5
 30
0.0
  0
LINE
  8
SIZE
  6
CONTINUOUS
 62
    30
 39
50.0
 10
192.837273
 20
-56.5
 30
0.0
 11
192.837273
 21
-274.792608
 31
0.0
  0
LINE
  8
SIZE
  6
CONTINUOUS
 62
    30
 10
33.0
 20
83.0
 30
0.0
 11
361.341242
 21
83.0
 31
0.0
  0
LINE
  8
SIZE
  6
CONTINUOUS
 62
    30
 10
96.0
 20
0.0
 30
0.0
 11
361.341242
 21
0.0
 31
0.0
  0
LINE
  8
SIZE
  6
CONTINUOUS
 62
    30
 10
341.341242
 20
71.0
 30
0.0
 11
341.341242
 21
12.0
 31
0.0
  0
TEXT
  8
SIZE
  6
CONTINUOUS
 62
    30
 10
317.251573
 20
95.955549
 30
0.0
 40
64.0
  1
83
 50
90.0
 41
0.9
 51
0.0
  7
STANDARD
 71
     0
 72
     1
 11
317.251573
 21
149.523549
 31
0.0
210
0.0
220
0.0
230
1.0
  0
CIRCLE
  8
SIZE
  6
CONTINUOUS
 62
    30
 10
341.341242
 20
83.0
 30
0.0
 40
6.0
  0
LINE
  8
SIZE
  6
CONTINUOUS
 62
    30
 10
341.341242
 20
83.0
 30
0.0
 11
341.341242
 21
71.0
 31
0.0
  0
CIRCLE
  8
SIZE
  6
CONTINUOUS
 62
    30
 10
341.341242
 20
0.0
 30
0.0
 40
6.0
  0
LINE
  8
SIZE
  6
CONTINUOUS
 62
    30
 10
341.341242
 20
0.0
 30
0.0
 11
341.341242
 21
12.0
 31
0.0
  0
POINT
  8
DEFPOINTS
  6
CONTINUOUS
 62
    30
 10
13.0
 20
83.0
 30
0.0
  0
POINT
  8
DEFPOINTS
  6
CONTINUOUS
 62
    30
 10
76.0
 20
0.0
 30
0.0
  0
POINT
  8
DEFPOINTS
  6
CONTINUOUS
 62
    30
 10
341.341242
 20
0.0
 30
0.0
  0
LINE
  8
SIZE
  6
CONTINUOUS
 62
    30
 10
96.0
 20
0.0
 30
0.0
 11
361.341242
 21
0.0
 31
0.0
  0
LINE
  8
SIZE
  6
CONTINUOUS
 62
    30
 10
38.0
 20
-89.0
 30
0.0
 11
361.341242
 21
-89.0
 31
0.0
  0
LINE
  8
SIZE
  6
CONTINUOUS
 62
    30
 10
341.341242
 20
-12.0
 30
0.0
 11
341.341242
 21
-77.0
 31
0.0
  0
LINE
  8
SIZE
  6
CONTINUOUS
 62
    30
 10
341.341242
 20
-255.212568
 30
0.0
 11
341.341242
 21
-89.0
 31
0.0
  0
TEXT
  8
SIZE
  6
CONTINUOUS
 62
    30
 10
316.341242
 20
-238.523425
 30
0.0
 40
64.0
  1
89
 50
90.0
 41
0.9
 51
0.0
  7
STANDARD
 71
     0
 72
     1
 11
316.341242
 21
-184.955425
 31
0.0
210
0.0
220
0.0
230
1.0
  0
CIRCLE
  8
SIZE
  6
CONTINUOUS
 62
    30
 10
341.341242
 20
0.0
 30
0.0
 40
6.0
  0
LINE
  8
SIZE
  6
CONTINUOUS
 62
    30
 10
341.341242
 20
0.0
 30
0.0
 11
341.341242
 21
-12.0
 31
0.0
  0
CIRCLE
  8
SIZE
  6
CONTINUOUS
 62
    30
 10
341.341242
 20
-89.0
 30
0.0
 40
6.0
  0
LINE
  8
SIZE
  6
CONTINUOUS
 62
    30
 10
341.341242
 20
-89.0
 30
0.0
 11
341.341242
 21
-77.0
 31
0.0
  0
POINT
  8
DEFPOINTS
  6
CONTINUOUS
 62
    30
 10
76.0
 20
0.0
 30
0.0
  0
POINT
  8
DEFPOINTS
  6
CONTINUOUS
 62
    30
 10
18.0
 20
-89.0
 30
0.0
  0
POINT
  8
DEFPOINTS
  6
CONTINUOUS
 62
    30
 10
341.341242
 20
-89.0
 30
0.0
  0
LINE
  8
SIZE
  6
CONTINUOUS
 62
    30
 39
50.0
 10
341.341242
 20
77.0
 30
0.0
 11
341.341242
 21
200.29268
 31
0.0
  0
ENDSEC
  0
EOF
