  0
SECTION
  2
HEADER
  9
$ACADVER
  1
AC1009
  9
$INSBASE
 10
0.0
 20
0.0
 30
0.0
  9
$EXTMIN
 10
-353.39255299999991
 20
-272.89504599999992
 30
0.0
  9
$EXTMAX
 10
1034.1650965833569
 20
506.84768656219688
 30
50.0
  9
$LIMMIN
 10
-2970.0
 20
-2100.0
  9
$LIMMAX
 10
2970.0
 20
2100.0
  9
$ORTHOMODE
 70
     1
  9
$REGENMODE
 70
     0
  9
$FILLMODE
 70
     1
  9
$QTEXTMODE
 70
     0
  9
$MIRRTEXT
 70
     0
  9
$DRAGMODE
 70
     2
  9
$LTSCALE
 40
20.0
  9
$OSMODE
 70
    37
  9
$ATTMODE
 70
     1
  9
$TEXTSIZE
 40
64.0
  9
$TRACEWID
 40
0.05
  9
$TEXTSTYLE
  7
STANDARD
  9
$CLAYER
  8
SIZE
  9
$CELTYPE
  6
CONTINUOUS
  9
$CECOLOR
 62
    30
  9
$DIMSCALE
 40
1.0
  9
$DIMASZ
 40
12.0
  9
$DIMEXO
 40
20.0
  9
$DIMDLI
 40
200.0
  9
$DIMRND
 40
0.0
  9
$DIMDLE
 40
0.0
  9
$DIMEXE
 40
20.0
  9
$DIMTP
 40
0.0
  9
$DIMTM
 40
0.0
  9
$DIMTXT
 40
64.0
  9
$DIMCEN
 40
0.09
  9
$DIMTSZ
 40
0.0
  9
$DIMTOL
 70
     0
  9
$DIMLIM
 70
     0
  9
$DIMTIH
 70
     0
  9
$DIMTOH
 70
     0
  9
$DIMSE1
 70
     0
  9
$DIMSE2
 70
     0
  9
$DIMTAD
 70
     1
  9
$DIMZIN
 70
     8
  9
$DIMBLK
  1
DOT1
  9
$DIMASO
 70
     1
  9
$DIMSHO
 70
     0
  9
$DIMPOST
  1

  9
$DIMAPOST
  1

  9
$DIMALT
 70
     0
  9
$DIMALTD
 70
     2
  9
$DIMALTF
 40
25.399999999999999
  9
$DIMLFAC
 40
1.0
  9
$DIMTOFL
 70
     1
  9
$DIMTVP
 40
0.0
  9
$DIMTIX
 70
     1
  9
$DIMSOXD
 70
     0
  9
$DIMSAH
 70
     1
  9
$DIMBLK1
  1
ORIGIN
  9
$DIMBLK2
  1
ORIGIN
  9
$DIMSTYLE
  2
STANDARD
  9
$DIMCLRD
 70
     7
  9
$DIMCLRE
 70
     7
  9
$DIMCLRT
 70
     7
  9
$DIMTFAC
 40
1.0
  9
$DIMGAP
 40
25.0
  9
$LUNITS
 70
     2
  9
$LUPREC
 70
     4
  9
$SKETCHINC
 40
0.1
  9
$FILLETRAD
 40
4.0
  9
$AUNITS
 70
     1
  9
$AUPREC
 70
     3
  9
$MENU
  1
ACAD
  9
$ELEVATION
 40
0.0
  9
$PELEVATION
 40
0.0
  9
$THICKNESS
 40
50.0
  9
$LIMCHECK
 70
     0
  9
$BLIPMODE
 70
     0
  9
$CHAMFERA
 40
0.0
  9
$CHAMFERB
 40
0.0
  9
$SKPOLY
 70
     0
  9
$TDCREATE
 40
2453018.6165077891
  9
$TDUPDATE
 40
2454809.6403547111
  9
$TDINDWG
 40
0.0423102199
  9
$TDUSRTIMER
 40
0.0423100347
  9
$USRTIMER
 70
     1
  9
$ANGBASE
 50
0.0
  9
$ANGDIR
 70
     0
  9
$PDMODE
 70
     3
  9
$PDSIZE
 40
-2.0
  9
$PLINEWID
 40
0.0
  9
$COORDS
 70
     0
  9
$SPLFRAME
 70
     0
  9
$SPLINETYPE
 70
     6
  9
$SPLINESEGS
 70
     8
  9
$ATTDIA
 70
     0
  9
$ATTREQ
 70
     1
  9
$HANDLING
 70
     1
  9
$HANDSEED
  5
3EA
  9
$SURFTAB1
 70
     6
  9
$SURFTAB2
 70
     6
  9
$SURFTYPE
 70
     6
  9
$SURFU
 70
     6
  9
$SURFV
 70
     6
  9
$UCSNAME
  2

  9
$UCSORG
 10
0.0
 20
0.0
 30
0.0
  9
$UCSXDIR
 10
1.0
 20
0.0
 30
0.0
  9
$UCSYDIR
 10
0.0
 20
1.0
 30
0.0
  9
$PUCSNAME
  2

  9
$PUCSORG
 10
0.0
 20
0.0
 30
0.0
  9
$PUCSXDIR
 10
1.0
 20
0.0
 30
0.0
  9
$PUCSYDIR
 10
0.0
 20
1.0
 30
0.0
  9
$USERI1
 70
     0
  9
$USERI2
 70
     0
  9
$USERI3
 70
     0
  9
$USERI4
 70
     0
  9
$USERI5
 70
     0
  9
$USERR1
 40
20.0
  9
$USERR2
 40
0.0
  9
$USERR3
 40
0.0
  9
$USERR4
 40
0.0
  9
$USERR5
 40
0.0
  9
$WORLDVIEW
 70
     1
  9
$SHADEDGE
 70
     3
  9
$SHADEDIF
 70
    70
  9
$TILEMODE
 70
     1
  9
$MAXACTVP
 70
    48
  9
$PLIMCHECK
 70
     0
  9
$PEXTMIN
 10
-1.0000000000000000E+020
 20
-1.0000000000000000E+020
 30
-1.0000000000000000E+020
  9
$PEXTMAX
 10
1.0000000000000000E+020
 20
1.0000000000000000E+020
 30
1.0000000000000000E+020
  9
$PLIMMIN
 10
0.0
 20
0.0
  9
$PLIMMAX
 10
12.0
 20
9.0
  9
$UNITMODE
 70
     0
  9
$VISRETAIN
 70
     0
  9
$PLINEGEN
 70
     0
  9
$PSLTSCALE
 70
     0
  0
ENDSEC
  0
SECTION
  2
TABLES
  0
TABLE
  2
VPORT
 70
     1
  0
VPORT
  2
*ACTIVE
 70
     0
 10
0.0
 20
0.0
 11
1.0
 21
1.0
 12
178.5129813027695
 22
234.10458029662209
 13
0.0
 23
0.0
 14
1.0
 24
1.0
 15
0.0
 25
0.0
 16
0.0
 26
0.0
 36
1.0
 17
0.0
 27
0.0
 37
0.0
 40
705.07082808564201
 41
1.3098995695839311
 42
50.0
 43
0.0
 44
0.0
 50
0.0
 51
0.0
 71
     0
 72
  1000
 73
     1
 74
     0
 75
     0
 76
     0
 77
     0
 78
     0
  0
ENDTAB
  0
TABLE
  2
LTYPE
 70
     3
  0
LTYPE
  2
CONTINUOUS
 70
     0
  3
実線
 72
    65
 73
     0
 40
0.0
  0
LTYPE
  2
DASHDOT
 70
     0
  3
____ _ ____ _ ____ _ ____ _ ____ _ ____ _ ____
 72
    65
 73
     4
 40
5.5
 49
4.0
 49
-0.6
 49
0.3
 49
-0.6
  0
ENDTAB
  0
TABLE
  2
LAYER
 70
    12
  0
LAYER
  2
0
 70
     0
 62
     7
  6
CONTINUOUS
  0
LAYER
  2
SIZE
 70
     0
 62
    30
  6
CONTINUOUS
  0
LAYER
  2
BASIS
 70
     0
 62
     6
  6
DASHDOT
  0
LAYER
  2
OUTLINE
 70
     0
 62
     3
  6
CONTINUOUS
  0
LAYER
  2
DETAIL
 70
     0
 62
     5
  6
CONTINUOUS
  0
LAYER
  2
ARRANGE
 70
     0
 62
     1
  6
CONTINUOUS
  0
LAYER
  2
DEFPOINTS
 70
     0
 62
     7
  6
CONTINUOUS
  0
LAYER
  2
ETC
 70
     0
 62
    61
  6
CONTINUOUS
  0
LAYER
  2
FIX
 70
     0
 62
    11
  6
CONTINUOUS
  0
LAYER
  2
NOTE
 70
     0
 62
     4
  6
CONTINUOUS
  0
LAYER
  2
SERVICESPACE
 70
     0
 62
     2
  6
DASHDOT
  0
LAYER
  2
SYMBOLLINE
 70
     0
 62
    15
  6
CONTINUOUS
  0
ENDTAB
  0
TABLE
  2
STYLE
 70
     2
  0
STYLE
  2
STANDARD
 70
     0
 40
64.0
 41
0.9
 50
0.0
 71
     0
 42
64.0
  3
SIMPLEX.shx
  4
BIGFONT.shx
  0
STYLE
  2
ANNOTATIVE
 70
     0
 40
0.0
 41
1.0
 50
0.0
 71
     0
 42
0.2
  3
txt
  4

  0
ENDTAB
  0
TABLE
  2
VIEW
 70
     1
  0
VIEW
  2
ALL
 70
     0
 40
4282.6198079999967
 10
0.0
 20
41.309903999999989
 41
5940.0
 11
0.0
 21
0.0
 31
1.0
 12
0.0
 22
0.0
 32
0.0
 42
50.0
 43
0.0
 44
0.0
 50
0.0
 71
     0
  0
ENDTAB
  0
TABLE
  2
UCS
 70
     0
  0
ENDTAB
  0
TABLE
  2
APPID
 70
     4
  0
APPID
  2
ACAD
 70
     0
  0
APPID
  2
ACADANNOTATIVE
 70
     0
  0
APPID
  2
ACAD_MLEADERVER
 70
     0
  0
APPID
  2
AUTOCAD_POSTSCRIPT_FIGURE
 70
     0
  0
ENDTAB
  0
TABLE
  2
DIMSTYLE
 70
     3
  0
DIMSTYLE
  2
STANDARD
 70
     0
  3

  4

  5

  6

  7

 40
1.0
 41
0.18
 42
0.0625
 43
0.38
 44
0.18
 45
0.0
 46
0.0
 47
0.0
 48
0.0
140
0.18
141
0.09
142
0.0
143
25.399999999999999
144
1.0
145
0.0
146
1.0
147
0.09
 71
     0
 72
     0
 73
     1
 74
     1
 75
     0
 76
     0
 77
     0
 78
     0
170
     0
171
     2
172
     0
173
     0
174
     0
175
     0
176
     7
177
     7
178
     7
  0
DIMSTYLE
  2
ANNOTATIVE
 70
     0
  3

  4

  5

  6

  7

 40
1.0
 41
0.18
 42
0.0625
 43
0.38
 44
0.18
 45
0.0
 46
0.0
 47
0.0
 48
0.0
140
0.18
141
0.09
142
0.0
143
25.399999999999999
144
1.0
145
0.0
146
1.0
147
0.09
 71
     0
 72
     0
 73
     1
 74
     1
 75
     0
 76
     0
 77
     0
 78
     0
170
     0
171
     2
172
     0
173
     0
174
     0
175
     0
176
     0
177
     0
178
     0
  0
ENDTAB
  0
ENDSEC
  0
SECTION
  2
BLOCKS
  0
BLOCK
  8
0
  2
$MODEL_SPACE
 70
     0
 10
0.0
 20
0.0
 30
0.0
  3
$MODEL_SPACE
  1

  0
ENDBLK
  5
38D
  8
0
  0
BLOCK
 67
     1
  8
0
  2
$PAPER_SPACE
 70
     0
 10
0.0
 20
0.0
 30
0.0
  3
$PAPER_SPACE
  1

  0
ENDBLK
  5
389
 67
     1
  8
0
  0
BLOCK
  8
0
  2
DOT1
 70
     0
 10
0.0
 20
0.0
 30
0.0
  3
DOT1
  1

  0
CIRCLE
  5
1AB
  8
SIZE
  6
CONTINUOUS
 62
     7
 10
0.0
 20
0.0
 30
0.0
 40
3.0
  0
ENDBLK
  5
1AC
  8
0
  0
BLOCK
  8
0
  2
_ORIGIN
 70
     0
 10
0.0
 20
0.0
 30
0.0
  3
_ORIGIN
  1

  0
CIRCLE
  5
1AF
  8
0
  6
CONTINUOUS
 62
     7
 10
0.0
 20
0.0
 30
0.0
 40
0.5
  0
LINE
  5
1B0
  8
0
  6
CONTINUOUS
 62
     7
 10
0.0
 20
0.0
 30
0.0
 11
-1.0
 21
0.0
 31
0.0
  0
ENDBLK
  5
1B1
  8
0
  0
ENDSEC
  0
SECTION
  2
ENTITIES
  0
LINE
  5
1B2
  8
DETAIL
  6
CONTINUOUS
 62
     5
 10
0.0
 20
48.5
 30
0.0
 11
52.0
 21
48.5
 31
0.0
  0
LINE
  5
1B3
  8
DETAIL
  6
CONTINUOUS
 62
     5
 10
0.0
 20
-48.5
 30
0.0
 11
52.0
 21
-48.5
 31
0.0
  0
LINE
  5
1B4
  8
BASIS
  6
DASHDOT
 62
     6
 10
86.672202999999982
 20
0.0
 30
0.0
 11
-118.3403019999998
 21
0.0
 31
0.0
  0
LINE
  5
1B5
  8
DETAIL
  6
CONTINUOUS
 62
     5
 10
-13.0
 20
62.5
 30
0.0
 11
-20.921489999999999
 21
62.5
 31
0.0
  0
ARC
  5
1B6
  8
DETAIL
  6
CONTINUOUS
 62
     5
 10
-13.0
 20
0.0
 30
0.0
 40
63.0
 50
97.223371999999998
 51
145.7299789999999
  0
LINE
  5
1B7
  8
DETAIL
  6
CONTINUOUS
 62
     5
 10
-13.0
 20
83.0
 30
0.0
 11
-13.0
 21
-4.0245360000000003
 31
0.0
  0
LINE
  5
1B8
  8
DETAIL
  6
CONTINUOUS
 62
     5
 10
-2.0
 20
83.0
 30
0.0
 11
-13.0
 21
83.0
 31
0.0
  0
LINE
  5
1B9
  8
DETAIL
  6
CONTINUOUS
 62
     5
 10
-2.0
 20
-89.0
 30
0.0
 11
-18.0
 21
-89.0
 31
0.0
  0
LINE
  5
1BA
  8
DETAIL
  6
CONTINUOUS
 62
     5
 10
0.0
 20
81.0
 30
0.0
 11
0.0
 21
-87.0
 31
0.0
  0
ARC
  5
1BB
  8
DETAIL
  6
CONTINUOUS
 62
     5
 10
-2.0
 20
81.0
 30
0.0
 40
2.0
 50
0.0
 51
90.0
  0
ARC
  5
1BC
  8
DETAIL
  6
CONTINUOUS
 62
     5
 10
-2.0
 20
-87.0
 30
0.0
 40
2.0
 50
270.0
 51
0.0
  0
CIRCLE
  5
1BD
  8
ARRANGE
  6
CONTINUOUS
 62
     1
 39
50.0
 10
0.0
 20
0.0
 30
0.0
 40
40.0
  0
POINT
  5
1BE
  8
ARRANGE
  6
CONTINUOUS
 62
     1
 10
0.0
 20
0.0
 30
0.0
 39
50.0
  0
LINE
  5
1BF
  8
DETAIL
  6
CONTINUOUS
 62
     5
 10
-19.342392999999991
 20
4.3216260000000002
 30
0.0
 11
-65.062760999999995
 21
35.474905
 31
0.0
  0
LINE
  5
1C0
  8
DETAIL
  6
CONTINUOUS
 62
     5
 10
-13.0
 20
-3.9261099999999991
 30
0.0
 11
-16.628889000000001
 21
1.5686209999999969
 31
0.0
  0
ARC
  5
1C1
  8
DETAIL
  6
CONTINUOUS
 62
     5
 10
-24.973331000000002
 20
-3.942304
 30
0.0
 40
10.0
 50
33.441997000000001
 51
55.729979
  0
LINE
  5
1C2
  8
DETAIL
  6
CONTINUOUS
 62
     5
 10
-18.0
 20
-4.7221339999999987
 30
0.0
 11
-18.0
 21
-89.0
 31
0.0
  0
LINE
  5
1C3
  8
DETAIL
  6
CONTINUOUS
 62
     5
 10
-13.0
 20
4.404827
 30
0.0
 11
0.0
 21
2.210782
 31
0.0
  0
LINE
  5
1C4
  8
DETAIL
  6
CONTINUOUS
 62
     5
 10
0.0
 20
-2.210782
 30
0.0
 11
-18.0
 21
-4.7221339999999987
 31
0.0
  0
ARC
  5
1C5
  8
DETAIL
  6
CONTINUOUS
 62
     5
 10
-65.472954000000001
 20
31.217697999999999
 30
0.0
 40
2.5048169999999992
 50
235.8908899999999
 51
57.941310999999999
  0
CIRCLE
  5
1C6
  8
DETAIL
  6
CONTINUOUS
 62
     5
 10
-65.472954000000001
 20
5.1880220000000001
 30
0.0
 40
2.5048169999999992
  0
CIRCLE
  5
1C7
  8
DETAIL
  6
CONTINUOUS
 62
     5
 10
-65.472954000000001
 20
-7.827007
 30
0.0
 40
2.5048169999999992
  0
CIRCLE
  5
1C8
  8
DETAIL
  6
CONTINUOUS
 62
     5
 10
-65.472954000000001
 20
-20.84203599999999
 30
0.0
 40
2.5048169999999992
  0
ARC
  5
1C9
  8
DETAIL
  6
CONTINUOUS
 62
     5
 10
-65.472954000000001
 20
-33.857064999999992
 30
0.0
 40
2.5048169999999992
 50
267.23674
 51
157.51721000000001
  0
CIRCLE
  5
1CA
  8
DETAIL
  6
CONTINUOUS
 62
     5
 10
-65.472954000000001
 20
18.203050999999991
 30
0.0
 40
2.5048169999999992
  0
ARC
  5
1CB
  8
DETAIL
  6
CONTINUOUS
 62
     5
 10
-69.230180000000004
 20
24.710374000000002
 30
0.0
 40
2.5048169999999992
 50
237.9877919999999
 51
67.838273000000001
  0
ARC
  5
1CC
  8
DETAIL
  6
CONTINUOUS
 62
     5
 10
-72.987404999999981
 20
5.1880220000000001
 30
0.0
 40
2.5048169999999992
 50
211.44054799999981
 51
134.74903
  0
ARC
  5
1CD
  8
DETAIL
  6
CONTINUOUS
 62
     5
 10
-76.744631000000012
 20
-1.3196840000000001
 30
0.0
 40
2.5048169999999992
 50
286.34409099999982
 51
71.424293999999975
  0
ARC
  5
1CE
  8
DETAIL
  6
CONTINUOUS
 62
     5
 10
-72.987404999999981
 20
-7.827007
 30
0.0
 40
2.5048169999999992
 50
219.21214900000001
 51
152.4483229999999
  0
ARC
  5
1CF
  8
DETAIL
  6
CONTINUOUS
 62
     5
 10
-72.987404999999981
 20
-20.84203599999999
 30
0.0
 40
2.5048169999999992
 50
284.796313
 51
110.894944
  0
ARC
  5
1D0
  8
DETAIL
  6
CONTINUOUS
 62
     5
 10
-72.987404999999981
 20
18.203050999999991
 30
0.0
 40
2.5048169999999992
 50
264.60265699999991
 51
55.447617000000001
  0
CIRCLE
  5
1D1
  8
DETAIL
  6
CONTINUOUS
 62
     5
 10
-69.230180000000004
 20
-1.3196840000000001
 30
0.0
 40
2.5048169999999992
  0
CIRCLE
  5
1D2
  8
DETAIL
  6
CONTINUOUS
 62
     5
 10
-69.230180000000004
 20
-14.334713000000001
 30
0.0
 40
2.5048169999999992
  0
ARC
  5
1D3
  8
DETAIL
  6
CONTINUOUS
 62
     5
 10
-69.230180000000004
 20
-27.349741000000002
 30
0.0
 40
2.5048169999999992
 50
264.63652999999982
 51
145.42707099999981
  0
CIRCLE
  5
1D4
  8
DETAIL
  6
CONTINUOUS
 62
     5
 10
-69.230180000000004
 20
11.695344999999991
 30
0.0
 40
2.5048169999999992
  0
CIRCLE
  5
1D5
  8
DETAIL
  6
CONTINUOUS
 62
     5
 10
-39.172375999999993
 20
-40.36477
 30
0.0
 40
2.5048169999999992
  0
CIRCLE
  5
1D6
  8
DETAIL
  6
CONTINUOUS
 62
     5
 10
-42.929602000000003
 20
-33.857064999999992
 30
0.0
 40
2.5048169999999992
  0
CIRCLE
  5
1D7
  8
DETAIL
  6
CONTINUOUS
 62
     5
 10
-31.657926
 20
-40.36477
 30
0.0
 40
2.5048169999999992
  0
CIRCLE
  5
1D8
  8
DETAIL
  6
CONTINUOUS
 62
     5
 10
-35.415151000000002
 20
-33.857064999999992
 30
0.0
 40
2.5048169999999992
  0
CIRCLE
  5
1D9
  8
DETAIL
  6
CONTINUOUS
 62
     5
 10
-24.143474999999992
 20
-40.36477
 30
0.0
 40
2.5048169999999992
  0
CIRCLE
  5
1DA
  8
DETAIL
  6
CONTINUOUS
 62
     5
 10
-27.900700000000001
 20
-33.857064999999992
 30
0.0
 40
2.5048169999999992
  0
ARC
  5
1DB
  8
DETAIL
  6
CONTINUOUS
 62
     5
 10
-16.62902399999999
 20
-40.36477
 30
0.0
 40
2.5048169999999992
 50
123.184434
 51
236.81556599999999
  0
CIRCLE
  5
1DC
  8
DETAIL
  6
CONTINUOUS
 62
     5
 10
-20.386248999999982
 20
-33.857064999999992
 30
0.0
 40
2.5048169999999992
  0
CIRCLE
  5
1DD
  8
DETAIL
  6
CONTINUOUS
 62
     5
 10
-57.958503999999991
 20
-33.857064999999992
 30
0.0
 40
2.5048169999999992
  0
ARC
  5
1DE
  8
DETAIL
  6
CONTINUOUS
 62
     5
 10
-61.71572900000001
 20
-40.36477
 30
0.0
 40
2.5048169999999992
 50
294.85902700000008
 51
144.43205900000001
  0
CIRCLE
  5
1DF
  8
DETAIL
  6
CONTINUOUS
 62
     5
 10
-54.201278000000002
 20
-40.36477
 30
0.0
 40
2.5048169999999992
  0
ARC
  5
1E0
  8
DETAIL
  6
CONTINUOUS
 62
     5
 10
-57.958503999999991
 20
-46.87209399999999
 30
0.0
 40
2.5048169999999992
 50
341.76695100000001
 51
111.46279199999979
  0
ARC
  5
1E1
  8
DETAIL
  6
CONTINUOUS
 62
     5
 10
-46.686827000000001
 20
-53.379798999999998
 30
0.0
 40
2.5048169999999992
 50
315.612686
 51
162.23084499999999
  0
CIRCLE
  5
1E2
  8
DETAIL
  6
CONTINUOUS
 62
     5
 10
-50.444053000000011
 20
-46.87209399999999
 30
0.0
 40
2.5048169999999992
  0
CIRCLE
  5
1E3
  8
DETAIL
  6
CONTINUOUS
 62
     5
 10
-39.172375999999993
 20
-53.379798999999998
 30
0.0
 40
2.5048169999999992
  0
CIRCLE
  5
1E4
  8
DETAIL
  6
CONTINUOUS
 62
     5
 10
-42.929602000000003
 20
-46.87209399999999
 30
0.0
 40
2.5048169999999992
  0
CIRCLE
  5
1E5
  8
DETAIL
  6
CONTINUOUS
 62
     5
 10
-31.657926
 20
-53.379798999999998
 30
0.0
 40
2.5048169999999992
  0
CIRCLE
  5
1E6
  8
DETAIL
  6
CONTINUOUS
 62
     5
 10
-35.415151000000002
 20
-46.87209399999999
 30
0.0
 40
2.5048169999999992
  0
CIRCLE
  5
1E7
  8
DETAIL
  6
CONTINUOUS
 62
     5
 10
-24.143474999999992
 20
-53.379798999999998
 30
0.0
 40
2.5048169999999992
  0
CIRCLE
  5
1E8
  8
DETAIL
  6
CONTINUOUS
 62
     5
 10
-27.900700000000001
 20
-46.87209399999999
 30
0.0
 40
2.5048169999999992
  0
ARC
  5
1E9
  8
DETAIL
  6
CONTINUOUS
 62
     5
 10
-16.62902399999999
 20
-53.379798999999998
 30
0.0
 40
2.5048169999999992
 50
123.184434
 51
236.81556599999999
  0
ARC
  5
1EA
  8
DETAIL
  6
CONTINUOUS
 62
     5
 10
-20.386248999999982
 20
-46.87209399999999
 30
0.0
 40
2.5048169999999992
 50
17.699501000000001
 51
342.30049899999989
  0
CIRCLE
  5
1EB
  8
DETAIL
  6
CONTINUOUS
 62
     5
 10
-46.686827000000001
 20
-40.36477
 30
0.0
 40
2.5048169999999992
  0
CIRCLE
  5
1EC
  8
DETAIL
  6
CONTINUOUS
 62
     5
 10
-50.444053000000011
 20
-33.857064999999992
 30
0.0
 40
2.5048169999999992
  0
ARC
  5
1ED
  8
DETAIL
  6
CONTINUOUS
 62
     5
 10
-35.415151000000002
 20
-59.887122999999988
 30
0.0
 40
2.5048169999999992
 50
355.00462399999992
 51
147.64998
  0
ARC
  5
1EE
  8
DETAIL
  6
CONTINUOUS
 62
     5
 10
-27.900700000000001
 20
-59.887122999999988
 30
0.0
 40
2.5048169999999992
 50
314.52189399999992
 51
202.08780999999999
  0
ARC
  5
1EF
  8
DETAIL
  6
CONTINUOUS
 62
     5
 10
-20.386248999999982
 20
-59.887122999999988
 30
0.0
 40
2.5048169999999992
 50
17.699501000000001
 51
342.30049899999989
  0
ARC
  5
1F0
  8
DETAIL
  6
CONTINUOUS
 62
     5
 10
-46.686827000000001
 20
24.710374000000002
 30
0.0
 40
2.5048169999999992
 50
181.1481169999999
 51
290.31184000000002
  0
CIRCLE
  5
1F1
  8
DETAIL
  6
CONTINUOUS
 62
     5
 10
-61.71572900000001
 20
24.710374000000002
 30
0.0
 40
2.5048169999999992
  0
CIRCLE
  5
1F2
  8
DETAIL
  6
CONTINUOUS
 62
     5
 10
-54.201278000000002
 20
24.710374000000002
 30
0.0
 40
2.5048169999999992
  0
ARC
  5
1F3
  8
DETAIL
  6
CONTINUOUS
 62
     5
 10
-57.958503999999991
 20
31.217697999999999
 30
0.0
 40
2.5048169999999992
 50
156.8300679999999
 51
314.62988899999999
  0
CIRCLE
  5
1F4
  8
DETAIL
  6
CONTINUOUS
 62
     5
 10
-46.686827000000001
 20
-27.349741000000002
 30
0.0
 40
2.5048169999999992
  0
CIRCLE
  5
1F5
  8
DETAIL
  6
CONTINUOUS
 62
     5
 10
-50.444053000000011
 20
-20.84203599999999
 30
0.0
 40
2.5048169999999992
  0
CIRCLE
  5
1F6
  8
DETAIL
  6
CONTINUOUS
 62
     5
 10
-39.172375999999993
 20
-27.349741000000002
 30
0.0
 40
2.5048169999999992
  0
CIRCLE
  5
1F7
  8
DETAIL
  6
CONTINUOUS
 62
     5
 10
-42.929602000000003
 20
-20.84203599999999
 30
0.0
 40
2.5048169999999992
  0
CIRCLE
  5
1F8
  8
DETAIL
  6
CONTINUOUS
 62
     5
 10
-31.657926
 20
-27.349741000000002
 30
0.0
 40
2.5048169999999992
  0
CIRCLE
  5
1F9
  8
DETAIL
  6
CONTINUOUS
 62
     5
 10
-35.415151000000002
 20
-20.84203599999999
 30
0.0
 40
2.5048169999999992
  0
CIRCLE
  5
1FA
  8
DETAIL
  6
CONTINUOUS
 62
     5
 10
-24.143474999999992
 20
-27.349741000000002
 30
0.0
 40
2.5048169999999992
  0
CIRCLE
  5
1FB
  8
DETAIL
  6
CONTINUOUS
 62
     5
 10
-27.900700000000001
 20
-20.84203599999999
 30
0.0
 40
2.5048169999999992
  0
ARC
  5
1FC
  8
DETAIL
  6
CONTINUOUS
 62
     5
 10
-16.62902399999999
 20
-27.349741000000002
 30
0.0
 40
2.5048169999999992
 50
123.184434
 51
236.81556599999999
  0
ARC
  5
1FD
  8
DETAIL
  6
CONTINUOUS
 62
     5
 10
-20.386248999999982
 20
-20.84203599999999
 30
0.0
 40
2.5048169999999992
 50
17.699501000000001
 51
342.30049899999989
  0
CIRCLE
  5
1FE
  8
DETAIL
  6
CONTINUOUS
 62
     5
 10
-46.686827000000001
 20
-14.334713000000001
 30
0.0
 40
2.5048169999999992
  0
CIRCLE
  5
1FF
  8
DETAIL
  6
CONTINUOUS
 62
     5
 10
-50.444053000000011
 20
-7.827007
 30
0.0
 40
2.5048169999999992
  0
CIRCLE
  5
200
  8
DETAIL
  6
CONTINUOUS
 62
     5
 10
-39.172375999999993
 20
-14.334713000000001
 30
0.0
 40
2.5048169999999992
  0
CIRCLE
  5
201
  8
DETAIL
  6
CONTINUOUS
 62
     5
 10
-42.929602000000003
 20
-7.827007
 30
0.0
 40
2.5048169999999992
  0
CIRCLE
  5
202
  8
DETAIL
  6
CONTINUOUS
 62
     5
 10
-31.657926
 20
-14.334713000000001
 30
0.0
 40
2.5048169999999992
  0
CIRCLE
  5
203
  8
DETAIL
  6
CONTINUOUS
 62
     5
 10
-35.415151000000002
 20
-7.827007
 30
0.0
 40
2.5048169999999992
  0
CIRCLE
  5
204
  8
DETAIL
  6
CONTINUOUS
 62
     5
 10
-24.143474999999992
 20
-14.334713000000001
 30
0.0
 40
2.5048169999999992
  0
CIRCLE
  5
205
  8
DETAIL
  6
CONTINUOUS
 62
     5
 10
-27.900700000000001
 20
-7.827007
 30
0.0
 40
2.5048169999999992
  0
ARC
  5
206
  8
DETAIL
  6
CONTINUOUS
 62
     5
 10
-16.62902399999999
 20
-14.334713000000001
 30
0.0
 40
2.5048169999999992
 50
123.184434
 51
236.81556599999999
  0
ARC
  5
207
  8
DETAIL
  6
CONTINUOUS
 62
     5
 10
-20.386248999999982
 20
-7.827007
 30
0.0
 40
2.5048169999999992
 50
17.699501000000001
 51
342.30049899999989
  0
CIRCLE
  5
208
  8
DETAIL
  6
CONTINUOUS
 62
     5
 10
-46.686827000000001
 20
-1.3196840000000001
 30
0.0
 40
2.5048169999999992
  0
CIRCLE
  5
209
  8
DETAIL
  6
CONTINUOUS
 62
     5
 10
-50.444053000000011
 20
5.1880220000000001
 30
0.0
 40
2.5048169999999992
  0
CIRCLE
  5
20A
  8
DETAIL
  6
CONTINUOUS
 62
     5
 10
-39.172375999999993
 20
-1.3196840000000001
 30
0.0
 40
2.5048169999999992
  0
CIRCLE
  5
20B
  8
DETAIL
  6
CONTINUOUS
 62
     5
 10
-42.929602000000003
 20
5.1880220000000001
 30
0.0
 40
2.5048169999999992
  0
CIRCLE
  5
20C
  8
DETAIL
  6
CONTINUOUS
 62
     5
 10
-31.657926
 20
-1.3196840000000001
 30
0.0
 40
2.5048169999999992
  0
CIRCLE
  5
20D
  8
DETAIL
  6
CONTINUOUS
 62
     5
 10
-35.415151000000002
 20
5.1880220000000001
 30
0.0
 40
2.5048169999999992
  0
CIRCLE
  5
20E
  8
DETAIL
  6
CONTINUOUS
 62
     5
 10
-24.143474999999992
 20
-1.3196840000000001
 30
0.0
 40
2.5048169999999992
  0
CIRCLE
  5
20F
  8
DETAIL
  6
CONTINUOUS
 62
     5
 10
-27.900700000000001
 20
5.1880220000000001
 30
0.0
 40
2.5048169999999992
  0
ARC
  5
210
  8
DETAIL
  6
CONTINUOUS
 62
     5
 10
-16.62902399999999
 20
-1.3196840000000001
 30
0.0
 40
2.5048169999999992
 50
83.98419699999998
 51
342.89979699999992
  0
ARC
  5
211
  8
DETAIL
  6
CONTINUOUS
 62
     5
 10
-20.386248999999982
 20
5.1880220000000001
 30
0.0
 40
2.5048169999999992
 50
148.66360700000001
 51
321.284086
  0
CIRCLE
  5
212
  8
DETAIL
  6
CONTINUOUS
 62
     5
 10
-57.958503999999991
 20
5.1880220000000001
 30
0.0
 40
2.5048169999999992
  0
CIRCLE
  5
213
  8
DETAIL
  6
CONTINUOUS
 62
     5
 10
-61.71572900000001
 20
-1.3196840000000001
 30
0.0
 40
2.5048169999999992
  0
CIRCLE
  5
214
  8
DETAIL
  6
CONTINUOUS
 62
     5
 10
-54.201278000000002
 20
-1.3196840000000001
 30
0.0
 40
2.5048169999999992
  0
CIRCLE
  5
215
  8
DETAIL
  6
CONTINUOUS
 62
     5
 10
-57.958503999999991
 20
-7.827007
 30
0.0
 40
2.5048169999999992
  0
CIRCLE
  5
216
  8
DETAIL
  6
CONTINUOUS
 62
     5
 10
-61.71572900000001
 20
-14.334713000000001
 30
0.0
 40
2.5048169999999992
  0
CIRCLE
  5
217
  8
DETAIL
  6
CONTINUOUS
 62
     5
 10
-54.201278000000002
 20
-14.334713000000001
 30
0.0
 40
2.5048169999999992
  0
CIRCLE
  5
218
  8
DETAIL
  6
CONTINUOUS
 62
     5
 10
-57.958503999999991
 20
-20.84203599999999
 30
0.0
 40
2.5048169999999992
  0
CIRCLE
  5
219
  8
DETAIL
  6
CONTINUOUS
 62
     5
 10
-61.71572900000001
 20
-27.349741000000002
 30
0.0
 40
2.5048169999999992
  0
CIRCLE
  5
21A
  8
DETAIL
  6
CONTINUOUS
 62
     5
 10
-54.201278000000002
 20
-27.349741000000002
 30
0.0
 40
2.5048169999999992
  0
CIRCLE
  5
21B
  8
DETAIL
  6
CONTINUOUS
 62
     5
 10
-46.686827000000001
 20
11.695344999999991
 30
0.0
 40
2.5048169999999992
  0
CIRCLE
  5
21C
  8
DETAIL
  6
CONTINUOUS
 62
     5
 10
-50.444053000000011
 20
18.203050999999991
 30
0.0
 40
2.5048169999999992
  0
CIRCLE
  5
21D
  8
DETAIL
  6
CONTINUOUS
 62
     5
 10
-39.172375999999993
 20
11.695344999999991
 30
0.0
 40
2.5048169999999992
  0
ARC
  5
21E
  8
DETAIL
  6
CONTINUOUS
 62
     5
 10
-42.929602000000003
 20
18.203050999999991
 30
0.0
 40
2.5048169999999992
 50
99.449946999999995
 51
12.010009999999991
  0
ARC
  5
21F
  8
DETAIL
  6
CONTINUOUS
 62
     5
 10
-31.657926
 20
11.695344999999991
 30
0.0
 40
2.5048169999999992
 50
126.10656
 51
345.35339699999992
  0
CIRCLE
  5
220
  8
DETAIL
  6
CONTINUOUS
 62
     5
 10
-57.958503999999991
 20
18.203050999999991
 30
0.0
 40
2.5048169999999992
  0
CIRCLE
  5
221
  8
DETAIL
  6
CONTINUOUS
 62
     5
 10
-61.71572900000001
 20
11.695344999999991
 30
0.0
 40
2.5048169999999992
  0
CIRCLE
  5
222
  8
DETAIL
  6
CONTINUOUS
 62
     5
 10
-54.201278000000002
 20
11.695344999999991
 30
0.0
 40
2.5048169999999992
  0
LINE
  5
223
  8
DETAIL
  6
CONTINUOUS
 62
     5
 10
52.0
 20
48.5
 30
0.0
 11
52.0
 21
-48.5
 31
0.0
  0
LINE
  5
224
  8
SIZE
  6
CONTINUOUS
 62
    30
 10
71.0
 20
48.5
 30
0.0
 11
244.52105499999999
 21
48.5
 31
0.0
  0
LINE
  5
225
  8
SIZE
  6
CONTINUOUS
 62
    30
 10
71.0
 20
-48.5
 30
0.0
 11
244.52105499999999
 21
-48.5
 31
0.0
  0
LINE
  5
226
  8
SIZE
  6
CONTINUOUS
 62
    30
 10
224.5210549999999
 20
36.5
 30
0.0
 11
224.5210549999999
 21
-36.5
 31
0.0
  0
LINE
  5
227
  8
SIZE
  6
CONTINUOUS
 62
    30
 10
224.5210549999999
 20
-264.19017799999989
 30
0.0
 11
224.5210549999999
 21
-48.5
 31
0.0
  0
TEXT
  5
228
  8
SIZE
  6
CONTINUOUS
 62
    30
 10
199.5210549999999
 20
-253.45303542857121
 30
0.0
 40
64.0
  1
φ97
 50
90.0
 41
0.9
 72
     1
 11
199.5210549999999
 21
-166.50446399999981
 31
0.0
  0
CIRCLE
  5
229
  8
SIZE
  6
CONTINUOUS
 62
    30
 10
224.5210549999999
 20
48.5
 30
0.0
 40
6.0
  0
LINE
  5
22A
  8
SIZE
  6
CONTINUOUS
 62
    30
 10
224.5210549999999
 20
48.5
 30
0.0
 11
224.5210549999999
 21
36.5
 31
0.0
  0
CIRCLE
  5
22B
  8
SIZE
  6
CONTINUOUS
 62
    30
 10
224.5210549999999
 20
-48.5
 30
0.0
 40
6.0
  0
LINE
  5
22C
  8
SIZE
  6
CONTINUOUS
 62
    30
 10
224.5210549999999
 20
-48.5
 30
0.0
 11
224.5210549999999
 21
-36.5
 31
0.0
  0
POINT
  5
22D
  8
DEFPOINTS
  6
CONTINUOUS
 62
    30
 10
51.0
 20
48.5
 30
0.0
  0
POINT
  5
22E
  8
DEFPOINTS
  6
CONTINUOUS
 62
    30
 10
51.0
 20
-48.5
 30
0.0
  0
POINT
  5
22F
  8
DEFPOINTS
  6
CONTINUOUS
 62
    30
 10
224.5210549999999
 20
-48.5
 30
0.0
  0
LINE
  5
230
  8
SIZE
  6
CONTINUOUS
 62
    30
 10
0.0
 20
-107.0
 30
0.0
 11
0.0
 21
-272.89504599999992
 31
0.0
  0
LINE
  5
231
  8
SIZE
  6
CONTINUOUS
 62
    30
 10
-18.0
 20
-109.0
 30
0.0
 11
-18.0
 21
-272.89504599999992
 31
0.0
  0
LINE
  5
232
  8
SIZE
  6
CONTINUOUS
 62
    30
 10
12.0
 20
-252.89504600000001
 30
0.0
 11
24.0
 21
-252.89504600000001
 31
0.0
  0
LINE
  5
233
  8
SIZE
  6
CONTINUOUS
 62
    30
 10
-30.0
 20
-252.89504600000001
 30
0.0
 11
-42.0
 21
-252.89504600000001
 31
0.0
  0
LINE
  5
234
  8
SIZE
  6
CONTINUOUS
 62
    30
 10
-180.5147639999999
 20
-252.89504600000001
 30
0.0
 11
-18.0
 21
-252.89504600000001
 31
0.0
  0
TEXT
  5
235
  8
SIZE
  6
CONTINUOUS
 62
    30
 10
-155.51476414285699
 20
-227.89504600000001
 30
0.0
 40
64.0
  1
18
 41
0.9
 72
     1
 11
-114.37190699999979
 21
-227.89504600000001
 31
0.0
  0
LINE
  5
236
  8
SIZE
  6
CONTINUOUS
 62
    30
 10
0.0
 20
-252.89504600000001
 30
0.0
 11
-18.0
 21
-252.89504600000001
 31
0.0
  0
LINE
  5
237
  8
SIZE
  6
CONTINUOUS
 62
    30
 10
0.0
 20
-252.89504600000001
 30
0.0
 11
-18.0
 21
-252.89504600000001
 31
0.0
  0
CIRCLE
  5
238
  8
SIZE
  6
CONTINUOUS
 62
    30
 10
0.0
 20
-252.89504600000001
 30
0.0
 40
6.0
  0
LINE
  5
239
  8
SIZE
  6
CONTINUOUS
 62
    30
 10
0.0
 20
-252.89504600000001
 30
0.0
 11
12.0
 21
-252.89504600000001
 31
0.0
  0
CIRCLE
  5
23A
  8
SIZE
  6
CONTINUOUS
 62
    30
 10
-18.0
 20
-252.89504600000001
 30
0.0
 40
6.0
  0
LINE
  5
23B
  8
SIZE
  6
CONTINUOUS
 62
    30
 10
-18.0
 20
-252.89504600000001
 30
0.0
 11
-30.0
 21
-252.89504600000001
 31
0.0
  0
POINT
  5
23C
  8
DEFPOINTS
  6
CONTINUOUS
 62
    30
 10
0.0
 20
-87.0
 30
0.0
  0
POINT
  5
23D
  8
DEFPOINTS
  6
CONTINUOUS
 62
    30
 10
-18.0
 20
-89.0
 30
0.0
  0
POINT
  5
23E
  8
DEFPOINTS
  6
CONTINUOUS
 62
    30
 10
-18.0
 20
-252.89504600000001
 30
0.0
  0
LINE
  5
23F
  8
SIZE
  6
CONTINUOUS
 62
    30
 10
52.0
 20
68.5
 30
0.0
 11
52.0
 21
313.51944199999991
 31
0.0
  0
LINE
  5
240
  8
SIZE
  6
CONTINUOUS
 62
    30
 10
0.0
 20
101.0
 30
0.0
 11
0.0
 21
313.51944199999991
 31
0.0
  0
LINE
  5
242
  8
SIZE
  6
CONTINUOUS
 62
    30
 10
-12.0
 20
293.51944199999991
 30
0.0
 11
-24.0
 21
293.51944199999991
 31
0.0
  0
TEXT
  5
243
  8
SIZE
  6
CONTINUOUS
 62
    30
 10
79.136285333789928
 20
318.51944199999991
 30
0.0
 40
64.0
  1
52
 41
0.9
 72
     1
 11
125.7648567623613
 21
318.51944199999991
 31
0.0
  0
LINE
  5
244
  8
SIZE
  6
CONTINUOUS
 62
    30
 10
51.0
 20
293.51944199999991
 30
0.0
 11
0.0
 21
293.51944199999991
 31
0.0
  0
LINE
  5
245
  8
SIZE
  6
CONTINUOUS
 62
    30
 10
174.78667257478631
 20
293.51944199999991
 30
0.0
 11
0.0
 21
293.51944199999991
 31
0.0
  0
CIRCLE
  5
246
  8
SIZE
  6
CONTINUOUS
 62
    30
 10
52.0
 20
293.51944199999991
 30
0.0
 40
6.0
  0
CIRCLE
  5
248
  8
SIZE
  6
CONTINUOUS
 62
    30
 10
0.0
 20
293.51944199999991
 30
0.0
 40
6.0
  0
LINE
  5
249
  8
SIZE
  6
CONTINUOUS
 62
    30
 10
0.0
 20
293.51944199999991
 30
0.0
 11
-12.0
 21
293.51944199999991
 31
0.0
  0
POINT
  5
24A
  8
DEFPOINTS
  6
CONTINUOUS
 62
    30
 10
51.0
 20
48.5
 30
0.0
  0
POINT
  5
24B
  8
DEFPOINTS
  6
CONTINUOUS
 62
    30
 10
0.0
 20
81.0
 30
0.0
  0
POINT
  5
24C
  8
DEFPOINTS
  6
CONTINUOUS
 62
    30
 10
0.0
 20
293.51944199999991
 30
0.0
  0
ARC
  5
24D
  8
DETAIL
  6
CONTINUOUS
 62
     5
 10
-16.021958999999988
 20
-2.5023779999999971
 30
0.0
 40
60.030219999999993
 50
142.12972500000001
 51
268.11171899999999
  0
LINE
  5
24E
  8
SIZE
  6
CONTINUOUS
 62
    30
 10
0.0
 20
101.0
 30
0.0
 11
0.0
 21
313.51944199999991
 31
0.0
  0
LINE
  5
24F
  8
SIZE
  6
CONTINUOUS
 62
    30
 10
-76.0
 20
20.0
 30
0.0
 11
-76.0
 21
313.51944199999991
 31
0.0
  0
LINE
  5
250
  8
SIZE
  6
CONTINUOUS
 62
    30
 10
-12.0
 20
293.51944199999991
 30
0.0
 11
-64.0
 21
293.51944199999991
 31
0.0
  0
LINE
  5
251
  8
SIZE
  6
CONTINUOUS
 62
    30
 10
-230.3731149999999
 20
293.51944199999991
 30
0.0
 11
-76.0
 21
293.51944199999991
 31
0.0
  0
TEXT
  5
252
  8
SIZE
  6
CONTINUOUS
 62
    30
 10
-184.15319250056879
 20
318.51944199999991
 30
0.0
 40
64.0
  1
76
 41
0.9
 72
     1
 11
-138.89604964342601
 21
318.51944199999991
 31
0.0
  0
CIRCLE
  5
253
  8
SIZE
  6
CONTINUOUS
 62
    30
 10
0.0
 20
293.51944199999991
 30
0.0
 40
6.0
  0
CIRCLE
  5
255
  8
SIZE
  6
CONTINUOUS
 62
    30
 10
-76.0
 20
293.51944199999991
 30
0.0
 40
6.0
  0
LINE
  5
256
  8
SIZE
  6
CONTINUOUS
 62
    30
 10
-76.0
 20
293.51944199999991
 30
0.0
 11
-64.0
 21
293.51944199999991
 31
0.0
  0
POINT
  5
257
  8
DEFPOINTS
  6
CONTINUOUS
 62
    30
 10
0.0
 20
81.0
 30
0.0
  0
POINT
  5
258
  8
DEFPOINTS
  6
CONTINUOUS
 62
    30
 10
-76.0
 20
0.0
 30
0.0
  0
POINT
  5
259
  8
DEFPOINTS
  6
CONTINUOUS
 62
    30
 10
-76.0
 20
293.51944199999991
 30
0.0
  0
LINE
  5
25A
  8
SIZE
  6
CONTINUOUS
 62
    30
 10
0.0
 20
101.0
 30
0.0
 11
0.0
 21
187.990871
 31
0.0
  0
LINE
  5
25B
  8
SIZE
  6
CONTINUOUS
 62
    30
 10
-13.0
 20
103.0
 30
0.0
 11
-13.0
 21
187.990871
 31
0.0
  0
LINE
  5
25C
  8
SIZE
  6
CONTINUOUS
 62
    30
 10
12.0
 20
167.990871
 30
0.0
 11
24.0
 21
167.990871
 31
0.0
  0
LINE
  5
25D
  8
SIZE
  6
CONTINUOUS
 62
    30
 10
-25.0
 20
167.990871
 30
0.0
 11
-37.0
 21
167.990871
 31
0.0
  0
LINE
  5
25E
  8
SIZE
  6
CONTINUOUS
 62
    30
 10
-203.7466949999999
 20
167.990871
 30
0.0
 11
-13.0
 21
167.990871
 31
0.0
  0
TEXT
  5
25F
  8
SIZE
  6
CONTINUOUS
 62
    30
 10
-178.74669514285711
 20
192.990871
 30
0.0
 40
64.0
  1
13
 41
0.9
 72
     1
 11
-137.603838
 21
192.990871
 31
0.0
  0
LINE
  5
260
  8
SIZE
  6
CONTINUOUS
 62
    30
 10
0.0
 20
167.990871
 30
0.0
 11
-13.0
 21
167.990871
 31
0.0
  0
LINE
  5
261
  8
SIZE
  6
CONTINUOUS
 62
    30
 10
0.0
 20
167.990871
 30
0.0
 11
-13.0
 21
167.990871
 31
0.0
  0
CIRCLE
  5
262
  8
SIZE
  6
CONTINUOUS
 62
    30
 10
0.0
 20
167.990871
 30
0.0
 40
6.0
  0
LINE
  5
263
  8
SIZE
  6
CONTINUOUS
 62
    30
 10
0.0
 20
167.990871
 30
0.0
 11
12.0
 21
167.990871
 31
0.0
  0
CIRCLE
  5
264
  8
SIZE
  6
CONTINUOUS
 62
    30
 10
-13.0
 20
167.990871
 30
0.0
 40
6.0
  0
LINE
  5
265
  8
SIZE
  6
CONTINUOUS
 62
    30
 10
-13.0
 20
167.990871
 30
0.0
 11
-25.0
 21
167.990871
 31
0.0
  0
POINT
  5
266
  8
DEFPOINTS
  6
CONTINUOUS
 62
    30
 10
0.0
 20
81.0
 30
0.0
  0
POINT
  5
267
  8
DEFPOINTS
  6
CONTINUOUS
 62
    30
 10
-13.0
 20
83.0
 30
0.0
  0
POINT
  5
268
  8
DEFPOINTS
  6
CONTINUOUS
 62
    30
 10
-13.0
 20
167.990871
 30
0.0
  0
LINE
  5
269
  8
SIZE
  6
CONTINUOUS
 62
    30
 10
-138.34030200000001
 20
0.0
 30
0.0
 11
-284.39255299999991
 21
0.0
 31
0.0
  0
LINE
  5
26A
  8
SIZE
  6
CONTINUOUS
 62
    30
 10
-38.0
 20
-89.0
 30
0.0
 11
-284.39255299999991
 21
-89.0
 31
0.0
  0
LINE
  5
26B
  8
SIZE
  6
CONTINUOUS
 62
    30
 10
-264.39255299999991
 20
-12.0
 30
0.0
 11
-264.39255299999991
 21
-77.0
 31
0.0
  0
LINE
  5
26C
  8
SIZE
  6
CONTINUOUS
 62
    30
 10
-264.39255299999991
 20
-244.77533099999991
 30
0.0
 11
-264.39255299999991
 21
-89.0
 31
0.0
  0
TEXT
  5
26D
  8
SIZE
  6
CONTINUOUS
 62
    30
 10
-289.39255299999991
 20
-219.77533085714279
 30
0.0
 40
64.0
  1
89
 50
90.0
 41
0.9
 72
     1
 11
-289.39255299999991
 21
-174.5181879999999
 31
0.0
  0
CIRCLE
  5
26E
  8
SIZE
  6
CONTINUOUS
 62
    30
 10
-264.39255299999991
 20
0.0
 30
0.0
 40
6.0
  0
LINE
  5
26F
  8
SIZE
  6
CONTINUOUS
 62
    30
 10
-264.39255299999991
 20
0.0
 30
0.0
 11
-264.39255299999991
 21
-12.0
 31
0.0
  0
CIRCLE
  5
270
  8
SIZE
  6
CONTINUOUS
 62
    30
 10
-264.39255299999991
 20
-89.0
 30
0.0
 40
6.0
  0
LINE
  5
271
  8
SIZE
  6
CONTINUOUS
 62
    30
 10
-264.39255299999991
 20
-89.0
 30
0.0
 11
-264.39255299999991
 21
-77.0
 31
0.0
  0
POINT
  5
272
  8
DEFPOINTS
  6
CONTINUOUS
 62
    30
 10
-118.3403019999998
 20
0.0
 30
0.0
  0
POINT
  5
273
  8
DEFPOINTS
  6
CONTINUOUS
 62
    30
 10
-18.0
 20
-89.0
 30
0.0
  0
POINT
  5
274
  8
DEFPOINTS
  6
CONTINUOUS
 62
    30
 10
-264.39255299999991
 20
-89.0
 30
0.0
  0
LINE
  5
275
  8
SIZE
  6
CONTINUOUS
 62
    30
 10
-138.34030200000001
 20
0.0
 30
0.0
 11
-284.39255299999991
 21
0.0
 31
0.0
  0
LINE
  5
276
  8
SIZE
  6
CONTINUOUS
 62
    30
 10
-33.0
 20
83.0
 30
0.0
 11
-284.39255299999991
 21
83.0
 31
0.0
  0
LINE
  5
277
  8
SIZE
  6
CONTINUOUS
 62
    30
 10
-264.39255299999991
 20
12.0
 30
0.0
 11
-264.39255299999991
 21
71.0
 31
0.0
  0
LINE
  5
278
  8
SIZE
  6
CONTINUOUS
 62
    30
 10
-264.39255299999991
 20
242.44729000000001
 30
0.0
 11
-264.39255299999991
 21
83.0
 31
0.0
  0
TEXT
  5
279
  8
SIZE
  6
CONTINUOUS
 62
    30
 10
-289.39255299999991
 20
124.1901465714285
 30
0.0
 40
64.0
  1
83
 50
90.0
 41
0.9
 72
     1
 11
-289.39255299999991
 21
170.8187179999999
 31
0.0
  0
CIRCLE
  5
27A
  8
SIZE
  6
CONTINUOUS
 62
    30
 10
-264.39255299999991
 20
0.0
 30
0.0
 40
6.0
  0
LINE
  5
27B
  8
SIZE
  6
CONTINUOUS
 62
    30
 10
-264.39255299999991
 20
0.0
 30
0.0
 11
-264.39255299999991
 21
12.0
 31
0.0
  0
CIRCLE
  5
27C
  8
SIZE
  6
CONTINUOUS
 62
    30
 10
-264.39255299999991
 20
83.0
 30
0.0
 40
6.0
  0
LINE
  5
27D
  8
SIZE
  6
CONTINUOUS
 62
    30
 10
-264.39255299999991
 20
83.0
 30
0.0
 11
-264.39255299999991
 21
71.0
 31
0.0
  0
POINT
  5
27E
  8
DEFPOINTS
  6
CONTINUOUS
 62
    30
 10
-118.3403019999998
 20
0.0
 30
0.0
  0
POINT
  5
27F
  8
DEFPOINTS
  6
CONTINUOUS
 62
    30
 10
-13.0
 20
83.0
 30
0.0
  0
POINT
  5
280
  8
DEFPOINTS
  6
CONTINUOUS
 62
    30
 10
-264.39255299999991
 20
83.0
 30
0.0
  0
ARC
  5
281
  8
OUTLINE
  6
CONTINUOUS
 62
     3
 10
-2.0
 20
-87.0
 30
0.0
 40
2.0
 50
270.0
 51
0.0
  0
ARC
  5
282
  8
OUTLINE
  6
CONTINUOUS
 62
     3
 10
-2.0
 20
81.0
 30
0.0
 40
2.0
 50
0.0
 51
90.0
  0
LINE
  5
283
  8
OUTLINE
  6
CONTINUOUS
 62
     3
 10
0.0
 20
-48.5
 30
0.0
 11
52.0
 21
-48.5
 31
0.0
  0
LINE
  5
284
  8
OUTLINE
  6
CONTINUOUS
 62
     3
 10
0.0
 20
48.5
 30
0.0
 11
52.0
 21
48.5
 31
0.0
  0
ARC
  5
285
  8
OUTLINE
  6
CONTINUOUS
 62
     3
 10
-16.021958999999988
 20
-2.5023779999999971
 30
0.0
 40
60.030219999999993
 50
142.12972500000001
 51
268.11171899999999
  0
LINE
  5
286
  8
OUTLINE
  6
CONTINUOUS
 62
     3
 10
-13.0
 20
-3.9261099999999991
 30
0.0
 11
-16.628889000000001
 21
1.5686209999999969
 31
0.0
  0
LINE
  5
287
  8
OUTLINE
  6
CONTINUOUS
 62
     3
 10
0.0
 20
81.0
 30
0.0
 11
0.0
 21
-87.0
 31
0.0
  0
LINE
  5
288
  8
OUTLINE
  6
CONTINUOUS
 62
     3
 10
-13.0
 20
83.0
 30
0.0
 11
-13.0
 21
-4.0245360000000003
 31
0.0
  0
LINE
  5
289
  8
OUTLINE
  6
CONTINUOUS
 62
     3
 10
-18.0
 20
-4.7221339999999987
 30
0.0
 11
-18.0
 21
-89.0
 31
0.0
  0
LINE
  5
28A
  8
OUTLINE
  6
CONTINUOUS
 62
     3
 10
-2.0
 20
-89.0
 30
0.0
 11
-18.0
 21
-89.0
 31
0.0
  0
LINE
  5
28B
  8
OUTLINE
  6
CONTINUOUS
 62
     3
 10
0.0
 20
-2.210782
 30
0.0
 11
-18.0
 21
-4.7221339999999987
 31
0.0
  0
LINE
  5
28C
  8
OUTLINE
  6
CONTINUOUS
 62
     3
 10
-19.342392999999991
 20
4.3216260000000002
 30
0.0
 11
-65.062760999999995
 21
35.474905
 31
0.0
  0
ARC
  5
28D
  8
OUTLINE
  6
CONTINUOUS
 62
     3
 10
-13.0
 20
0.0
 30
0.0
 40
63.0
 50
97.223371999999998
 51
145.7299789999999
  0
LINE
  5
28E
  8
OUTLINE
  6
CONTINUOUS
 62
     3
 10
-13.0
 20
4.404827
 30
0.0
 11
0.0
 21
2.210782
 31
0.0
  0
ARC
  5
28F
  8
OUTLINE
  6
CONTINUOUS
 62
     3
 10
-24.973331000000002
 20
-3.942304
 30
0.0
 40
10.0
 50
33.441997000000001
 51
55.729979
  0
LINE
  5
290
  8
OUTLINE
  6
CONTINUOUS
 62
     3
 10
-13.0
 20
62.5
 30
0.0
 11
-20.921489999999999
 21
62.5
 31
0.0
  0
LINE
  5
291
  8
OUTLINE
  6
CONTINUOUS
 62
     3
 10
-2.0
 20
83.0
 30
0.0
 11
-13.0
 21
83.0
 31
0.0
  0
LINE
  5
292
  8
OUTLINE
  6
CONTINUOUS
 62
     3
 10
52.0
 20
48.5
 30
0.0
 11
52.0
 21
-48.5
 31
0.0
  0
TEXT
  5
293
  8
ETC
  6
CONTINUOUS
 62
    61
 10
320.11878872621401
 20
140.35606556219651
 30
0.0
 40
50.0
  1
P-13DFSQD2-BL
 41
0.9
  0
TEXT
  5
294
  8
ETC
  6
CONTINUOUS
 62
    61
 10
249.7079537262141
 20
442.84768656219649
 30
0.0
 40
64.0
  1
P-13DFSD2-BL_4
 41
0.9
  0
TEXT
  5
295
  8
ETC
  6
CONTINUOUS
 62
    61
 10
320.11878872621401
 20
237.6924795621965
 30
0.0
 40
50.0
  1
P-13DFSD2-BL
 41
0.9
  0
TEXT
  5
296
  8
ETC
  6
CONTINUOUS
 62
    61
 10
238.108029726214
 20
346.28731256219629
 30
0.0
 40
64.0
  1
システム部材
 41
0.9
  0
ENDSEC
  0
EOF
