  0
SECTION
  2
HEADER
  9
$ACADVER
  1
AC1009
  9
$INSBASE
 10
0.0
 20
0.0
 30
0.0
  9
$EXTMIN
 10
-238.4805879999999
 20
-272.89504599999992
 30
0.0
  9
$EXTMAX
 10
1172.0391644694801
 20
534.28513571093845
 30
50.0
  9
$LIMMIN
 10
-2970.0
 20
-2100.0
  9
$LIMMAX
 10
2970.0
 20
2100.0
  9
$ORTHOMODE
 70
     1
  9
$REGENMODE
 70
     0
  9
$FILLMODE
 70
     1
  9
$QTEXTMODE
 70
     0
  9
$MIRRTEXT
 70
     0
  9
$DRAGMODE
 70
     2
  9
$LTSCALE
 40
20.0
  9
$OSMODE
 70
    37
  9
$ATTMODE
 70
     1
  9
$TEXTSIZE
 40
64.0
  9
$TRACEWID
 40
0.05
  9
$TEXTSTYLE
  7
STANDARD
  9
$CLAYER
  8
SIZE
  9
$CELTYPE
  6
CONTINUOUS
  9
$CECOLOR
 62
    30
  9
$DIMSCALE
 40
1.0
  9
$DIMASZ
 40
12.0
  9
$DIMEXO
 40
20.0
  9
$DIMDLI
 40
200.0
  9
$DIMRND
 40
0.0
  9
$DIMDLE
 40
0.0
  9
$DIMEXE
 40
20.0
  9
$DIMTP
 40
0.0
  9
$DIMTM
 40
0.0
  9
$DIMTXT
 40
64.0
  9
$DIMCEN
 40
0.09
  9
$DIMTSZ
 40
0.0
  9
$DIMTOL
 70
     0
  9
$DIMLIM
 70
     0
  9
$DIMTIH
 70
     0
  9
$DIMTOH
 70
     0
  9
$DIMSE1
 70
     0
  9
$DIMSE2
 70
     0
  9
$DIMTAD
 70
     1
  9
$DIMZIN
 70
     8
  9
$DIMBLK
  1
DOT1
  9
$DIMASO
 70
     1
  9
$DIMSHO
 70
     0
  9
$DIMPOST
  1

  9
$DIMAPOST
  1

  9
$DIMALT
 70
     0
  9
$DIMALTD
 70
     2
  9
$DIMALTF
 40
25.399999999999999
  9
$DIMLFAC
 40
1.0
  9
$DIMTOFL
 70
     1
  9
$DIMTVP
 40
0.0
  9
$DIMTIX
 70
     1
  9
$DIMSOXD
 70
     0
  9
$DIMSAH
 70
     1
  9
$DIMBLK1
  1
ORIGIN
  9
$DIMBLK2
  1
ORIGIN
  9
$DIMSTYLE
  2
STANDARD
  9
$DIMCLRD
 70
     7
  9
$DIMCLRE
 70
     7
  9
$DIMCLRT
 70
     7
  9
$DIMTFAC
 40
1.0
  9
$DIMGAP
 40
25.0
  9
$LUNITS
 70
     2
  9
$LUPREC
 70
     4
  9
$SKETCHINC
 40
0.1
  9
$FILLETRAD
 40
4.0
  9
$AUNITS
 70
     1
  9
$AUPREC
 70
     3
  9
$MENU
  1
ACAD
  9
$ELEVATION
 40
0.0
  9
$PELEVATION
 40
0.0
  9
$THICKNESS
 40
50.0
  9
$LIMCHECK
 70
     0
  9
$BLIPMODE
 70
     0
  9
$CHAMFERA
 40
0.0
  9
$CHAMFERB
 40
0.0
  9
$SKPOLY
 70
     0
  9
$TDCREATE
 40
2453018.6165077891
  9
$TDUPDATE
 40
2454809.6412871638
  9
$TDINDWG
 40
0.0467703472
  9
$TDUSRTIMER
 40
0.046770162
  9
$USRTIMER
 70
     1
  9
$ANGBASE
 50
0.0
  9
$ANGDIR
 70
     0
  9
$PDMODE
 70
     3
  9
$PDSIZE
 40
-2.0
  9
$PLINEWID
 40
0.0
  9
$COORDS
 70
     0
  9
$SPLFRAME
 70
     0
  9
$SPLINETYPE
 70
     6
  9
$SPLINESEGS
 70
     8
  9
$ATTDIA
 70
     0
  9
$ATTREQ
 70
     1
  9
$HANDLING
 70
     1
  9
$HANDSEED
  5
3AA
  9
$SURFTAB1
 70
     6
  9
$SURFTAB2
 70
     6
  9
$SURFTYPE
 70
     6
  9
$SURFU
 70
     6
  9
$SURFV
 70
     6
  9
$UCSNAME
  2

  9
$UCSORG
 10
0.0
 20
0.0
 30
0.0
  9
$UCSXDIR
 10
1.0
 20
0.0
 30
0.0
  9
$UCSYDIR
 10
0.0
 20
1.0
 30
0.0
  9
$PUCSNAME
  2

  9
$PUCSORG
 10
0.0
 20
0.0
 30
0.0
  9
$PUCSXDIR
 10
1.0
 20
0.0
 30
0.0
  9
$PUCSYDIR
 10
0.0
 20
1.0
 30
0.0
  9
$USERI1
 70
     0
  9
$USERI2
 70
     0
  9
$USERI3
 70
     0
  9
$USERI4
 70
     0
  9
$USERI5
 70
     0
  9
$USERR1
 40
20.0
  9
$USERR2
 40
0.0
  9
$USERR3
 40
0.0
  9
$USERR4
 40
0.0
  9
$USERR5
 40
0.0
  9
$WORLDVIEW
 70
     1
  9
$SHADEDGE
 70
     3
  9
$SHADEDIF
 70
    70
  9
$TILEMODE
 70
     1
  9
$MAXACTVP
 70
    48
  9
$PLIMCHECK
 70
     0
  9
$PEXTMIN
 10
-1.0000000000000000E+020
 20
-1.0000000000000000E+020
 30
-1.0000000000000000E+020
  9
$PEXTMAX
 10
1.0000000000000000E+020
 20
1.0000000000000000E+020
 30
1.0000000000000000E+020
  9
$PLIMMIN
 10
0.0
 20
0.0
  9
$PLIMMAX
 10
12.0
 20
9.0
  9
$UNITMODE
 70
     0
  9
$VISRETAIN
 70
     0
  9
$PLINEGEN
 70
     0
  9
$PSLTSCALE
 70
     0
  0
ENDSEC
  0
SECTION
  2
TABLES
  0
TABLE
  2
VPORT
 70
     1
  0
VPORT
  2
*ACTIVE
 70
     0
 10
0.0
 20
0.0
 11
1.0
 21
1.0
 12
376.04625242936402
 22
110.29411780681581
 13
0.0
 23
0.0
 14
1.0
 24
1.0
 15
0.0
 25
0.0
 16
0.0
 26
0.0
 36
1.0
 17
0.0
 27
0.0
 37
0.0
 40
1281.424041144387
 41
1.3098995695839311
 42
50.0
 43
0.0
 44
0.0
 50
0.0
 51
0.0
 71
     0
 72
  1000
 73
     1
 74
     0
 75
     0
 76
     0
 77
     0
 78
     0
  0
ENDTAB
  0
TABLE
  2
LTYPE
 70
     3
  0
LTYPE
  2
CONTINUOUS
 70
     0
  3
実線
 72
    65
 73
     0
 40
0.0
  0
LTYPE
  2
DASHDOT
 70
     0
  3
____ _ ____ _ ____ _ ____ _ ____ _ ____ _ ____
 72
    65
 73
     4
 40
5.5
 49
4.0
 49
-0.6
 49
0.3
 49
-0.6
  0
ENDTAB
  0
TABLE
  2
LAYER
 70
    12
  0
LAYER
  2
0
 70
     0
 62
     7
  6
CONTINUOUS
  0
LAYER
  2
SIZE
 70
     0
 62
    30
  6
CONTINUOUS
  0
LAYER
  2
BASIS
 70
     0
 62
     6
  6
DASHDOT
  0
LAYER
  2
OUTLINE
 70
     0
 62
     3
  6
CONTINUOUS
  0
LAYER
  2
DETAIL
 70
     0
 62
     5
  6
CONTINUOUS
  0
LAYER
  2
ARRANGE
 70
     0
 62
     1
  6
CONTINUOUS
  0
LAYER
  2
DEFPOINTS
 70
     0
 62
     7
  6
CONTINUOUS
  0
LAYER
  2
ETC
 70
     0
 62
    61
  6
CONTINUOUS
  0
LAYER
  2
FIX
 70
     0
 62
    11
  6
CONTINUOUS
  0
LAYER
  2
NOTE
 70
     0
 62
     4
  6
CONTINUOUS
  0
LAYER
  2
SERVICESPACE
 70
     0
 62
     2
  6
DASHDOT
  0
LAYER
  2
SYMBOLLINE
 70
     0
 62
    15
  6
CONTINUOUS
  0
ENDTAB
  0
TABLE
  2
STYLE
 70
     2
  0
STYLE
  2
STANDARD
 70
     0
 40
64.0
 41
0.9
 50
0.0
 71
     0
 42
64.0
  3
SIMPLEX.shx
  4
BIGFONT.shx
  0
STYLE
  2
ANNOTATIVE
 70
     0
 40
0.0
 41
1.0
 50
0.0
 71
     0
 42
0.2
  3
txt
  4

  0
ENDTAB
  0
TABLE
  2
VIEW
 70
     1
  0
VIEW
  2
ALL
 70
     0
 40
4282.6198079999967
 10
0.0
 20
41.309903999999989
 41
5940.0
 11
0.0
 21
0.0
 31
1.0
 12
0.0
 22
0.0
 32
0.0
 42
50.0
 43
0.0
 44
0.0
 50
0.0
 71
     0
  0
ENDTAB
  0
TABLE
  2
UCS
 70
     0
  0
ENDTAB
  0
TABLE
  2
APPID
 70
     5
  0
APPID
  2
ACAD
 70
     0
  0
APPID
  2
ACADANNOTATIVE
 70
     0
  0
APPID
  2
ACAD_MLEADERVER
 70
     0
  0
APPID
  2
AUTOCAD_POSTSCRIPT_FIGURE
 70
     0
  0
APPID
  2
ACAD_EXEMPT_FROM_CAD_STANDARDS
 70
     0
  0
ENDTAB
  0
TABLE
  2
DIMSTYLE
 70
     3
  0
DIMSTYLE
  2
STANDARD
 70
     0
  3

  4

  5

  6

  7

 40
1.0
 41
0.18
 42
0.0625
 43
0.38
 44
0.18
 45
0.0
 46
0.0
 47
0.0
 48
0.0
140
0.18
141
0.09
142
0.0
143
25.399999999999999
144
1.0
145
0.0
146
1.0
147
0.09
 71
     0
 72
     0
 73
     1
 74
     1
 75
     0
 76
     0
 77
     0
 78
     0
170
     0
171
     2
172
     0
173
     0
174
     0
175
     0
176
     7
177
     7
178
     7
  0
DIMSTYLE
  2
ANNOTATIVE
 70
     0
  3

  4

  5

  6

  7

 40
1.0
 41
0.18
 42
0.0625
 43
0.38
 44
0.18
 45
0.0
 46
0.0
 47
0.0
 48
0.0
140
0.18
141
0.09
142
0.0
143
25.399999999999999
144
1.0
145
0.0
146
1.0
147
0.09
 71
     0
 72
     0
 73
     1
 74
     1
 75
     0
 76
     0
 77
     0
 78
     0
170
     0
171
     2
172
     0
173
     0
174
     0
175
     0
176
     0
177
     0
178
     0
  0
ENDTAB
  0
ENDSEC
  0
SECTION
  2
BLOCKS
  0
BLOCK
  8
0
  2
$MODEL_SPACE
 70
     0
 10
0.0
 20
0.0
 30
0.0
  3
$MODEL_SPACE
  1

  0
ENDBLK
  5
34C
  8
0
  0
BLOCK
 67
     1
  8
0
  2
$PAPER_SPACE
 70
     0
 10
0.0
 20
0.0
 30
0.0
  3
$PAPER_SPACE
  1

  0
ENDBLK
  5
348
 67
     1
  8
0
  0
BLOCK
  8
0
  2
DOT1
 70
     0
 10
0.0
 20
0.0
 30
0.0
  3
DOT1
  1

  0
CIRCLE
  5
1AA
  8
SIZE
  6
CONTINUOUS
 62
     7
 10
0.0
 20
0.0
 30
0.0
 40
3.0
  0
ENDBLK
  5
1AB
  8
0
  0
BLOCK
  8
0
  2
_ORIGIN
 70
     0
 10
0.0
 20
0.0
 30
0.0
  3
_ORIGIN
  1

  0
CIRCLE
  5
1AE
  8
0
  6
CONTINUOUS
 62
     7
 10
0.0
 20
0.0
 30
0.0
 40
0.5
  0
LINE
  5
1AF
  8
0
  6
CONTINUOUS
 62
     7
 10
0.0
 20
0.0
 30
0.0
 11
-1.0
 21
0.0
 31
0.0
  0
ENDBLK
  5
1B0
  8
0
  0
ENDSEC
  0
SECTION
  2
ENTITIES
  0
LINE
  5
1B1
  8
DETAIL
  6
CONTINUOUS
 62
     5
 10
0.0
 20
48.5
 30
0.0
 11
-52.0
 21
48.5
 31
0.0
  0
LINE
  5
1B2
  8
DETAIL
  6
CONTINUOUS
 62
     5
 10
0.0
 20
-48.5
 30
0.0
 11
-52.0
 21
-48.5
 31
0.0
  0
LINE
  5
1B3
  8
BASIS
  6
DASHDOT
 62
     6
 10
-86.672202999999982
 20
0.0
 30
0.0
 11
118.3403019999998
 21
0.0
 31
0.0
  0
LINE
  5
1B4
  8
DETAIL
  6
CONTINUOUS
 62
     5
 10
13.0
 20
62.5
 30
0.0
 11
20.921489999999999
 21
62.5
 31
0.0
  0
ARC
  5
1B5
  8
DETAIL
  6
CONTINUOUS
 62
     5
 10
13.0
 20
0.0
 30
0.0
 40
63.0
 50
34.270021
 51
82.776627999999988
  0
LINE
  5
1B6
  8
DETAIL
  6
CONTINUOUS
 62
     5
 10
13.0
 20
83.0
 30
0.0
 11
13.0
 21
-4.0245360000000003
 31
0.0
  0
LINE
  5
1B7
  8
DETAIL
  6
CONTINUOUS
 62
     5
 10
2.0
 20
83.0
 30
0.0
 11
13.0
 21
83.0
 31
0.0
  0
LINE
  5
1B8
  8
DETAIL
  6
CONTINUOUS
 62
     5
 10
2.0
 20
-89.0
 30
0.0
 11
18.0
 21
-89.0
 31
0.0
  0
LINE
  5
1B9
  8
DETAIL
  6
CONTINUOUS
 62
     5
 10
0.0
 20
81.0
 30
0.0
 11
0.0
 21
-87.0
 31
0.0
  0
ARC
  5
1BA
  8
DETAIL
  6
CONTINUOUS
 62
     5
 10
2.0
 20
81.0
 30
0.0
 40
2.0
 50
90.0
 51
180.0
  0
ARC
  5
1BB
  8
DETAIL
  6
CONTINUOUS
 62
     5
 10
2.0
 20
-87.0
 30
0.0
 40
2.0
 50
180.0
 51
270.0
  0
CIRCLE
  5
1BC
  8
ARRANGE
  6
CONTINUOUS
 62
     1
 39
50.0
 10
0.0
 20
0.0
 30
0.0
 40
40.0
  0
POINT
  5
1BD
  8
ARRANGE
  6
CONTINUOUS
 62
     1
 10
0.0
 20
0.0
 30
0.0
 39
50.0
  0
LINE
  5
1BE
  8
DETAIL
  6
CONTINUOUS
 62
     5
 10
19.342392999999991
 20
4.3216260000000002
 30
0.0
 11
65.062760999999995
 21
35.474905
 31
0.0
  0
LINE
  5
1BF
  8
DETAIL
  6
CONTINUOUS
 62
     5
 10
13.0
 20
-3.9261099999999991
 30
0.0
 11
16.628889000000001
 21
1.5686209999999969
 31
0.0
  0
ARC
  5
1C0
  8
DETAIL
  6
CONTINUOUS
 62
     5
 10
24.973331000000002
 20
-3.942304
 30
0.0
 40
10.0
 50
124.270021
 51
146.55800300000001
  0
LINE
  5
1C1
  8
DETAIL
  6
CONTINUOUS
 62
     5
 10
18.0
 20
-4.7221339999999987
 30
0.0
 11
18.0
 21
-89.0
 31
0.0
  0
LINE
  5
1C2
  8
DETAIL
  6
CONTINUOUS
 62
     5
 10
13.0
 20
4.404827
 30
0.0
 11
0.0
 21
2.210782
 31
0.0
  0
LINE
  5
1C3
  8
DETAIL
  6
CONTINUOUS
 62
     5
 10
0.0
 20
-2.210782
 30
0.0
 11
18.0
 21
-4.7221339999999987
 31
0.0
  0
ARC
  5
1C4
  8
DETAIL
  6
CONTINUOUS
 62
     5
 10
65.472954000000001
 20
31.217697999999999
 30
0.0
 40
2.5048169999999992
 50
122.058689
 51
304.10910999999999
  0
CIRCLE
  5
1C5
  8
DETAIL
  6
CONTINUOUS
 62
     5
 10
65.472954000000001
 20
5.1880220000000001
 30
0.0
 40
2.5048169999999992
  0
CIRCLE
  5
1C6
  8
DETAIL
  6
CONTINUOUS
 62
     5
 10
65.472954000000001
 20
-7.827007
 30
0.0
 40
2.5048169999999992
  0
CIRCLE
  5
1C7
  8
DETAIL
  6
CONTINUOUS
 62
     5
 10
65.472954000000001
 20
-20.84203599999999
 30
0.0
 40
2.5048169999999992
  0
ARC
  5
1C8
  8
DETAIL
  6
CONTINUOUS
 62
     5
 10
65.472954000000001
 20
-33.857064999999992
 30
0.0
 40
2.5048169999999992
 50
22.482789999999991
 51
272.76326
  0
CIRCLE
  5
1C9
  8
DETAIL
  6
CONTINUOUS
 62
     5
 10
65.472954000000001
 20
18.203050999999991
 30
0.0
 40
2.5048169999999992
  0
ARC
  5
1CA
  8
DETAIL
  6
CONTINUOUS
 62
     5
 10
69.230180000000004
 20
24.710374000000002
 30
0.0
 40
2.5048169999999992
 50
112.1617269999999
 51
302.01220799999999
  0
ARC
  5
1CB
  8
DETAIL
  6
CONTINUOUS
 62
     5
 10
72.987404999999981
 20
5.1880220000000001
 30
0.0
 40
2.5048169999999992
 50
45.250970000000002
 51
328.55945200000002
  0
ARC
  5
1CC
  8
DETAIL
  6
CONTINUOUS
 62
     5
 10
76.744631000000012
 20
-1.3196840000000001
 30
0.0
 40
2.5048169999999992
 50
108.575706
 51
253.65590899999989
  0
ARC
  5
1CD
  8
DETAIL
  6
CONTINUOUS
 62
     5
 10
72.987404999999981
 20
-7.827007
 30
0.0
 40
2.5048169999999992
 50
27.551677000000002
 51
320.78785099999999
  0
ARC
  5
1CE
  8
DETAIL
  6
CONTINUOUS
 62
     5
 10
72.987404999999981
 20
-20.84203599999999
 30
0.0
 40
2.5048169999999992
 50
69.105056000000005
 51
255.203687
  0
ARC
  5
1CF
  8
DETAIL
  6
CONTINUOUS
 62
     5
 10
72.987404999999981
 20
18.203050999999991
 30
0.0
 40
2.5048169999999992
 50
124.55238299999991
 51
275.39734299999992
  0
CIRCLE
  5
1D0
  8
DETAIL
  6
CONTINUOUS
 62
     5
 10
69.230180000000004
 20
-1.3196840000000001
 30
0.0
 40
2.5048169999999992
  0
CIRCLE
  5
1D1
  8
DETAIL
  6
CONTINUOUS
 62
     5
 10
69.230180000000004
 20
-14.334713000000001
 30
0.0
 40
2.5048169999999992
  0
ARC
  5
1D2
  8
DETAIL
  6
CONTINUOUS
 62
     5
 10
69.230180000000004
 20
-27.349741000000002
 30
0.0
 40
2.5048169999999992
 50
34.572928999999981
 51
275.36347000000001
  0
CIRCLE
  5
1D3
  8
DETAIL
  6
CONTINUOUS
 62
     5
 10
69.230180000000004
 20
11.695344999999991
 30
0.0
 40
2.5048169999999992
  0
CIRCLE
  5
1D4
  8
DETAIL
  6
CONTINUOUS
 62
     5
 10
39.172375999999993
 20
-40.36477
 30
0.0
 40
2.5048169999999992
  0
CIRCLE
  5
1D5
  8
DETAIL
  6
CONTINUOUS
 62
     5
 10
42.929602000000003
 20
-33.857064999999992
 30
0.0
 40
2.5048169999999992
  0
CIRCLE
  5
1D6
  8
DETAIL
  6
CONTINUOUS
 62
     5
 10
31.657926
 20
-40.36477
 30
0.0
 40
2.5048169999999992
  0
CIRCLE
  5
1D7
  8
DETAIL
  6
CONTINUOUS
 62
     5
 10
35.415151000000002
 20
-33.857064999999992
 30
0.0
 40
2.5048169999999992
  0
CIRCLE
  5
1D8
  8
DETAIL
  6
CONTINUOUS
 62
     5
 10
24.143474999999992
 20
-40.36477
 30
0.0
 40
2.5048169999999992
  0
CIRCLE
  5
1D9
  8
DETAIL
  6
CONTINUOUS
 62
     5
 10
27.900700000000001
 20
-33.857064999999992
 30
0.0
 40
2.5048169999999992
  0
ARC
  5
1DA
  8
DETAIL
  6
CONTINUOUS
 62
     5
 10
16.62902399999999
 20
-40.36477
 30
0.0
 40
2.5048169999999992
 50
303.18443400000001
 51
56.815566000000011
  0
CIRCLE
  5
1DB
  8
DETAIL
  6
CONTINUOUS
 62
     5
 10
20.386248999999982
 20
-33.857064999999992
 30
0.0
 40
2.5048169999999992
  0
CIRCLE
  5
1DC
  8
DETAIL
  6
CONTINUOUS
 62
     5
 10
57.958503999999991
 20
-33.857064999999992
 30
0.0
 40
2.5048169999999992
  0
ARC
  5
1DD
  8
DETAIL
  6
CONTINUOUS
 62
     5
 10
61.71572900000001
 20
-40.36477
 30
0.0
 40
2.5048169999999992
 50
35.56794099999999
 51
245.140973
  0
CIRCLE
  5
1DE
  8
DETAIL
  6
CONTINUOUS
 62
     5
 10
54.201278000000002
 20
-40.36477
 30
0.0
 40
2.5048169999999992
  0
ARC
  5
1DF
  8
DETAIL
  6
CONTINUOUS
 62
     5
 10
57.958503999999991
 20
-46.87209399999999
 30
0.0
 40
2.5048169999999992
 50
68.537207999999993
 51
198.23304899999999
  0
ARC
  5
1E0
  8
DETAIL
  6
CONTINUOUS
 62
     5
 10
46.686827000000001
 20
-53.379798999999998
 30
0.0
 40
2.5048169999999992
 50
17.769154999999991
 51
224.387314
  0
CIRCLE
  5
1E1
  8
DETAIL
  6
CONTINUOUS
 62
     5
 10
50.444053000000011
 20
-46.87209399999999
 30
0.0
 40
2.5048169999999992
  0
CIRCLE
  5
1E2
  8
DETAIL
  6
CONTINUOUS
 62
     5
 10
39.172375999999993
 20
-53.379798999999998
 30
0.0
 40
2.5048169999999992
  0
CIRCLE
  5
1E3
  8
DETAIL
  6
CONTINUOUS
 62
     5
 10
42.929602000000003
 20
-46.87209399999999
 30
0.0
 40
2.5048169999999992
  0
CIRCLE
  5
1E4
  8
DETAIL
  6
CONTINUOUS
 62
     5
 10
31.657926
 20
-53.379798999999998
 30
0.0
 40
2.5048169999999992
  0
CIRCLE
  5
1E5
  8
DETAIL
  6
CONTINUOUS
 62
     5
 10
35.415151000000002
 20
-46.87209399999999
 30
0.0
 40
2.5048169999999992
  0
CIRCLE
  5
1E6
  8
DETAIL
  6
CONTINUOUS
 62
     5
 10
24.143474999999992
 20
-53.379798999999998
 30
0.0
 40
2.5048169999999992
  0
CIRCLE
  5
1E7
  8
DETAIL
  6
CONTINUOUS
 62
     5
 10
27.900700000000001
 20
-46.87209399999999
 30
0.0
 40
2.5048169999999992
  0
ARC
  5
1E8
  8
DETAIL
  6
CONTINUOUS
 62
     5
 10
16.62902399999999
 20
-53.379798999999998
 30
0.0
 40
2.5048169999999992
 50
303.18443400000001
 51
56.815566000000011
  0
ARC
  5
1E9
  8
DETAIL
  6
CONTINUOUS
 62
     5
 10
20.386248999999982
 20
-46.87209399999999
 30
0.0
 40
2.5048169999999992
 50
197.69950099999991
 51
162.300499
  0
CIRCLE
  5
1EA
  8
DETAIL
  6
CONTINUOUS
 62
     5
 10
46.686827000000001
 20
-40.36477
 30
0.0
 40
2.5048169999999992
  0
CIRCLE
  5
1EB
  8
DETAIL
  6
CONTINUOUS
 62
     5
 10
50.444053000000011
 20
-33.857064999999992
 30
0.0
 40
2.5048169999999992
  0
ARC
  5
1EC
  8
DETAIL
  6
CONTINUOUS
 62
     5
 10
35.415151000000002
 20
-59.887122999999988
 30
0.0
 40
2.5048169999999992
 50
32.350020000000001
 51
184.99537599999999
  0
ARC
  5
1ED
  8
DETAIL
  6
CONTINUOUS
 62
     5
 10
27.900700000000001
 20
-59.887122999999988
 30
0.0
 40
2.5048169999999992
 50
337.91219000000001
 51
225.478106
  0
ARC
  5
1EE
  8
DETAIL
  6
CONTINUOUS
 62
     5
 10
20.386248999999982
 20
-59.887122999999988
 30
0.0
 40
2.5048169999999992
 50
197.69950099999991
 51
162.300499
  0
ARC
  5
1EF
  8
DETAIL
  6
CONTINUOUS
 62
     5
 10
46.686827000000001
 20
24.710374000000002
 30
0.0
 40
2.5048169999999992
 50
249.68816000000001
 51
358.85188299999987
  0
CIRCLE
  5
1F0
  8
DETAIL
  6
CONTINUOUS
 62
     5
 10
61.71572900000001
 20
24.710374000000002
 30
0.0
 40
2.5048169999999992
  0
CIRCLE
  5
1F1
  8
DETAIL
  6
CONTINUOUS
 62
     5
 10
54.201278000000002
 20
24.710374000000002
 30
0.0
 40
2.5048169999999992
  0
ARC
  5
1F2
  8
DETAIL
  6
CONTINUOUS
 62
     5
 10
57.958503999999991
 20
31.217697999999999
 30
0.0
 40
2.5048169999999992
 50
225.37011099999981
 51
23.169931999999999
  0
CIRCLE
  5
1F3
  8
DETAIL
  6
CONTINUOUS
 62
     5
 10
46.686827000000001
 20
-27.349741000000002
 30
0.0
 40
2.5048169999999992
  0
CIRCLE
  5
1F4
  8
DETAIL
  6
CONTINUOUS
 62
     5
 10
50.444053000000011
 20
-20.84203599999999
 30
0.0
 40
2.5048169999999992
  0
CIRCLE
  5
1F5
  8
DETAIL
  6
CONTINUOUS
 62
     5
 10
39.172375999999993
 20
-27.349741000000002
 30
0.0
 40
2.5048169999999992
  0
CIRCLE
  5
1F6
  8
DETAIL
  6
CONTINUOUS
 62
     5
 10
42.929602000000003
 20
-20.84203599999999
 30
0.0
 40
2.5048169999999992
  0
CIRCLE
  5
1F7
  8
DETAIL
  6
CONTINUOUS
 62
     5
 10
31.657926
 20
-27.349741000000002
 30
0.0
 40
2.5048169999999992
  0
CIRCLE
  5
1F8
  8
DETAIL
  6
CONTINUOUS
 62
     5
 10
35.415151000000002
 20
-20.84203599999999
 30
0.0
 40
2.5048169999999992
  0
CIRCLE
  5
1F9
  8
DETAIL
  6
CONTINUOUS
 62
     5
 10
24.143474999999992
 20
-27.349741000000002
 30
0.0
 40
2.5048169999999992
  0
CIRCLE
  5
1FA
  8
DETAIL
  6
CONTINUOUS
 62
     5
 10
27.900700000000001
 20
-20.84203599999999
 30
0.0
 40
2.5048169999999992
  0
ARC
  5
1FB
  8
DETAIL
  6
CONTINUOUS
 62
     5
 10
16.62902399999999
 20
-27.349741000000002
 30
0.0
 40
2.5048169999999992
 50
303.18443400000001
 51
56.815566000000011
  0
ARC
  5
1FC
  8
DETAIL
  6
CONTINUOUS
 62
     5
 10
20.386248999999982
 20
-20.84203599999999
 30
0.0
 40
2.5048169999999992
 50
197.69950099999991
 51
162.300499
  0
CIRCLE
  5
1FD
  8
DETAIL
  6
CONTINUOUS
 62
     5
 10
46.686827000000001
 20
-14.334713000000001
 30
0.0
 40
2.5048169999999992
  0
CIRCLE
  5
1FE
  8
DETAIL
  6
CONTINUOUS
 62
     5
 10
50.444053000000011
 20
-7.827007
 30
0.0
 40
2.5048169999999992
  0
CIRCLE
  5
1FF
  8
DETAIL
  6
CONTINUOUS
 62
     5
 10
39.172375999999993
 20
-14.334713000000001
 30
0.0
 40
2.5048169999999992
  0
CIRCLE
  5
200
  8
DETAIL
  6
CONTINUOUS
 62
     5
 10
42.929602000000003
 20
-7.827007
 30
0.0
 40
2.5048169999999992
  0
CIRCLE
  5
201
  8
DETAIL
  6
CONTINUOUS
 62
     5
 10
31.657926
 20
-14.334713000000001
 30
0.0
 40
2.5048169999999992
  0
CIRCLE
  5
202
  8
DETAIL
  6
CONTINUOUS
 62
     5
 10
35.415151000000002
 20
-7.827007
 30
0.0
 40
2.5048169999999992
  0
CIRCLE
  5
203
  8
DETAIL
  6
CONTINUOUS
 62
     5
 10
24.143474999999992
 20
-14.334713000000001
 30
0.0
 40
2.5048169999999992
  0
CIRCLE
  5
204
  8
DETAIL
  6
CONTINUOUS
 62
     5
 10
27.900700000000001
 20
-7.827007
 30
0.0
 40
2.5048169999999992
  0
ARC
  5
205
  8
DETAIL
  6
CONTINUOUS
 62
     5
 10
16.62902399999999
 20
-14.334713000000001
 30
0.0
 40
2.5048169999999992
 50
303.18443400000001
 51
56.815566000000011
  0
ARC
  5
206
  8
DETAIL
  6
CONTINUOUS
 62
     5
 10
20.386248999999982
 20
-7.827007
 30
0.0
 40
2.5048169999999992
 50
197.69950099999991
 51
162.300499
  0
CIRCLE
  5
207
  8
DETAIL
  6
CONTINUOUS
 62
     5
 10
46.686827000000001
 20
-1.3196840000000001
 30
0.0
 40
2.5048169999999992
  0
CIRCLE
  5
208
  8
DETAIL
  6
CONTINUOUS
 62
     5
 10
50.444053000000011
 20
5.1880220000000001
 30
0.0
 40
2.5048169999999992
  0
CIRCLE
  5
209
  8
DETAIL
  6
CONTINUOUS
 62
     5
 10
39.172375999999993
 20
-1.3196840000000001
 30
0.0
 40
2.5048169999999992
  0
CIRCLE
  5
20A
  8
DETAIL
  6
CONTINUOUS
 62
     5
 10
42.929602000000003
 20
5.1880220000000001
 30
0.0
 40
2.5048169999999992
  0
CIRCLE
  5
20B
  8
DETAIL
  6
CONTINUOUS
 62
     5
 10
31.657926
 20
-1.3196840000000001
 30
0.0
 40
2.5048169999999992
  0
CIRCLE
  5
20C
  8
DETAIL
  6
CONTINUOUS
 62
     5
 10
35.415151000000002
 20
5.1880220000000001
 30
0.0
 40
2.5048169999999992
  0
CIRCLE
  5
20D
  8
DETAIL
  6
CONTINUOUS
 62
     5
 10
24.143474999999992
 20
-1.3196840000000001
 30
0.0
 40
2.5048169999999992
  0
CIRCLE
  5
20E
  8
DETAIL
  6
CONTINUOUS
 62
     5
 10
27.900700000000001
 20
5.1880220000000001
 30
0.0
 40
2.5048169999999992
  0
ARC
  5
20F
  8
DETAIL
  6
CONTINUOUS
 62
     5
 10
16.62902399999999
 20
-1.3196840000000001
 30
0.0
 40
2.5048169999999992
 50
197.10020299999999
 51
96.015803000000005
  0
ARC
  5
210
  8
DETAIL
  6
CONTINUOUS
 62
     5
 10
20.386248999999982
 20
5.1880220000000001
 30
0.0
 40
2.5048169999999992
 50
218.715914
 51
31.336393000000001
  0
CIRCLE
  5
211
  8
DETAIL
  6
CONTINUOUS
 62
     5
 10
57.958503999999991
 20
5.1880220000000001
 30
0.0
 40
2.5048169999999992
  0
CIRCLE
  5
212
  8
DETAIL
  6
CONTINUOUS
 62
     5
 10
61.71572900000001
 20
-1.3196840000000001
 30
0.0
 40
2.5048169999999992
  0
CIRCLE
  5
213
  8
DETAIL
  6
CONTINUOUS
 62
     5
 10
54.201278000000002
 20
-1.3196840000000001
 30
0.0
 40
2.5048169999999992
  0
CIRCLE
  5
214
  8
DETAIL
  6
CONTINUOUS
 62
     5
 10
57.958503999999991
 20
-7.827007
 30
0.0
 40
2.5048169999999992
  0
CIRCLE
  5
215
  8
DETAIL
  6
CONTINUOUS
 62
     5
 10
61.71572900000001
 20
-14.334713000000001
 30
0.0
 40
2.5048169999999992
  0
CIRCLE
  5
216
  8
DETAIL
  6
CONTINUOUS
 62
     5
 10
54.201278000000002
 20
-14.334713000000001
 30
0.0
 40
2.5048169999999992
  0
CIRCLE
  5
217
  8
DETAIL
  6
CONTINUOUS
 62
     5
 10
57.958503999999991
 20
-20.84203599999999
 30
0.0
 40
2.5048169999999992
  0
CIRCLE
  5
218
  8
DETAIL
  6
CONTINUOUS
 62
     5
 10
61.71572900000001
 20
-27.349741000000002
 30
0.0
 40
2.5048169999999992
  0
CIRCLE
  5
219
  8
DETAIL
  6
CONTINUOUS
 62
     5
 10
54.201278000000002
 20
-27.349741000000002
 30
0.0
 40
2.5048169999999992
  0
CIRCLE
  5
21A
  8
DETAIL
  6
CONTINUOUS
 62
     5
 10
46.686827000000001
 20
11.695344999999991
 30
0.0
 40
2.5048169999999992
  0
CIRCLE
  5
21B
  8
DETAIL
  6
CONTINUOUS
 62
     5
 10
50.444053000000011
 20
18.203050999999991
 30
0.0
 40
2.5048169999999992
  0
CIRCLE
  5
21C
  8
DETAIL
  6
CONTINUOUS
 62
     5
 10
39.172375999999993
 20
11.695344999999991
 30
0.0
 40
2.5048169999999992
  0
ARC
  5
21D
  8
DETAIL
  6
CONTINUOUS
 62
     5
 10
42.929602000000003
 20
18.203050999999991
 30
0.0
 40
2.5048169999999992
 50
167.98998999999981
 51
80.550053000000005
  0
ARC
  5
21E
  8
DETAIL
  6
CONTINUOUS
 62
     5
 10
31.657926
 20
11.695344999999991
 30
0.0
 40
2.5048169999999992
 50
194.646603
 51
53.893440000000012
  0
CIRCLE
  5
21F
  8
DETAIL
  6
CONTINUOUS
 62
     5
 10
57.958503999999991
 20
18.203050999999991
 30
0.0
 40
2.5048169999999992
  0
CIRCLE
  5
220
  8
DETAIL
  6
CONTINUOUS
 62
     5
 10
61.71572900000001
 20
11.695344999999991
 30
0.0
 40
2.5048169999999992
  0
CIRCLE
  5
221
  8
DETAIL
  6
CONTINUOUS
 62
     5
 10
54.201278000000002
 20
11.695344999999991
 30
0.0
 40
2.5048169999999992
  0
LINE
  5
222
  8
DETAIL
  6
CONTINUOUS
 62
     5
 10
-52.0
 20
48.5
 30
0.0
 11
-52.0
 21
-48.5
 31
0.0
  0
LINE
  5
223
  8
SIZE
  6
CONTINUOUS
 62
    30
 10
-71.0
 20
48.5
 30
0.0
 11
-169.48058799999981
 21
48.5
 31
0.0
  0
LINE
  5
224
  8
SIZE
  6
CONTINUOUS
 62
    30
 10
-71.0
 20
-48.5
 30
0.0
 11
-169.48058799999981
 21
-48.5
 31
0.0
  0
LINE
  5
225
  8
SIZE
  6
CONTINUOUS
 62
    30
 10
-149.4805879999999
 20
36.5
 30
0.0
 11
-149.4805879999999
 21
-36.5
 31
0.0
  0
TEXT
  5
226
  8
SIZE
  6
CONTINUOUS
 62
    30
 10
-174.4805879999999
 20
-89.146418428571437
 30
0.0
 40
64.0
  1
φ97
 50
90.0
 41
0.9
 72
     1
 11
-174.4805879999999
 21
-2.1978469999999981
 31
0.0
  0
CIRCLE
  5
227
  8
SIZE
  6
CONTINUOUS
 62
    30
 10
-149.4805879999999
 20
48.5
 30
0.0
 40
6.0
  0
LINE
  5
228
  8
SIZE
  6
CONTINUOUS
 62
    30
 10
-149.4805879999999
 20
48.5
 30
0.0
 11
-149.4805879999999
 21
36.5
 31
0.0
  0
CIRCLE
  5
229
  8
SIZE
  6
CONTINUOUS
 62
    30
 10
-149.4805879999999
 20
-48.5
 30
0.0
 40
6.0
  0
LINE
  5
22A
  8
SIZE
  6
CONTINUOUS
 62
    30
 10
-149.4805879999999
 20
-48.5
 30
0.0
 11
-149.4805879999999
 21
-36.5
 31
0.0
  0
POINT
  5
22B
  8
DEFPOINTS
  6
CONTINUOUS
 62
    30
 10
-51.0
 20
48.5
 30
0.0
  0
POINT
  5
22C
  8
DEFPOINTS
  6
CONTINUOUS
 62
    30
 10
-51.0
 20
-48.5
 30
0.0
  0
POINT
  5
22D
  8
DEFPOINTS
  6
CONTINUOUS
 62
    30
 10
-149.4805879999999
 20
-48.5
 30
0.0
  0
LINE
  5
22E
  8
SIZE
  6
CONTINUOUS
 62
    30
 10
0.0
 20
-107.0
 30
0.0
 11
0.0
 21
-272.89504599999992
 31
0.0
  0
LINE
  5
22F
  8
SIZE
  6
CONTINUOUS
 62
    30
 10
18.0
 20
-109.0
 30
0.0
 11
18.0
 21
-272.89504599999992
 31
0.0
  0
LINE
  5
230
  8
SIZE
  6
CONTINUOUS
 62
    30
 10
-12.0
 20
-252.89504600000001
 30
0.0
 11
-24.0
 21
-252.89504600000001
 31
0.0
  0
LINE
  5
231
  8
SIZE
  6
CONTINUOUS
 62
    30
 10
30.0
 20
-252.89504600000001
 30
0.0
 11
42.0
 21
-252.89504600000001
 31
0.0
  0
LINE
  5
232
  8
SIZE
  6
CONTINUOUS
 62
    30
 10
-156.45024100000001
 20
-252.89504600000001
 30
0.0
 11
0.0
 21
-252.89504600000001
 31
0.0
  0
TEXT
  5
233
  8
SIZE
  6
CONTINUOUS
 62
    30
 10
-131.4502411428571
 20
-227.89504600000001
 30
0.0
 40
64.0
  1
18
 41
0.9
 72
     1
 11
-90.307383999999999
 21
-227.89504600000001
 31
0.0
  0
LINE
  5
234
  8
SIZE
  6
CONTINUOUS
 62
    30
 10
0.0
 20
-252.89504600000001
 30
0.0
 11
18.0
 21
-252.89504600000001
 31
0.0
  0
LINE
  5
235
  8
SIZE
  6
CONTINUOUS
 62
    30
 10
0.0
 20
-252.89504600000001
 30
0.0
 11
18.0
 21
-252.89504600000001
 31
0.0
  0
CIRCLE
  5
236
  8
SIZE
  6
CONTINUOUS
 62
    30
 10
0.0
 20
-252.89504600000001
 30
0.0
 40
6.0
  0
LINE
  5
237
  8
SIZE
  6
CONTINUOUS
 62
    30
 10
0.0
 20
-252.89504600000001
 30
0.0
 11
-12.0
 21
-252.89504600000001
 31
0.0
  0
CIRCLE
  5
238
  8
SIZE
  6
CONTINUOUS
 62
    30
 10
18.0
 20
-252.89504600000001
 30
0.0
 40
6.0
  0
LINE
  5
239
  8
SIZE
  6
CONTINUOUS
 62
    30
 10
18.0
 20
-252.89504600000001
 30
0.0
 11
30.0
 21
-252.89504600000001
 31
0.0
  0
POINT
  5
23A
  8
DEFPOINTS
  6
CONTINUOUS
 62
    30
 10
0.0
 20
-87.0
 30
0.0
  0
POINT
  5
23B
  8
DEFPOINTS
  6
CONTINUOUS
 62
    30
 10
18.0
 20
-89.0
 30
0.0
  0
POINT
  5
23C
  8
DEFPOINTS
  6
CONTINUOUS
 62
    30
 10
18.0
 20
-252.89504600000001
 30
0.0
  0
LINE
  5
23D
  8
SIZE
  6
CONTINUOUS
 62
    30
 10
-52.0
 20
68.5
 30
0.0
 11
-52.0
 21
313.51944199999991
 31
0.0
  0
LINE
  5
23E
  8
SIZE
  6
CONTINUOUS
 62
    30
 10
0.0
 20
101.0
 30
0.0
 11
0.0
 21
313.51944199999991
 31
0.0
  0
LINE
  5
240
  8
SIZE
  6
CONTINUOUS
 62
    30
 10
12.0
 20
293.51944199999991
 30
0.0
 11
24.0
 21
293.51944199999991
 31
0.0
  0
TEXT
  5
241
  8
SIZE
  6
CONTINUOUS
 62
    30
 10
-164.2593745441763
 20
318.51944199999991
 30
0.0
 40
64.0
  1
52
 41
0.9
 72
     1
 11
-117.63080311560491
 21
318.51944199999991
 31
0.0
  0
LINE
  5
242
  8
SIZE
  6
CONTINUOUS
 62
    30
 10
-51.0
 20
293.51944199999991
 30
0.0
 11
0.0
 21
293.51944199999991
 31
0.0
  0
LINE
  5
243
  8
SIZE
  6
CONTINUOUS
 62
    30
 10
-205.01339695450179
 20
293.51944199999991
 30
0.0
 11
0.0
 21
293.51944199999991
 31
0.0
  0
CIRCLE
  5
244
  8
SIZE
  6
CONTINUOUS
 62
    30
 10
-52.0
 20
293.51944199999991
 30
0.0
 40
6.0
  0
CIRCLE
  5
246
  8
SIZE
  6
CONTINUOUS
 62
    30
 10
0.0
 20
293.51944199999991
 30
0.0
 40
6.0
  0
LINE
  5
247
  8
SIZE
  6
CONTINUOUS
 62
    30
 10
0.0
 20
293.51944199999991
 30
0.0
 11
12.0
 21
293.51944199999991
 31
0.0
  0
POINT
  5
248
  8
DEFPOINTS
  6
CONTINUOUS
 62
    30
 10
-51.0
 20
48.5
 30
0.0
  0
POINT
  5
249
  8
DEFPOINTS
  6
CONTINUOUS
 62
    30
 10
0.0
 20
81.0
 30
0.0
  0
POINT
  5
24A
  8
DEFPOINTS
  6
CONTINUOUS
 62
    30
 10
0.0
 20
293.51944199999991
 30
0.0
  0
ARC
  5
24B
  8
DETAIL
  6
CONTINUOUS
 62
     5
 10
16.021958999999988
 20
-2.5023779999999971
 30
0.0
 40
60.030219999999993
 50
271.88828100000001
 51
37.870274999999999
  0
LINE
  5
24C
  8
SIZE
  6
CONTINUOUS
 62
    30
 10
0.0
 20
101.0
 30
0.0
 11
0.0
 21
313.51944199999991
 31
0.0
  0
LINE
  5
24D
  8
SIZE
  6
CONTINUOUS
 62
    30
 10
76.0
 20
20.0
 30
0.0
 11
76.0
 21
313.51944199999991
 31
0.0
  0
LINE
  5
24E
  8
SIZE
  6
CONTINUOUS
 62
    30
 10
12.0
 20
293.51944199999991
 30
0.0
 11
64.0
 21
293.51944199999991
 31
0.0
  0
LINE
  5
24F
  8
SIZE
  6
CONTINUOUS
 62
    30
 10
230.3731149999999
 20
293.51944199999991
 30
0.0
 11
76.0
 21
293.51944199999991
 31
0.0
  0
TEXT
  5
250
  8
SIZE
  6
CONTINUOUS
 62
    30
 10
92.106602480800859
 20
318.51944199999991
 30
0.0
 40
64.0
  1
76
 41
0.9
 72
     1
 11
137.3637453379437
 21
318.51944199999991
 31
0.0
  0
CIRCLE
  5
251
  8
SIZE
  6
CONTINUOUS
 62
    30
 10
0.0
 20
293.51944199999991
 30
0.0
 40
6.0
  0
LINE
  5
252
  8
SIZE
  6
CONTINUOUS
 62
    30
 10
0.0
 20
293.51944199999991
 30
0.0
 11
12.0
 21
293.51944199999991
 31
0.0
  0
CIRCLE
  5
253
  8
SIZE
  6
CONTINUOUS
 62
    30
 10
76.0
 20
293.51944199999991
 30
0.0
 40
6.0
  0
LINE
  5
254
  8
SIZE
  6
CONTINUOUS
 62
    30
 10
76.0
 20
293.51944199999991
 30
0.0
 11
64.0
 21
293.51944199999991
 31
0.0
  0
POINT
  5
255
  8
DEFPOINTS
  6
CONTINUOUS
 62
    30
 10
0.0
 20
81.0
 30
0.0
  0
POINT
  5
256
  8
DEFPOINTS
  6
CONTINUOUS
 62
    30
 10
76.0
 20
0.0
 30
0.0
  0
POINT
  5
257
  8
DEFPOINTS
  6
CONTINUOUS
 62
    30
 10
76.0
 20
293.51944199999991
 30
0.0
  0
LINE
  5
258
  8
SIZE
  6
CONTINUOUS
 62
    30
 10
0.0
 20
101.0
 30
0.0
 11
0.0
 21
187.990871
 31
0.0
  0
LINE
  5
259
  8
SIZE
  6
CONTINUOUS
 62
    30
 10
13.0
 20
103.0
 30
0.0
 11
13.0
 21
187.990871
 31
0.0
  0
LINE
  5
25A
  8
SIZE
  6
CONTINUOUS
 62
    30
 10
-12.0
 20
167.990871
 30
0.0
 11
-24.0
 21
167.990871
 31
0.0
  0
LINE
  5
25B
  8
SIZE
  6
CONTINUOUS
 62
    30
 10
25.0
 20
167.990871
 30
0.0
 11
37.0
 21
167.990871
 31
0.0
  0
LINE
  5
25C
  8
SIZE
  6
CONTINUOUS
 62
    30
 10
203.7466949999999
 20
167.990871
 30
0.0
 11
13.0
 21
167.990871
 31
0.0
  0
TEXT
  5
25D
  8
SIZE
  6
CONTINUOUS
 62
    30
 10
96.460980857142843
 20
192.990871
 30
0.0
 40
64.0
  1
13
 41
0.9
 72
     1
 11
137.603838
 21
192.990871
 31
0.0
  0
LINE
  5
25E
  8
SIZE
  6
CONTINUOUS
 62
    30
 10
0.0
 20
167.990871
 30
0.0
 11
13.0
 21
167.990871
 31
0.0
  0
LINE
  5
25F
  8
SIZE
  6
CONTINUOUS
 62
    30
 10
0.0
 20
167.990871
 30
0.0
 11
13.0
 21
167.990871
 31
0.0
  0
CIRCLE
  5
260
  8
SIZE
  6
CONTINUOUS
 62
    30
 10
0.0
 20
167.990871
 30
0.0
 40
6.0
  0
LINE
  5
261
  8
SIZE
  6
CONTINUOUS
 62
    30
 10
0.0
 20
167.990871
 30
0.0
 11
-12.0
 21
167.990871
 31
0.0
  0
CIRCLE
  5
262
  8
SIZE
  6
CONTINUOUS
 62
    30
 10
13.0
 20
167.990871
 30
0.0
 40
6.0
  0
LINE
  5
263
  8
SIZE
  6
CONTINUOUS
 62
    30
 10
13.0
 20
167.990871
 30
0.0
 11
25.0
 21
167.990871
 31
0.0
  0
POINT
  5
264
  8
DEFPOINTS
  6
CONTINUOUS
 62
    30
 10
0.0
 20
81.0
 30
0.0
  0
POINT
  5
265
  8
DEFPOINTS
  6
CONTINUOUS
 62
    30
 10
13.0
 20
83.0
 30
0.0
  0
POINT
  5
266
  8
DEFPOINTS
  6
CONTINUOUS
 62
    30
 10
13.0
 20
167.990871
 30
0.0
  0
LINE
  5
267
  8
SIZE
  6
CONTINUOUS
 62
    30
 10
138.34030200000001
 20
0.0
 30
0.0
 11
332.14557600000001
 21
0.0
 31
0.0
  0
LINE
  5
268
  8
SIZE
  6
CONTINUOUS
 62
    30
 10
38.0
 20
-89.0
 30
0.0
 11
332.14557600000001
 21
-89.0
 31
0.0
  0
LINE
  5
269
  8
SIZE
  6
CONTINUOUS
 62
    30
 10
312.14557599999989
 20
-12.0
 30
0.0
 11
312.14557599999989
 21
-77.0
 31
0.0
  0
LINE
  5
26A
  8
SIZE
  6
CONTINUOUS
 62
    30
 10
312.14557599999989
 20
-244.77533099999991
 30
0.0
 11
312.14557599999989
 21
-89.0
 31
0.0
  0
TEXT
  5
26B
  8
SIZE
  6
CONTINUOUS
 62
    30
 10
287.14557599999989
 20
-219.77533085714279
 30
0.0
 40
64.0
  1
89
 50
90.0
 41
0.9
 72
     1
 11
287.14557599999989
 21
-174.5181879999999
 31
0.0
  0
CIRCLE
  5
26C
  8
SIZE
  6
CONTINUOUS
 62
    30
 10
312.14557599999989
 20
0.0
 30
0.0
 40
6.0
  0
LINE
  5
26D
  8
SIZE
  6
CONTINUOUS
 62
    30
 10
312.14557599999989
 20
0.0
 30
0.0
 11
312.14557599999989
 21
-12.0
 31
0.0
  0
CIRCLE
  5
26E
  8
SIZE
  6
CONTINUOUS
 62
    30
 10
312.14557599999989
 20
-89.0
 30
0.0
 40
6.0
  0
LINE
  5
26F
  8
SIZE
  6
CONTINUOUS
 62
    30
 10
312.14557599999989
 20
-89.0
 30
0.0
 11
312.14557599999989
 21
-77.0
 31
0.0
  0
POINT
  5
270
  8
DEFPOINTS
  6
CONTINUOUS
 62
    30
 10
118.3403019999998
 20
0.0
 30
0.0
  0
POINT
  5
271
  8
DEFPOINTS
  6
CONTINUOUS
 62
    30
 10
18.0
 20
-89.0
 30
0.0
  0
POINT
  5
272
  8
DEFPOINTS
  6
CONTINUOUS
 62
    30
 10
312.14557599999989
 20
-89.0
 30
0.0
  0
LINE
  5
273
  8
SIZE
  6
CONTINUOUS
 62
    30
 10
138.34030200000001
 20
0.0
 30
0.0
 11
332.14557600000001
 21
0.0
 31
0.0
  0
LINE
  5
274
  8
SIZE
  6
CONTINUOUS
 62
    30
 10
33.0
 20
83.0
 30
0.0
 11
332.14557600000001
 21
83.0
 31
0.0
  0
LINE
  5
275
  8
SIZE
  6
CONTINUOUS
 62
    30
 10
312.14557599999989
 20
12.0
 30
0.0
 11
312.14557599999989
 21
71.0
 31
0.0
  0
LINE
  5
276
  8
SIZE
  6
CONTINUOUS
 62
    30
 10
312.14557599999989
 20
242.44729000000001
 30
0.0
 11
312.14557599999989
 21
83.0
 31
0.0
  0
TEXT
  5
277
  8
SIZE
  6
CONTINUOUS
 62
    30
 10
287.14557599999989
 20
124.1901465714285
 30
0.0
 40
64.0
  1
83
 50
90.0
 41
0.9
 72
     1
 11
287.14557599999989
 21
170.8187179999999
 31
0.0
  0
CIRCLE
  5
278
  8
SIZE
  6
CONTINUOUS
 62
    30
 10
312.14557599999989
 20
0.0
 30
0.0
 40
6.0
  0
LINE
  5
279
  8
SIZE
  6
CONTINUOUS
 62
    30
 10
312.14557599999989
 20
0.0
 30
0.0
 11
312.14557599999989
 21
12.0
 31
0.0
  0
CIRCLE
  5
27A
  8
SIZE
  6
CONTINUOUS
 62
    30
 10
312.14557599999989
 20
83.0
 30
0.0
 40
6.0
  0
LINE
  5
27B
  8
SIZE
  6
CONTINUOUS
 62
    30
 10
312.14557599999989
 20
83.0
 30
0.0
 11
312.14557599999989
 21
71.0
 31
0.0
  0
POINT
  5
27C
  8
DEFPOINTS
  6
CONTINUOUS
 62
    30
 10
118.3403019999998
 20
0.0
 30
0.0
  0
POINT
  5
27D
  8
DEFPOINTS
  6
CONTINUOUS
 62
    30
 10
13.0
 20
83.0
 30
0.0
  0
POINT
  5
27E
  8
DEFPOINTS
  6
CONTINUOUS
 62
    30
 10
312.14557599999989
 20
83.0
 30
0.0
  0
ARC
  5
27F
  8
OUTLINE
  6
CONTINUOUS
 62
     3
 10
2.0
 20
-87.0
 30
0.0
 40
2.0
 50
180.0
 51
270.0
  0
ARC
  5
280
  8
OUTLINE
  6
CONTINUOUS
 62
     3
 10
2.0
 20
81.0
 30
0.0
 40
2.0
 50
90.0
 51
180.0
  0
LINE
  5
281
  8
OUTLINE
  6
CONTINUOUS
 62
     3
 10
0.0
 20
-48.5
 30
0.0
 11
-52.0
 21
-48.5
 31
0.0
  0
LINE
  5
282
  8
OUTLINE
  6
CONTINUOUS
 62
     3
 10
0.0
 20
48.5
 30
0.0
 11
-52.0
 21
48.5
 31
0.0
  0
ARC
  5
283
  8
OUTLINE
  6
CONTINUOUS
 62
     3
 10
16.021958999999988
 20
-2.5023779999999971
 30
0.0
 40
60.030219999999993
 50
271.88828100000001
 51
37.870274999999999
  0
LINE
  5
284
  8
OUTLINE
  6
CONTINUOUS
 62
     3
 10
13.0
 20
-3.9261099999999991
 30
0.0
 11
16.628889000000001
 21
1.5686209999999969
 31
0.0
  0
LINE
  5
285
  8
OUTLINE
  6
CONTINUOUS
 62
     3
 10
0.0
 20
81.0
 30
0.0
 11
0.0
 21
-87.0
 31
0.0
  0
LINE
  5
286
  8
OUTLINE
  6
CONTINUOUS
 62
     3
 10
13.0
 20
83.0
 30
0.0
 11
13.0
 21
-4.0245360000000003
 31
0.0
  0
LINE
  5
287
  8
OUTLINE
  6
CONTINUOUS
 62
     3
 10
18.0
 20
-4.7221339999999987
 30
0.0
 11
18.0
 21
-89.0
 31
0.0
  0
LINE
  5
288
  8
OUTLINE
  6
CONTINUOUS
 62
     3
 10
2.0
 20
-89.0
 30
0.0
 11
18.0
 21
-89.0
 31
0.0
  0
LINE
  5
289
  8
OUTLINE
  6
CONTINUOUS
 62
     3
 10
0.0
 20
-2.210782
 30
0.0
 11
18.0
 21
-4.7221339999999987
 31
0.0
  0
LINE
  5
28A
  8
OUTLINE
  6
CONTINUOUS
 62
     3
 10
19.342392999999991
 20
4.3216260000000002
 30
0.0
 11
65.062760999999995
 21
35.474905
 31
0.0
  0
ARC
  5
28B
  8
OUTLINE
  6
CONTINUOUS
 62
     3
 10
13.0
 20
0.0
 30
0.0
 40
63.0
 50
34.270021
 51
82.776627999999988
  0
LINE
  5
28C
  8
OUTLINE
  6
CONTINUOUS
 62
     3
 10
13.0
 20
4.404827
 30
0.0
 11
0.0
 21
2.210782
 31
0.0
  0
ARC
  5
28D
  8
OUTLINE
  6
CONTINUOUS
 62
     3
 10
24.973331000000002
 20
-3.942304
 30
0.0
 40
10.0
 50
124.270021
 51
146.55800300000001
  0
LINE
  5
28E
  8
OUTLINE
  6
CONTINUOUS
 62
     3
 10
13.0
 20
62.5
 30
0.0
 11
20.921489999999999
 21
62.5
 31
0.0
  0
LINE
  5
28F
  8
OUTLINE
  6
CONTINUOUS
 62
     3
 10
2.0
 20
83.0
 30
0.0
 11
13.0
 21
83.0
 31
0.0
  0
LINE
  5
290
  8
OUTLINE
  6
CONTINUOUS
 62
     3
 10
-52.0
 20
48.5
 30
0.0
 11
-52.0
 21
-48.5
 31
0.0
  0
TEXT
  5
291
  8
ETC
  6
CONTINUOUS
 62
    61
 10
460.73571375519361
 20
167.7935147109379
 30
0.0
 40
50.0
  1
P-13DFSQD2-BL
 41
0.9
  0
TEXT
  5
292
  8
ETC
  6
CONTINUOUS
 62
    61
 10
390.32487875519371
 20
470.28513571093799
 30
0.0
 40
64.0
  1
P-13DFSD2-BL_5
 41
0.9
  0
TEXT
  5
293
  8
ETC
  6
CONTINUOUS
 62
    61
 10
460.73571375519361
 20
265.12992871093792
 30
0.0
 40
50.0
  1
P-13DFSD2-BL
 41
0.9
  0
TEXT
  5
294
  8
ETC
  6
CONTINUOUS
 62
    61
 10
378.72495475519361
 20
373.72476171093803
 30
0.0
 40
64.0
  1
システム部材
 41
0.9
  0
ENDSEC
  0
EOF
