  0
SECTION
  2
HEADER
  9
$ACADVER
  1
AC1009
  9
$DWGCODEPAGE
  3
ansi_932
  9
$INSBASE
 10
0.0
 20
0.0
 30
0.0
  9
$EXTMIN
 10
5419.917102797054
 20
366.2534440727902
 30
0.0
  9
$EXTMAX
 10
6481.434594438248
 20
917.4961758099447
 30
50.0
  9
$LIMMIN
 10
-2970.0
 20
-2100.0
  9
$LIMMAX
 10
2970.0
 20
2100.0
  9
$ORTHOMODE
 70
     1
  9
$REGENMODE
 70
     0
  9
$FILLMODE
 70
     1
  9
$QTEXTMODE
 70
     0
  9
$MIRRTEXT
 70
     0
  9
$DRAGMODE
 70
     2
  9
$LTSCALE
 40
20.0
  9
$OSMODE
 70
    37
  9
$ATTMODE
 70
     1
  9
$TEXTSIZE
 40
64.0
  9
$TRACEWID
 40
0.05
  9
$TEXTSTYLE
  7
STANDARD
  9
$CLAYER
  8
OUTLINE
  9
$CELTYPE
  6
CONTINUOUS
  9
$CECOLOR
 62
     3
  9
$DIMSCALE
 40
1.0
  9
$DIMASZ
 40
40.0
  9
$DIMEXO
 40
20.0
  9
$DIMDLI
 40
200.0
  9
$DIMRND
 40
0.0
  9
$DIMDLE
 40
0.0
  9
$DIMEXE
 40
20.0
  9
$DIMTP
 40
0.0
  9
$DIMTM
 40
0.0
  9
$DIMTXT
 40
64.0
  9
$DIMCEN
 40
0.09
  9
$DIMTSZ
 40
0.0
  9
$DIMTOL
 70
     1
  9
$DIMLIM
 70
     0
  9
$DIMTIH
 70
     0
  9
$DIMTOH
 70
     0
  9
$DIMSE1
 70
     0
  9
$DIMSE2
 70
     0
  9
$DIMTAD
 70
     1
  9
$DIMZIN
 70
     8
  9
$DIMBLK
  1
NONE
  9
$DIMASO
 70
     1
  9
$DIMSHO
 70
     0
  9
$DIMPOST
  1

  9
$DIMAPOST
  1

  9
$DIMALT
 70
     0
  9
$DIMALTD
 70
     2
  9
$DIMALTF
 40
25.4
  9
$DIMLFAC
 40
1.0
  9
$DIMTOFL
 70
     1
  9
$DIMTVP
 40
0.0
  9
$DIMTIX
 70
     1
  9
$DIMSOXD
 70
     0
  9
$DIMSAH
 70
     0
  9
$DIMBLK1
  1

  9
$DIMBLK2
  1

  9
$DIMSTYLE
  2
STANDARD
  9
$DIMCLRD
 70
     0
  9
$DIMCLRE
 70
     0
  9
$DIMCLRT
 70
     0
  9
$DIMTFAC
 40
1.0
  9
$DIMGAP
 40
20.0
  9
$LUNITS
 70
     2
  9
$LUPREC
 70
     4
  9
$SKETCHINC
 40
0.1
  9
$FILLETRAD
 40
4.0
  9
$AUNITS
 70
     1
  9
$AUPREC
 70
     3
  9
$MENU
  1
ACAD
  9
$ELEVATION
 40
0.0
  9
$PELEVATION
 40
0.0
  9
$THICKNESS
 40
50.0
  9
$LIMCHECK
 70
     0
  9
$CHAMFERA
 40
0.0
  9
$CHAMFERB
 40
0.0
  9
$SKPOLY
 70
     0
  9
$TDCREATE
 40
2451453.493850799
  9
$TDUPDATE
 40
2457485.56701228
  9
$TDINDWG
 40
1.0289734491
  9
$TDUSRTIMER
 40
1.0289716551
  9
$USRTIMER
 70
     1
  9
$ANGBASE
 50
0.0
  9
$ANGDIR
 70
     0
  9
$PDMODE
 70
     3
  9
$PDSIZE
 40
-2.0
  9
$PLINEWID
 40
0.0
  9
$COORDS
 70
     1
  9
$SPLFRAME
 70
     0
  9
$SPLINETYPE
 70
     6
  9
$SPLINESEGS
 70
     8
  9
$ATTDIA
 70
     0
  9
$ATTREQ
 70
     1
  9
$HANDLING
 70
     1
  9
$HANDSEED
  5
11EE
  9
$SURFTAB1
 70
     6
  9
$SURFTAB2
 70
     6
  9
$SURFTYPE
 70
     6
  9
$SURFU
 70
     6
  9
$SURFV
 70
     6
  9
$UCSNAME
  2

  9
$UCSORG
 10
0.0
 20
0.0
 30
0.0
  9
$UCSXDIR
 10
1.0
 20
0.0
 30
0.0
  9
$UCSYDIR
 10
0.0
 20
1.0
 30
0.0
  9
$PUCSNAME
  2

  9
$PUCSORG
 10
0.0
 20
0.0
 30
0.0
  9
$PUCSXDIR
 10
1.0
 20
0.0
 30
0.0
  9
$PUCSYDIR
 10
0.0
 20
1.0
 30
0.0
  9
$USERI1
 70
     0
  9
$USERI2
 70
     0
  9
$USERI3
 70
     0
  9
$USERI4
 70
     0
  9
$USERI5
 70
     0
  9
$USERR1
 40
20.0
  9
$USERR2
 40
0.0
  9
$USERR3
 40
0.0
  9
$USERR4
 40
0.0
  9
$USERR5
 40
0.0
  9
$WORLDVIEW
 70
     1
  9
$SHADEDGE
 70
     3
  9
$SHADEDIF
 70
    70
  9
$TILEMODE
 70
     1
  9
$MAXACTVP
 70
    48
  9
$PLIMCHECK
 70
     0
  9
$PEXTMIN
 10
1.000000000000000E+20
 20
1.000000000000000E+20
 30
1.000000000000000E+20
  9
$PEXTMAX
 10
-1.000000000000000E+20
 20
-1.000000000000000E+20
 30
-1.000000000000000E+20
  9
$PLIMMIN
 10
0.0
 20
0.0
  9
$PLIMMAX
 10
12.0
 20
9.0
  9
$UNITMODE
 70
     0
  9
$VISRETAIN
 70
     1
  9
$PLINEGEN
 70
     0
  9
$PSLTSCALE
 70
     1
  0
ENDSEC
  0
SECTION
  2
TABLES
  0
TABLE
  2
VPORT
 70
     1
  0
VPORT
  2
*ACTIVE
 70
     0
 10
0.0
 20
0.0
 11
1.0
 21
1.0
 12
6205.470054001979
 22
512.2769760174295
 13
0.0
 23
0.0
 14
1.0
 24
1.0
 15
0.0
 25
0.0
 16
0.0
 26
0.0
 36
1.0
 17
0.0
 27
0.0
 37
0.0
 40
1274.737011774761
 41
1.513819095477386
 42
50.0
 43
0.0
 44
0.0
 50
0.0
 51
0.0
 71
     0
 72
   100
 73
     1
 74
     1
 75
     0
 76
     0
 77
     0
 78
     0
  0
ENDTAB
  0
TABLE
  2
LTYPE
 70
     3
  0
LTYPE
  2
CONTINUOUS
 70
     0
  3
実線
 72
    65
 73
     0
 40
0.0
  0
LTYPE
  2
DASHDOT
 70
     0
  3
____ _ ____ _ ____ _ ____ _ ____ _ ____ _ ____
 72
    65
 73
     4
 40
5.5
 49
4.0
 49
-0.6
 49
0.3
 49
-0.6
  0
LTYPE
  2
DASHED
 70
     0
  3
Dashed __ __ __ __ __ __ __ __ __ __ __ __ __ _
 72
    65
 73
     2
 40
0.75
 49
0.5
 49
-0.25
  0
ENDTAB
  0
TABLE
  2
LAYER
 70
    12
  0
LAYER
  2
0
 70
     0
 62
     7
  6
CONTINUOUS
  0
LAYER
  2
OUTLINE
 70
     0
 62
     3
  6
CONTINUOUS
  0
LAYER
  2
ARRANGE
 70
     0
 62
     1
  6
CONTINUOUS
  0
LAYER
  2
SIZE
 70
     0
 62
    30
  6
CONTINUOUS
  0
LAYER
  2
BASIS
 70
     0
 62
     6
  6
DASHDOT
  0
LAYER
  2
DETAIL
 70
     0
 62
     5
  6
CONTINUOUS
  0
LAYER
  2
DEFPOINTS
 70
     0
 62
     7
  6
CONTINUOUS
  0
LAYER
  2
ETC
 70
     0
 62
    61
  6
CONTINUOUS
  0
LAYER
  2
FIX
 70
     0
 62
    11
  6
CONTINUOUS
  0
LAYER
  2
NOTE
 70
     0
 62
     4
  6
CONTINUOUS
  0
LAYER
  2
SERVICESPACE
 70
     0
 62
     2
  6
DASHDOT
  0
LAYER
  2
SYMBOLLINE
 70
     0
 62
    15
  6
CONTINUOUS
  0
ENDTAB
  0
TABLE
  2
STYLE
 70
     1
  0
STYLE
  2
STANDARD
 70
     0
 40
64.0
 41
0.9
 50
0.0
 71
     0
 42
64.0
  3
SIMPLEX.shx
  4
BIGFONT.shx
  0
STYLE
  2

 70
     1
 40
0.0
 41
1.0
 50
0.0
 71
     0
 42
64.0
  3
ltypeshp.shx
  4

  0
ENDTAB
  0
TABLE
  2
VIEW
 70
     1
  0
VIEW
  2
ALL
 70
     0
 40
4282.619807999997
 10
0.0
 20
41.30990399999999
 41
5940.0
 11
0.0
 21
0.0
 31
1.0
 12
0.0
 22
0.0
 32
0.0
 42
50.0
 43
0.0
 44
0.0
 50
0.0
 71
     0
  0
ENDTAB
  0
TABLE
  2
UCS
 70
     0
  0
ENDTAB
  0
TABLE
  2
APPID
 70
     1
  0
APPID
  2
ACAD
 70
     0
  0
ENDTAB
  0
TABLE
  2
DIMSTYLE
 70
     1
  0
DIMSTYLE
  2
STANDARD
 70
     0
  3

  4

  5

  6

  7

 40
1.0
 41
0.18
 42
0.0625
 43
0.38
 44
0.18
 45
0.0
 46
0.0
 47
0.0
 48
0.0
140
0.18
141
0.09
142
0.0
143
25.4
144
1.0
145
0.0
146
1.0
147
0.09
 71
     0
 72
     0
 73
     1
 74
     1
 75
     0
 76
     0
 77
     0
 78
     0
170
     0
171
     2
172
     0
173
     0
174
     0
175
     0
176
     0
177
     0
178
     0
  0
ENDTAB
  0
ENDSEC
  0
SECTION
  2
BLOCKS
  0
BLOCK
  8
0
  2
$MODEL_SPACE
 70
     0
 10
0.0
 20
0.0
 30
0.0
  3
$MODEL_SPACE
  1

  0
ENDBLK
  5
10FF
  8
0
  0
BLOCK
 67
     1
  8
0
  2
$PAPER_SPACE
 70
     0
 10
0.0
 20
0.0
 30
0.0
  3
$PAPER_SPACE
  1

  0
ENDBLK
  5
10FB
 67
     1
  8
0
  0
BLOCK
  8
0
  2
DOT1
 70
     0
 10
0.0
 20
0.0
 30
0.0
  3
DOT1
  1

  0
CIRCLE
  5
111D
  8
SIZE
  6
CONTINUOUS
 62
     7
 10
0.0
 20
0.0
 30
0.0
 40
3.0
  0
ENDBLK
  5
111E
  8
0
  0
BLOCK
  8
0
  2
_ORIGIN
 70
     0
 10
0.0
 20
0.0
 30
0.0
  3
_ORIGIN
  1

  0
CIRCLE
  5
1121
  8
0
  6
CONTINUOUS
 62
     7
 10
0.0
 20
0.0
 30
0.0
 40
0.5
  0
LINE
  5
1122
  8
0
  6
CONTINUOUS
 62
     7
 10
0.0
 20
0.0
 30
0.0
 11
-1.0
 21
0.0
 31
0.0
  0
ENDBLK
  5
1123
  8
0
  0
BLOCK
  8
0
  2
_NONE
 70
     0
 10
0.0
 20
0.0
 30
0.0
  3
_NONE
  1

  0
ENDBLK
  5
1126
  8
0
 62
    30
  0
BLOCK
  8
0
  2
_OPEN30
 70
     0
 10
0.0
 20
0.0
 30
0.0
  3
_OPEN30
  1

  0
LINE
  5
1129
  8
0
  6
BYBLOCK
 62
     0
 10
-1.0
 20
0.26794919
 30
0.0
 11
0.0
 21
0.0
 31
0.0
  0
LINE
  5
112A
  8
0
  6
BYBLOCK
 62
     0
 10
0.0
 20
0.0
 30
0.0
 11
-1.0
 21
-0.26794919
 31
0.0
  0
LINE
  5
112B
  8
0
  6
BYBLOCK
 62
     0
 10
0.0
 20
0.0
 30
0.0
 11
-1.0
 21
0.0
 31
0.0
  0
ENDBLK
  5
112C
  8
0
 62
    30
  0
BLOCK
  8
0
  2
A$C4FEE6482
 70
     0
 10
0.0
 20
0.0
 30
0.0
  3
A$C4FEE6482
  1

  0
TEXT
  5
112F
  8
SIZE
  6
CONTINUOUS
 62
    30
 10
64.00000143352418
 20
-11.51999903551953
 30
0.0
 40
64.0
  1
φ155
 50
90.0
 41
0.9
 72
     1
 11
64.00000143352418
 21
97.37142953590904
 31
0.0
  0
TEXT
  5
1130
  8
ETC
  6
CONTINUOUS
 62
    61
 10
902.534005433524
 20
522.747342535909
 30
0.0
 40
64.0
  1
換気扇
 41
0.9
  0
ENDBLK
  5
1131
  8
0
 62
    30
  0
BLOCK
  8
0
  2
A$C5B1D2A78
 70
     0
 10
0.0
 20
0.0
 30
0.0
  3
A$C5B1D2A78
  1

  0
TEXT
  5
1134
  8
SIZE
  6
CONTINUOUS
 62
    30
 10
64.00000143352418
 20
-11.51999903551953
 30
0.0
 40
64.0
  1
φ155
 50
90.0
 41
0.9
 72
     1
 11
64.00000143352418
 21
97.37142953590904
 31
0.0
  0
TEXT
  5
1135
  8
ETC
  6
CONTINUOUS
 62
    61
 10
902.534005433524
 20
522.747342535909
 30
0.0
 40
64.0
  1
換気扇
 41
0.9
  0
ENDBLK
  5
1136
  8
0
 62
    30
  0
BLOCK
  8
0
  2
A$C251A2A22
 70
     0
 10
0.0
 20
0.0
 30
0.0
  3
A$C251A2A22
  1

  0
TEXT
  5
1139
  8
SIZE
  6
CONTINUOUS
 62
    30
 10
-11.52000047316231
 20
0.0000004848675417
 30
0.0
 40
64.0
  1
φ101.5±1.0
 41
0.9
  0
ENDBLK
  5
113A
  8
0
 62
     3
  0
ENDSEC
  0
SECTION
  2
ENTITIES
  0
TEXT
  5
113B
  8
ETC
  6
CONTINUOUS
 62
    61
 10
304.3773155371855
 20
159.9766079390872
 30
0.0
 40
64.0
  1
システム部材
 41
0.9
  0
TEXT
  5
113C
  8
ETC
  6
CONTINUOUS
 62
    61
 10
313.2327707261629
 20
242.2175267647261
 30
0.0
 40
64.0
  1
P-13DSV2_2
 41
0.9
  0
TEXT
  5
113D
  8
ETC
  6
CONTINUOUS
 62
    61
 10
440.9950083133481
 20
84.31497687297781
 30
0.0
 40
50.0
  1
P-13DSV2
 41
0.9
  0
LINE
  5
113E
  8
SIZE
  6
CONTINUOUS
 62
    30
 10
66.64600536372382
 20
19.99999999999739
 30
0.0
 11
66.64600536372382
 21
140.3866069933449
 31
0.0
  0
LINE
  5
113F
  8
BASIS
  6
DASHDOT
 62
     6
 39
50.0
 10
0.0
 20
93.19548006855553
 30
0.0
 11
0.0
 21
-93.19548650296736
 31
0.0
  0
LINE
  5
1140
  8
SIZE
  6
CONTINUOUS
 62
    30
 10
-63.35399463627982
 20
19.99999999999739
 30
0.0
 11
-63.35399463627982
 21
140.3866069933449
 31
0.0
  0
CIRCLE
  5
1141
  8
DETAIL
  6
CONTINUOUS
 62
     5
 39
50.0
 10
0.0
 20
-0.0000000000026148
 30
0.0
 40
65.0
  0
CIRCLE
  5
1142
  8
DETAIL
  6
CONTINUOUS
 62
     5
 39
50.0
 10
0.0
 20
-0.0000000000026148
 30
0.0
 40
50.75
  0
CIRCLE
  5
1143
  8
SIZE
  6
CONTINUOUS
 62
    30
 39
50.0
 10
50.75000000000091
 20
-225.0252049724269
 30
0.0
 40
6.0
  0
CIRCLE
  5
1144
  8
SIZE
  6
CONTINUOUS
 62
    30
 39
50.0
 10
-50.74999999999272
 20
-225.0252049724269
 30
0.0
 40
6.0
  0
LINE
  5
1145
  8
BASIS
  6
DASHDOT
 62
     6
 39
50.0
 10
-103.0409176973044
 20
-0.0000000000026148
 30
0.0
 11
100.8925381223899
 21
-0.0000000000026148
 31
0.0
  0
LINE
  5
1146
  8
SIZE
  6
CONTINUOUS
 62
    30
 10
-50.74999999999272
 20
-225.0252049724269
 30
0.0
 11
50.75000000000091
 21
-225.0252049724269
 31
0.0
  0
TEXT
  5
1147
  8
SIZE
  6
CONTINUOUS
 62
    30
 10
-200.8095961673007
 20
-197.0632833753528
 30
0.0
 40
64.0
  1
φ101.5±1.0
 41
0.9
  0
LINE
  5
1148
  8
SIZE
  6
CONTINUOUS
 62
    30
 10
-50.74999999999272
 20
-20.00000000000216
 30
0.0
 11
-50.74999999999272
 21
-245.0252049724278
 31
0.0
  0
LINE
  5
1149
  8
SIZE
  6
CONTINUOUS
 62
    30
 10
-50.74999999999272
 20
-225.0252049724269
 30
0.0
 11
-90.75
 21
-225.0252049724269
 31
0.0
  0
LINE
  5
114A
  8
SIZE
  6
CONTINUOUS
 62
    30
 10
50.75000000000091
 20
-20.00000000000216
 30
0.0
 11
50.75000000000091
 21
-245.0252049724278
 31
0.0
  0
LINE
  5
114B
  8
SIZE
  6
CONTINUOUS
 62
    30
 10
50.75000000000091
 20
-225.0252049724269
 30
0.0
 11
90.75
 21
-225.0252049724269
 31
0.0
  0
CIRCLE
  5
114C
  8
SIZE
  6
CONTINUOUS
 62
    30
 39
50.0
 10
-63.35399463627982
 20
120.3866069933458
 30
0.0
 40
6.0
  0
CIRCLE
  5
114D
  8
SIZE
  6
CONTINUOUS
 62
    30
 39
50.0
 10
66.64600536372382
 20
120.3866069933458
 30
0.0
 40
6.0
  0
TEXT
  5
114E
  8
SIZE
  6
CONTINUOUS
 62
    30
 10
-205.7475780578879
 20
140.1244290062781
 30
0.0
 40
64.0
  1
φ130±1.5
 41
0.9
  0
LINE
  5
114F
  8
SIZE
  6
CONTINUOUS
 62
    30
 10
-63.35399463627982
 20
120.3866069933458
 30
0.0
 11
66.64600536372382
 21
120.3866069933458
 31
0.0
  0
LINE
  5
1150
  8
SIZE
  6
CONTINUOUS
 62
    30
 10
-63.35399463627982
 20
120.3866069933458
 30
0.0
 11
-103.3539946362798
 21
120.3866069933458
 31
0.0
  0
LINE
  5
1151
  8
SIZE
  6
CONTINUOUS
 62
    30
 10
66.64600536372382
 20
120.3866069933458
 30
0.0
 11
106.6460053637211
 21
120.3866069933458
 31
0.0
  0
CIRCLE
  5
1152
  8
ARRANGE
  6
CONTINUOUS
 62
     1
 39
50.0
 10
0.0
 20
0.0
 30
0.0
 40
40.0
  0
LINE
  5
1153
  8
ARRANGE
  6
CONTINUOUS
 62
     1
 39
50.0
 10
-14.14213562372879
 20
-14.14213562373334
 30
0.0
 11
14.14213562373334
 21
14.14213562372993
 31
0.0
  0
LINE
  5
1154
  8
ARRANGE
  6
CONTINUOUS
 62
     1
 39
50.0
 10
14.14213562373334
 20
-14.14213562373334
 30
0.0
 11
-14.14213562373152
 21
14.14213562372993
 31
0.0
  0
CIRCLE
  5
1155
  8
OUTLINE
  6
CONTINUOUS
 62
     3
 39
50.0
 10
0.0
 20
-0.0000000000029559
 30
0.0
 40
65.0
  0
CIRCLE
  5
1156
  8
OUTLINE
  6
CONTINUOUS
 62
     3
 39
50.0
 10
0.0
 20
-0.0000000000029559
 30
0.0
 40
50.75
  0
TEXT
  5
1158
  8
ETC
  6
CONTINUOUS
 62
    61
 10
442.59510067268
 20
9.142273801582292
 30
0.0
 40
50.0
  1
P-13DSV
 41
0.9
  0
ENDSEC
  0
EOF
