  0
SECTION
  2
HEADER
  9
$ACADVER
  1
AC1009
  9
$DWGCODEPAGE
  3
ansi_932
  9
$INSBASE
 10
0.0
 20
0.0
 30
0.0
  9
$EXTMIN
 10
5373.454120031988
 20
-698.7810584578624
 30
0.0
  9
$EXTMAX
 10
6702.139279600263
 20
11712.30290225803
 30
50.0
  9
$LIMMIN
 10
-2970.0
 20
-2100.0
  9
$LIMMAX
 10
2970.0
 20
2100.0
  9
$ORTHOMODE
 70
     1
  9
$REGENMODE
 70
     0
  9
$FILLMODE
 70
     1
  9
$QTEXTMODE
 70
     0
  9
$MIRRTEXT
 70
     0
  9
$DRAGMODE
 70
     2
  9
$LTSCALE
 40
20.0
  9
$OSMODE
 70
    37
  9
$ATTMODE
 70
     1
  9
$TEXTSIZE
 40
64.0
  9
$TRACEWID
 40
0.05
  9
$TEXTSTYLE
  7
STANDARD
  9
$CLAYER
  8
OUTLINE
  9
$CELTYPE
  6
CONTINUOUS
  9
$CECOLOR
 62
     3
  9
$DIMSCALE
 40
1.0
  9
$DIMASZ
 40
40.0
  9
$DIMEXO
 40
20.0
  9
$DIMDLI
 40
200.0
  9
$DIMRND
 40
0.0
  9
$DIMDLE
 40
0.0
  9
$DIMEXE
 40
20.0
  9
$DIMTP
 40
0.0
  9
$DIMTM
 40
0.0
  9
$DIMTXT
 40
64.0
  9
$DIMCEN
 40
0.09
  9
$DIMTSZ
 40
0.0
  9
$DIMTOL
 70
     1
  9
$DIMLIM
 70
     0
  9
$DIMTIH
 70
     0
  9
$DIMTOH
 70
     0
  9
$DIMSE1
 70
     0
  9
$DIMSE2
 70
     0
  9
$DIMTAD
 70
     1
  9
$DIMZIN
 70
     8
  9
$DIMBLK
  1
NONE
  9
$DIMASO
 70
     1
  9
$DIMSHO
 70
     0
  9
$DIMPOST
  1

  9
$DIMAPOST
  1

  9
$DIMALT
 70
     0
  9
$DIMALTD
 70
     2
  9
$DIMALTF
 40
25.4
  9
$DIMLFAC
 40
1.0
  9
$DIMTOFL
 70
     1
  9
$DIMTVP
 40
0.0
  9
$DIMTIX
 70
     1
  9
$DIMSOXD
 70
     0
  9
$DIMSAH
 70
     0
  9
$DIMBLK1
  1

  9
$DIMBLK2
  1

  9
$DIMSTYLE
  2
STANDARD
  9
$DIMCLRD
 70
     0
  9
$DIMCLRE
 70
     0
  9
$DIMCLRT
 70
     0
  9
$DIMTFAC
 40
1.0
  9
$DIMGAP
 40
20.0
  9
$LUNITS
 70
     2
  9
$LUPREC
 70
     4
  9
$SKETCHINC
 40
0.1
  9
$FILLETRAD
 40
4.0
  9
$AUNITS
 70
     1
  9
$AUPREC
 70
     3
  9
$MENU
  1
ACAD
  9
$ELEVATION
 40
0.0
  9
$PELEVATION
 40
0.0
  9
$THICKNESS
 40
50.0
  9
$LIMCHECK
 70
     0
  9
$CHAMFERA
 40
0.0
  9
$CHAMFERB
 40
0.0
  9
$SKPOLY
 70
     0
  9
$TDCREATE
 40
2451453.493850799
  9
$TDUPDATE
 40
2457485.567016435
  9
$TDINDWG
 40
1.041484838
  9
$TDUSRTIMER
 40
1.0414833681
  9
$USRTIMER
 70
     1
  9
$ANGBASE
 50
0.0
  9
$ANGDIR
 70
     0
  9
$PDMODE
 70
     3
  9
$PDSIZE
 40
-2.0
  9
$PLINEWID
 40
0.0
  9
$COORDS
 70
     1
  9
$SPLFRAME
 70
     0
  9
$SPLINETYPE
 70
     6
  9
$SPLINESEGS
 70
     8
  9
$ATTDIA
 70
     0
  9
$ATTREQ
 70
     1
  9
$HANDLING
 70
     1
  9
$HANDSEED
  5
12A3
  9
$SURFTAB1
 70
     6
  9
$SURFTAB2
 70
     6
  9
$SURFTYPE
 70
     6
  9
$SURFU
 70
     6
  9
$SURFV
 70
     6
  9
$UCSNAME
  2

  9
$UCSORG
 10
0.0
 20
0.0
 30
0.0
  9
$UCSXDIR
 10
1.0
 20
0.0
 30
0.0
  9
$UCSYDIR
 10
0.0
 20
1.0
 30
0.0
  9
$PUCSNAME
  2

  9
$PUCSORG
 10
0.0
 20
0.0
 30
0.0
  9
$PUCSXDIR
 10
1.0
 20
0.0
 30
0.0
  9
$PUCSYDIR
 10
0.0
 20
1.0
 30
0.0
  9
$USERI1
 70
     0
  9
$USERI2
 70
     0
  9
$USERI3
 70
     0
  9
$USERI4
 70
     0
  9
$USERI5
 70
     0
  9
$USERR1
 40
20.0
  9
$USERR2
 40
0.0
  9
$USERR3
 40
0.0
  9
$USERR4
 40
0.0
  9
$USERR5
 40
0.0
  9
$WORLDVIEW
 70
     1
  9
$SHADEDGE
 70
     3
  9
$SHADEDIF
 70
    70
  9
$TILEMODE
 70
     1
  9
$MAXACTVP
 70
    48
  9
$PLIMCHECK
 70
     0
  9
$PEXTMIN
 10
1.000000000000000E+20
 20
1.000000000000000E+20
 30
1.000000000000000E+20
  9
$PEXTMAX
 10
-1.000000000000000E+20
 20
-1.000000000000000E+20
 30
-1.000000000000000E+20
  9
$PLIMMIN
 10
0.0
 20
0.0
  9
$PLIMMAX
 10
12.0
 20
9.0
  9
$UNITMODE
 70
     0
  9
$VISRETAIN
 70
     1
  9
$PLINEGEN
 70
     0
  9
$PSLTSCALE
 70
     1
  0
ENDSEC
  0
SECTION
  2
TABLES
  0
TABLE
  2
VPORT
 70
     1
  0
VPORT
  2
*ACTIVE
 70
     0
 10
0.0
 20
0.0
 11
1.0
 21
1.0
 12
6777.06392181354
 22
4004.290488435056
 13
0.0
 23
0.0
 14
1.0
 24
1.0
 15
0.0
 25
0.0
 16
0.0
 26
0.0
 36
1.0
 17
0.0
 27
0.0
 37
0.0
 40
19549.69394993319
 41
1.513819095477386
 42
50.0
 43
0.0
 44
0.0
 50
0.0
 51
0.0
 71
     0
 72
   100
 73
     1
 74
     1
 75
     0
 76
     0
 77
     0
 78
     0
  0
ENDTAB
  0
TABLE
  2
LTYPE
 70
     3
  0
LTYPE
  2
CONTINUOUS
 70
     0
  3
実線
 72
    65
 73
     0
 40
0.0
  0
LTYPE
  2
DASHDOT
 70
     0
  3
____ _ ____ _ ____ _ ____ _ ____ _ ____ _ ____
 72
    65
 73
     4
 40
5.5
 49
4.0
 49
-0.6
 49
0.3
 49
-0.6
  0
LTYPE
  2
DASHED
 70
     0
  3
Dashed __ __ __ __ __ __ __ __ __ __ __ __ __ _
 72
    65
 73
     2
 40
0.75
 49
0.5
 49
-0.25
  0
ENDTAB
  0
TABLE
  2
LAYER
 70
    12
  0
LAYER
  2
0
 70
     0
 62
     7
  6
CONTINUOUS
  0
LAYER
  2
OUTLINE
 70
     0
 62
     3
  6
CONTINUOUS
  0
LAYER
  2
ARRANGE
 70
     0
 62
     1
  6
CONTINUOUS
  0
LAYER
  2
SIZE
 70
     0
 62
    30
  6
CONTINUOUS
  0
LAYER
  2
BASIS
 70
     0
 62
     6
  6
DASHDOT
  0
LAYER
  2
DETAIL
 70
     0
 62
     5
  6
CONTINUOUS
  0
LAYER
  2
DEFPOINTS
 70
     0
 62
     7
  6
CONTINUOUS
  0
LAYER
  2
ETC
 70
     0
 62
    61
  6
CONTINUOUS
  0
LAYER
  2
FIX
 70
     0
 62
    11
  6
CONTINUOUS
  0
LAYER
  2
NOTE
 70
     0
 62
     4
  6
CONTINUOUS
  0
LAYER
  2
SERVICESPACE
 70
     0
 62
     2
  6
DASHDOT
  0
LAYER
  2
SYMBOLLINE
 70
     0
 62
    15
  6
CONTINUOUS
  0
ENDTAB
  0
TABLE
  2
STYLE
 70
     1
  0
STYLE
  2
STANDARD
 70
     0
 40
64.0
 41
0.9
 50
0.0
 71
     0
 42
64.0
  3
SIMPLEX.shx
  4
BIGFONT.shx
  0
STYLE
  2

 70
     1
 40
0.0
 41
1.0
 50
0.0
 71
     0
 42
64.0
  3
ltypeshp.shx
  4

  0
ENDTAB
  0
TABLE
  2
VIEW
 70
     1
  0
VIEW
  2
ALL
 70
     0
 40
4282.619807999997
 10
0.0
 20
41.30990399999999
 41
5940.0
 11
0.0
 21
0.0
 31
1.0
 12
0.0
 22
0.0
 32
0.0
 42
50.0
 43
0.0
 44
0.0
 50
0.0
 71
     0
  0
ENDTAB
  0
TABLE
  2
UCS
 70
     0
  0
ENDTAB
  0
TABLE
  2
APPID
 70
     1
  0
APPID
  2
ACAD
 70
     0
  0
ENDTAB
  0
TABLE
  2
DIMSTYLE
 70
     1
  0
DIMSTYLE
  2
STANDARD
 70
     0
  3

  4

  5

  6

  7

 40
1.0
 41
0.18
 42
0.0625
 43
0.38
 44
0.18
 45
0.0
 46
0.0
 47
0.0
 48
0.0
140
0.18
141
0.09
142
0.0
143
25.4
144
1.0
145
0.0
146
1.0
147
0.09
 71
     0
 72
     0
 73
     1
 74
     1
 75
     0
 76
     0
 77
     0
 78
     0
170
     0
171
     2
172
     0
173
     0
174
     0
175
     0
176
     0
177
     0
178
     0
  0
ENDTAB
  0
ENDSEC
  0
SECTION
  2
BLOCKS
  0
BLOCK
  8
0
  2
$MODEL_SPACE
 70
     0
 10
0.0
 20
0.0
 30
0.0
  3
$MODEL_SPACE
  1

  0
ENDBLK
  5
1178
  8
0
  0
BLOCK
 67
     1
  8
0
  2
$PAPER_SPACE
 70
     0
 10
0.0
 20
0.0
 30
0.0
  3
$PAPER_SPACE
  1

  0
ENDBLK
  5
1174
 67
     1
  8
0
  0
BLOCK
  8
0
  2
DOT1
 70
     0
 10
0.0
 20
0.0
 30
0.0
  3
DOT1
  1

  0
CIRCLE
  5
1196
  8
SIZE
  6
CONTINUOUS
 62
     7
 10
0.0
 20
0.0
 30
0.0
 40
3.0
  0
ENDBLK
  5
1197
  8
0
  0
BLOCK
  8
0
  2
_ORIGIN
 70
     0
 10
0.0
 20
0.0
 30
0.0
  3
_ORIGIN
  1

  0
CIRCLE
  5
119A
  8
0
  6
CONTINUOUS
 62
     7
 10
0.0
 20
0.0
 30
0.0
 40
0.5
  0
LINE
  5
119B
  8
0
  6
CONTINUOUS
 62
     7
 10
0.0
 20
0.0
 30
0.0
 11
-1.0
 21
0.0
 31
0.0
  0
ENDBLK
  5
119C
  8
0
  0
BLOCK
  8
0
  2
_NONE
 70
     0
 10
0.0
 20
0.0
 30
0.0
  3
_NONE
  1

  0
ENDBLK
  5
119F
  8
0
 62
    30
  0
BLOCK
  8
0
  2
_OPEN30
 70
     0
 10
0.0
 20
0.0
 30
0.0
  3
_OPEN30
  1

  0
LINE
  5
11A2
  8
0
  6
BYBLOCK
 62
     0
 10
-1.0
 20
0.26794919
 30
0.0
 11
0.0
 21
0.0
 31
0.0
  0
LINE
  5
11A3
  8
0
  6
BYBLOCK
 62
     0
 10
0.0
 20
0.0
 30
0.0
 11
-1.0
 21
-0.26794919
 31
0.0
  0
LINE
  5
11A4
  8
0
  6
BYBLOCK
 62
     0
 10
0.0
 20
0.0
 30
0.0
 11
-1.0
 21
0.0
 31
0.0
  0
ENDBLK
  5
11A5
  8
0
 62
    30
  0
BLOCK
  8
0
  2
A$C4FEE6482
 70
     0
 10
0.0
 20
0.0
 30
0.0
  3
A$C4FEE6482
  1

  0
TEXT
  5
11A8
  8
SIZE
  6
CONTINUOUS
 62
    30
 10
64.00000143352418
 20
-11.51999903551953
 30
0.0
 40
64.0
  1
φ155
 50
90.0
 41
0.9
 72
     1
 11
64.00000143352418
 21
97.37142953590904
 31
0.0
  0
TEXT
  5
11A9
  8
ETC
  6
CONTINUOUS
 62
    61
 10
902.534005433524
 20
522.747342535909
 30
0.0
 40
64.0
  1
換気扇
 41
0.9
  0
ENDBLK
  5
11AA
  8
0
 62
    30
  0
BLOCK
  8
0
  2
A$C5B1D2A78
 70
     0
 10
0.0
 20
0.0
 30
0.0
  3
A$C5B1D2A78
  1

  0
TEXT
  5
11AD
  8
SIZE
  6
CONTINUOUS
 62
    30
 10
64.00000143352418
 20
-11.51999903551953
 30
0.0
 40
64.0
  1
φ155
 50
90.0
 41
0.9
 72
     1
 11
64.00000143352418
 21
97.37142953590904
 31
0.0
  0
TEXT
  5
11AE
  8
ETC
  6
CONTINUOUS
 62
    61
 10
902.534005433524
 20
522.747342535909
 30
0.0
 40
64.0
  1
換気扇
 41
0.9
  0
ENDBLK
  5
11AF
  8
0
 62
    30
  0
BLOCK
  8
0
  2
A$C251A2A22
 70
     0
 10
0.0
 20
0.0
 30
0.0
  3
A$C251A2A22
  1

  0
TEXT
  5
11B2
  8
SIZE
  6
CONTINUOUS
 62
    30
 10
-11.52000047316231
 20
0.0000004848675417
 30
0.0
 40
64.0
  1
φ101.5±1.0
 41
0.9
  0
ENDBLK
  5
11B3
  8
0
 62
     3
  0
BLOCK
  8
0
  2
*D7
 70
     1
 10
0.0
 20
0.0
 30
0.0
  3
*D7
  1

  0
LINE
  5
11B6
  8
SIZE
  6
CONTINUOUS
 62
     0
 10
5552.372520871777
 20
11537.78497420268
 30
0.0
 11
5552.372520871777
 21
11640.2133972478
 31
0.0
  0
LINE
  5
11B7
  8
SIZE
  6
CONTINUOUS
 62
     0
 10
5653.872520871777
 20
11537.78497420268
 30
0.0
 11
5653.872520871777
 21
11640.2133972478
 31
0.0
  0
LINE
  5
11B8
  8
SIZE
  6
CONTINUOUS
 62
     0
 10
5552.372520871777
 20
11620.2133972478
 30
0.0
 11
5512.372520871777
 21
11620.2133972478
 31
0.0
  0
LINE
  5
11B9
  8
SIZE
  6
CONTINUOUS
 62
     0
 10
5653.872520871777
 20
11620.2133972478
 30
0.0
 11
5693.872520871777
 21
11620.2133972478
 31
0.0
  0
LINE
  5
11BA
  8
SIZE
  6
CONTINUOUS
 62
     0
 10
5552.372520871777
 20
11620.2133972478
 30
0.0
 11
5653.872520871777
 21
11620.2133972478
 31
0.0
  0
TEXT
  5
11BB
  8
OUTLINE
  6
CONTINUOUS
 62
     0
 10
5313.476806586063
 20
11640.2133972478
 30
0.0
 40
64.0
  1
101.5±0.0000
 41
0.9
  0
POINT
  5
11BC
  8
DEFPOINTS
  6
CONTINUOUS
 62
     0
 10
5552.372520871777
 20
11517.78497420268
 30
0.0
  0
POINT
  5
11BD
  8
DEFPOINTS
  6
CONTINUOUS
 62
     0
 10
5653.872520871777
 20
11517.78497420268
 30
0.0
  0
POINT
  5
11BE
  8
DEFPOINTS
  6
CONTINUOUS
 62
     0
 10
5653.872520871777
 20
11620.2133972478
 30
0.0
  0
ENDBLK
  5
11BF
  8
0
 62
    30
  0
BLOCK
  8
0
  2
*D8
 70
     1
 10
0.0
 20
0.0
 30
0.0
  3
*D8
  1

  0
LINE
  5
11C2
  8
SIZE
  6
CONTINUOUS
 62
     0
 10
5688.122520871779
 20
11517.78497420268
 30
0.0
 11
5863.115831600469
 21
11517.78497420268
 31
0.0
  0
LINE
  5
11C3
  8
SIZE
  6
CONTINUOUS
 62
     0
 10
5688.122520871779
 20
-482.2150257973183
 30
0.0
 11
5863.115831600467
 21
-482.2150257973183
 31
0.0
  0
LINE
  5
11C4
  8
SIZE
  6
CONTINUOUS
 62
     0
 10
5843.115831600467
 20
11517.78497420268
 30
0.0
 11
5843.115831600464
 21
-482.2150257973183
 31
0.0
  0
TEXT
  5
11C5
  8
OUTLINE
  6
CONTINUOUS
 62
     0
 10
5823.115831600467
 20
5093.69780309824
 30
0.0
 40
64.0
  1
12000±0.0000
 50
90.0
 41
0.9
  0
POINT
  5
11C6
  8
DEFPOINTS
  6
CONTINUOUS
 62
     0
 10
5668.122520871779
 20
11517.78497420268
 30
0.0
  0
POINT
  5
11C7
  8
DEFPOINTS
  6
CONTINUOUS
 62
     0
 10
5668.122520871779
 20
-482.2150257973183
 30
0.0
  0
POINT
  5
11C8
  8
DEFPOINTS
  6
CONTINUOUS
 62
     0
 10
5843.115831600464
 20
-482.2150257973183
 30
0.0
  0
ENDBLK
  5
11C9
  8
0
 62
    30
  0
ENDSEC
  0
SECTION
  2
ENTITIES
  0
LINE
  5
11CA
  8
DETAIL
  6
CONTINUOUS
 62
     5
 39
50.0
 10
65.00000000000091
 20
0.0
 30
0.0
 11
65.00000000000091
 21
12000.0
 31
0.0
  0
LINE
  5
11CB
  8
DETAIL
  6
CONTINUOUS
 62
     5
 39
50.0
 10
-65.00000000000091
 20
12000.0
 30
0.0
 11
-65.00000000000182
 21
0.0
 31
0.0
  0
LINE
  5
11CC
  8
BASIS
  6
DASHDOT
 62
     6
 39
50.0
 10
-0.000000000001819
 20
12031.19107524817
 30
0.0
 11
-0.000000000001819
 21
-31.03468085554778
 31
0.0
  0
LINE
  5
11CD
  8
DETAIL
  6
CONTINUOUS
 62
     5
 39
50.0
 10
-64.99999999999909
 20
9.390063347234104
 30
0.0
 11
65.00000000000091
 21
43.29860201827228
 31
0.0
  0
LINE
  5
11CE
  8
DETAIL
  6
CONTINUOUS
 62
     5
 39
50.0
 10
-65.00000000000182
 20
60.22901602273305
 30
0.0
 11
65.00000000000091
 21
95.06241103877716
 31
0.0
  0
LINE
  5
11CF
  8
DETAIL
  6
CONTINUOUS
 62
     5
 39
50.0
 10
-65.00000000000182
 20
111.9928250432358
 30
0.0
 11
65.00000000000091
 21
146.82622005928
 31
0.0
  0
LINE
  5
11D0
  8
DETAIL
  6
CONTINUOUS
 62
     5
 39
50.0
 10
-65.00000000000182
 20
163.756634063743
 30
0.0
 11
65.00000000000091
 21
198.5900290797881
 31
0.0
  0
LINE
  5
11D1
  8
DETAIL
  6
CONTINUOUS
 62
     5
 39
50.0
 10
-65.00000000000182
 20
215.5204430842459
 30
0.0
 11
65.00000000000091
 21
250.3538381002907
 31
0.0
  0
LINE
  5
11D2
  8
DETAIL
  6
CONTINUOUS
 62
     5
 39
50.0
 10
-65.00000000000182
 20
267.2842521047477
 30
0.0
 11
65.00000000000091
 21
302.1176471207962
 31
0.0
  0
LINE
  5
11D3
  8
DETAIL
  6
CONTINUOUS
 62
     5
 39
50.0
 10
-65.00000000000182
 20
319.0480611252551
 30
0.0
 11
60.58399521197407
 21
352.6981912245764
 31
0.0
  0
LINE
  5
11D4
  8
DETAIL
  6
CONTINUOUS
 62
     5
 39
50.0
 10
-65.00000000000091
 20
11674.13333051496
 30
0.0
 11
65.00000000000091
 21
11708.96672553101
 31
0.0
  0
LINE
  5
11D5
  8
DETAIL
  6
CONTINUOUS
 62
     5
 39
50.0
 10
-65.00000000000091
 20
11725.89713953547
 30
0.0
 11
65.00000000000091
 21
11760.73053455149
 31
0.0
  0
LINE
  5
11D6
  8
DETAIL
  6
CONTINUOUS
 62
     5
 39
50.0
 10
-65.00000000000091
 20
11777.66094855597
 30
0.0
 11
65.00000000000091
 21
11812.494343572
 31
0.0
  0
LINE
  5
11D7
  8
DETAIL
  6
CONTINUOUS
 62
     5
 39
50.0
 10
-65.00000000000091
 20
11829.42475757647
 30
0.0
 11
65.00000000000091
 21
11864.25815259252
 31
0.0
  0
LINE
  5
11D8
  8
DETAIL
  6
CONTINUOUS
 62
     5
 39
50.0
 10
-65.00000000000091
 20
11881.18856659697
 30
0.0
 11
65.00000000000091
 21
11916.02196161303
 31
0.0
  0
LINE
  5
11D9
  8
DETAIL
  6
CONTINUOUS
 62
     5
 39
50.0
 10
-65.00000000000091
 20
11932.95237561749
 30
0.0
 11
65.00000000000091
 21
11967.78577063352
 31
0.0
  0
LINE
  5
11DA
  8
SIZE
  6
CONTINUOUS
 62
    30
 10
-65.00000000000182
 20
-9.891164174085304
 30
0.0
 11
-65.00000000000182
 21
-216.5660326605441
 31
0.0
  0
LINE
  5
11DB
  8
SIZE
  6
CONTINUOUS
 62
    30
 10
65.00000000000091
 20
-14.8615890927461
 30
0.0
 11
65.00000000000091
 21
-216.5660326605441
 31
0.0
  0
LINE
  5
11DC
  8
SIZE
  6
CONTINUOUS
 62
    30
 10
-65.00000000000182
 20
-193.8628345650679
 30
0.0
 11
-105.0
 21
-193.8628345650679
 31
0.0
  0
LINE
  5
11DD
  8
SIZE
  6
CONTINUOUS
 62
    30
 10
65.00000000000091
 20
-193.8628345650679
 30
0.0
 11
104.9999999999982
 21
-193.8628345650679
 31
0.0
  0
LINE
  5
11DE
  8
SIZE
  6
CONTINUOUS
 62
    30
 10
-65.00000000000182
 20
-193.8628345650679
 30
0.0
 11
65.00000000000091
 21
-193.8628345650679
 31
0.0
  0
TEXT
  5
11DF
  8
SIZE
  6
CONTINUOUS
 62
    30
 10
208.8727743901363
 20
5632.779736299523
 30
0.0
 40
64.0
  1
12000
 50
90.0
 41
0.9
  0
CIRCLE
  5
11E0
  8
SIZE
  6
CONTINUOUS
 62
    30
 39
50.0
 10
-65.00000000000182
 20
-193.8628345650682
 30
0.0
 40
6.0
  0
CIRCLE
  5
11E1
  8
SIZE
  6
CONTINUOUS
 62
    30
 39
50.0
 10
65.00000000000091
 20
-193.8628345650682
 30
0.0
 40
6.0
  0
TEXT
  5
11E2
  8
ETC
  6
CONTINUOUS
 62
    61
 10
538.8470178252164
 20
12025.72113607566
 30
0.0
 40
64.0
  1
システム部材
 41
0.9
  0
TEXT
  5
11E3
  8
ETC
  6
CONTINUOUS
 62
    61
 10
547.7024730141984
 20
12107.96205490128
 30
0.0
 40
64.0
  1
P-13DSV2_6
 41
0.9
  0
TEXT
  5
11E4
  8
ETC
  6
CONTINUOUS
 62
    61
 10
675.464710601379
 20
11950.05950500953
 30
0.0
 40
50.0
  1
P-13DSV2
 41
0.9
  0
TEXT
  5
11E5
  8
SIZE
  6
CONTINUOUS
 62
    30
 10
-208.4223705496561
 20
-177.2329164392655
 30
0.0
 40
64.0
  1
φ130±1.5
 41
0.9
  0
TEXT
  5
11E6
  8
SIZE
  6
CONTINUOUS
 62
    30
 10
165.3254339353598
 20
5906.423616065144
 30
0.0
 40
44.79999999999999
  1
+600
 50
90.0
 41
0.9
  0
TEXT
  5
11E7
  8
SIZE
  6
CONTINUOUS
 62
    30
 10
225.0587672686952
 20
5906.423616065144
 30
0.0
 40
44.79999999999999
  1
  0
 50
90.0
 41
0.9
  0
LINE
  5
11E8
  8
DETAIL
  6
DASHED
 62
     5
 39
50.0
 10
-50.75000000000091
 20
12000.0
 30
0.0
 11
-50.75000000000091
 21
11656.25536567459
 31
0.0
  0
LINE
  5
11E9
  8
DETAIL
  6
DASHED
 62
     5
 39
50.0
 10
50.74999999999909
 20
12000.0
 30
0.0
 11
50.74999999999909
 21
11670.34312985907
 31
0.0
  0
LINE
  5
11EA
  8
DETAIL
  6
DASHED
 62
     5
 39
50.0
 10
-50.75000000000182
 20
342.9339053053881
 30
0.0
 11
-50.75000000000182
 21
0.0
 31
0.0
  0
LINE
  5
11EB
  8
DETAIL
  6
DASHED
 62
     5
 39
50.0
 10
50.74999999999818
 20
357.0216694898708
 30
0.0
 11
50.75000000000091
 21
0.0
 31
0.0
  0
TEXT
  5
11EC
  8
SIZE
  6
CONTINUOUS
 62
    30
 10
-241.1884008397901
 20
12130.51792805536
 30
0.0
 40
64.0
  1
φ101.5±1.0
 41
0.9
  0
LINE
  5
11ED
  8
DETAIL
  6
CONTINUOUS
 62
     5
 39
50.0
 10
-65.00000000000182
 20
0.0
 30
0.0
 11
65.00000000000091
 21
0.0
 31
0.0
  0
LINE
  5
11EE
  8
DETAIL
  6
CONTINUOUS
 62
     5
 39
50.0
 10
-65.00000000000091
 20
11984.71618463799
 30
0.0
 11
-7.960024535490447
 21
12000.0
 31
0.0
  0
CIRCLE
  5
11EF
  8
ARRANGE
  6
CONTINUOUS
 62
     1
 39
50.0
 10
0.0
 20
0.0
 30
0.0
 40
40.0
  0
LINE
  5
11F0
  8
ARRANGE
  6
CONTINUOUS
 62
     1
 39
50.0
 10
14.14213562373243
 20
-14.14213562373101
 30
0.0
 11
-14.1421356237297
 21
14.14213562373095
 31
0.0
  0
LINE
  5
11F1
  8
ARRANGE
  6
CONTINUOUS
 62
     1
 39
50.0
 10
-14.1421356237297
 20
-14.14213562373101
 30
0.0
 11
14.14213562373243
 21
14.14213562373095
 31
0.0
  0
LINE
  5
11F2
  8
DETAIL
  6
CONTINUOUS
 62
     5
 39
50.0
 10
-65.00000000000182
 20
12000.0
 30
0.0
 11
65.00000000000091
 21
12000.0
 31
0.0
  0
CIRCLE
  5
11F3
  8
SIZE
  6
CONTINUOUS
 62
    30
 39
50.0
 10
-50.75000000000091
 20
12102.42842304512
 30
0.0
 40
6.0
  0
CIRCLE
  5
11F4
  8
SIZE
  6
CONTINUOUS
 62
    30
 39
50.0
 10
50.74999999999909
 20
12102.42842304512
 30
0.0
 40
6.0
  0
CIRCLE
  5
11F5
  8
SIZE
  6
CONTINUOUS
 62
    30
 39
50.0
 10
239.9933107286888
 20
12000.0
 30
0.0
 40
6.0
  0
CIRCLE
  5
11F6
  8
SIZE
  6
CONTINUOUS
 62
    30
 39
50.0
 10
239.9933107286861
 20
0.0
 30
0.0
 40
6.0
  0
LINE
  5
11F7
  8
SIZE
  6
CONTINUOUS
 62
    30
 10
85.00000000000091
 20
12000.0
 30
0.0
 11
259.9933107286915
 21
12000.0
 31
0.0
  0
LINE
  5
11F8
  8
SIZE
  6
CONTINUOUS
 62
    30
 10
85.00000000000091
 20
0.0
 30
0.0
 11
259.9933107286888
 21
0.0
 31
0.0
  0
LINE
  5
11F9
  8
SIZE
  6
CONTINUOUS
 62
    30
 10
239.9933107286888
 20
12000.0
 30
0.0
 11
239.9933107286861
 21
0.0
 31
0.0
  0
LINE
  5
11FA
  8
SIZE
  6
CONTINUOUS
 62
    30
 10
-50.75000000000091
 20
12020.0
 30
0.0
 11
-50.75000000000091
 21
12122.42842304512
 31
0.0
  0
LINE
  5
11FB
  8
SIZE
  6
CONTINUOUS
 62
    30
 10
50.74999999999909
 20
12020.0
 30
0.0
 11
50.74999999999909
 21
12122.42842304512
 31
0.0
  0
LINE
  5
11FC
  8
SIZE
  6
CONTINUOUS
 62
    30
 10
-50.75000000000091
 20
12102.42842304512
 30
0.0
 11
-90.75000000000091
 21
12102.42842304512
 31
0.0
  0
LINE
  5
11FD
  8
SIZE
  6
CONTINUOUS
 62
    30
 10
50.74999999999909
 20
12102.42842304512
 30
0.0
 11
90.74999999999909
 21
12102.42842304512
 31
0.0
  0
LINE
  5
11FE
  8
SIZE
  6
CONTINUOUS
 62
    30
 10
-50.75000000000091
 20
12102.42842304512
 30
0.0
 11
50.74999999999909
 21
12102.42842304512
 31
0.0
  0
LINE
  5
11FF
  8
OUTLINE
  6
CONTINUOUS
 62
     3
 39
50.0
 10
-65.00000000000182
 20
12000.0
 30
0.0
 11
65.00000000000091
 21
12000.0
 31
0.0
  0
LINE
  5
1200
  8
OUTLINE
  6
CONTINUOUS
 62
     3
 39
50.0
 10
65.00000000000091
 20
12000.0
 30
0.0
 11
65.00000000000091
 21
0.0
 31
0.0
  0
LINE
  5
1201
  8
OUTLINE
  6
CONTINUOUS
 62
     3
 39
50.0
 10
65.00000000000091
 20
0.0
 30
0.0
 11
-65.00000000000182
 21
-0.000000000000739
 31
0.0
  0
LINE
  5
1202
  8
OUTLINE
  6
CONTINUOUS
 62
     3
 39
50.0
 10
-65.00000000000182
 20
-0.000000000000739
 30
0.0
 11
-65.00000000000091
 21
12000.0
 31
0.0
  0
TEXT
  5
1204
  8
ETC
  6
CONTINUOUS
 62
    61
 10
673.3901223776693
 20
11873.33194132178
 30
0.0
 40
50.0
  1
P-13DSV
 41
0.9
  0
ENDSEC
  0
EOF
