  0
SECTION
  2
HEADER
  9
$ACADVER
  1
AC1009
  9
$INSBASE
 10
0.0
 20
0.0
 30
0.0
  9
$EXTMIN
 10
-452.27964632478682
 20
-395.73668257302779
 30
-0.0015258207003583
  9
$EXTMAX
 10
779.02680571310339
 20
535.12574037900777
 30
50.000000093132272
  9
$LIMMIN
 10
-2970.0
 20
-2100.0
  9
$LIMMAX
 10
2970.0
 20
2100.0
  9
$ORTHOMODE
 70
     0
  9
$REGENMODE
 70
     0
  9
$FILLMODE
 70
     1
  9
$QTEXTMODE
 70
     0
  9
$MIRRTEXT
 70
     0
  9
$DRAGMODE
 70
     2
  9
$LTSCALE
 40
20.0
  9
$OSMODE
 70
    37
  9
$ATTMODE
 70
     1
  9
$TEXTSIZE
 40
64.0
  9
$TRACEWID
 40
0.05
  9
$TEXTSTYLE
  7
STANDARD
  9
$CLAYER
  8
SIZE
  9
$CELTYPE
  6
CONTINUOUS
  9
$CECOLOR
 62
    30
  9
$DIMSCALE
 40
1.0
  9
$DIMASZ
 40
12.0
  9
$DIMEXO
 40
20.0
  9
$DIMDLI
 40
200.0
  9
$DIMRND
 40
0.0
  9
$DIMDLE
 40
0.0
  9
$DIMEXE
 40
20.0
  9
$DIMTP
 40
0.0
  9
$DIMTM
 40
0.0
  9
$DIMTXT
 40
64.0
  9
$DIMCEN
 40
0.09
  9
$DIMTSZ
 40
0.0
  9
$DIMTOL
 70
     0
  9
$DIMLIM
 70
     0
  9
$DIMTIH
 70
     0
  9
$DIMTOH
 70
     0
  9
$DIMSE1
 70
     0
  9
$DIMSE2
 70
     0
  9
$DIMTAD
 70
     1
  9
$DIMZIN
 70
     8
  9
$DIMBLK
  1
DOT1
  9
$DIMASO
 70
     1
  9
$DIMSHO
 70
     0
  9
$DIMPOST
  1

  9
$DIMAPOST
  1

  9
$DIMALT
 70
     0
  9
$DIMALTD
 70
     2
  9
$DIMALTF
 40
25.399999999999999
  9
$DIMLFAC
 40
1.0
  9
$DIMTOFL
 70
     1
  9
$DIMTVP
 40
0.0
  9
$DIMTIX
 70
     1
  9
$DIMSOXD
 70
     0
  9
$DIMSAH
 70
     1
  9
$DIMBLK1
  1
ORIGIN
  9
$DIMBLK2
  1
ORIGIN
  9
$DIMSTYLE
  2
STANDARD
  9
$DIMCLRD
 70
     0
  9
$DIMCLRE
 70
     0
  9
$DIMCLRT
 70
     0
  9
$DIMTFAC
 40
1.0
  9
$DIMGAP
 40
0.09
  9
$LUNITS
 70
     2
  9
$LUPREC
 70
     4
  9
$SKETCHINC
 40
0.1
  9
$FILLETRAD
 40
1.5
  9
$AUNITS
 70
     1
  9
$AUPREC
 70
     3
  9
$MENU
  1
ACAD
  9
$ELEVATION
 40
0.0
  9
$PELEVATION
 40
0.0
  9
$THICKNESS
 40
50.0
  9
$LIMCHECK
 70
     0
  9
$BLIPMODE
 70
     0
  9
$CHAMFERA
 40
0.0
  9
$CHAMFERB
 40
0.0
  9
$SKPOLY
 70
     0
  9
$TDCREATE
 40
2452321.3961996529
  9
$TDUPDATE
 40
2454826.4313838892
  9
$TDINDWG
 40
0.2577376852
  9
$TDUSRTIMER
 40
0.2577376852
  9
$USRTIMER
 70
     1
  9
$ANGBASE
 50
0.0
  9
$ANGDIR
 70
     0
  9
$PDMODE
 70
     3
  9
$PDSIZE
 40
-2.0
  9
$PLINEWID
 40
0.0
  9
$COORDS
 70
     0
  9
$SPLFRAME
 70
     0
  9
$SPLINETYPE
 70
     6
  9
$SPLINESEGS
 70
     8
  9
$ATTDIA
 70
     0
  9
$ATTREQ
 70
     1
  9
$HANDLING
 70
     1
  9
$HANDSEED
  5
165
  9
$SURFTAB1
 70
     6
  9
$SURFTAB2
 70
     6
  9
$SURFTYPE
 70
     6
  9
$SURFU
 70
     6
  9
$SURFV
 70
     6
  9
$UCSNAME
  2

  9
$UCSORG
 10
0.0
 20
0.0
 30
0.0
  9
$UCSXDIR
 10
1.0
 20
0.0
 30
0.0
  9
$UCSYDIR
 10
0.0
 20
1.0
 30
0.0
  9
$PUCSNAME
  2

  9
$PUCSORG
 10
0.0
 20
0.0
 30
0.0
  9
$PUCSXDIR
 10
1.0
 20
0.0
 30
0.0
  9
$PUCSYDIR
 10
0.0
 20
1.0
 30
0.0
  9
$USERI1
 70
     0
  9
$USERI2
 70
     0
  9
$USERI3
 70
     0
  9
$USERI4
 70
     0
  9
$USERI5
 70
     0
  9
$USERR1
 40
20.0
  9
$USERR2
 40
0.0
  9
$USERR3
 40
0.0
  9
$USERR4
 40
0.0
  9
$USERR5
 40
0.0
  9
$WORLDVIEW
 70
     1
  9
$SHADEDGE
 70
     3
  9
$SHADEDIF
 70
    70
  9
$TILEMODE
 70
     1
  9
$MAXACTVP
 70
    64
  9
$PLIMCHECK
 70
     0
  9
$PEXTMIN
 10
1.0000000000000000E+020
 20
1.0000000000000000E+020
 30
1.0000000000000000E+020
  9
$PEXTMAX
 10
-1.0000000000000000E+020
 20
-1.0000000000000000E+020
 30
-1.0000000000000000E+020
  9
$PLIMMIN
 10
0.0
 20
0.0
  9
$PLIMMAX
 10
12.0
 20
9.0
  9
$UNITMODE
 70
     0
  9
$VISRETAIN
 70
     1
  9
$PLINEGEN
 70
     0
  9
$PSLTSCALE
 70
     1
  0
ENDSEC
  0
SECTION
  2
TABLES
  0
TABLE
  2
VPORT
 70
     1
  0
VPORT
  2
*ACTIVE
 70
     0
 10
0.0
 20
0.0
 11
1.0
 21
1.0
 12
194.9979380404838
 22
65.551602453279202
 13
0.0
 23
0.0
 14
1.0
 24
1.0
 15
0.0
 25
0.0
 16
0.0
 26
0.0
 36
1.0
 17
0.0
 27
0.0
 37
0.0
 40
1502.5021663817799
 41
1.3426470588235291
 42
50.0
 43
0.0
 44
0.0
 50
0.0
 51
0.0
 71
     0
 72
   100
 73
     1
 74
     0
 75
     0
 76
     0
 77
     0
 78
     0
  0
ENDTAB
  0
TABLE
  2
LTYPE
 70
     3
  0
LTYPE
  2
CONTINUOUS
 70
     0
  3
実線
 72
    65
 73
     0
 40
0.0
  0
LTYPE
  2
DASHDOT
 70
     0
  3
____ _ ____ _ ____ _ ____ _ ____ _ ____ _ ____
 72
    65
 73
     4
 40
5.5
 49
4.0
 49
-0.6
 49
0.3
 49
-0.6
  0
ENDTAB
  0
TABLE
  2
LAYER
 70
    12
  0
LAYER
  2
0
 70
     0
 62
     7
  6
CONTINUOUS
  0
LAYER
  2
SIZE
 70
     0
 62
    30
  6
CONTINUOUS
  0
LAYER
  2
BASIS
 70
     0
 62
     6
  6
DASHDOT
  0
LAYER
  2
OUTLINE
 70
     0
 62
     3
  6
CONTINUOUS
  0
LAYER
  2
DETAIL
 70
     0
 62
     5
  6
CONTINUOUS
  0
LAYER
  2
ARRANGE
 70
     0
 62
     1
  6
CONTINUOUS
  0
LAYER
  2
DEFPOINTS
 70
     0
 62
     7
  6
CONTINUOUS
  0
LAYER
  2
ETC
 70
     0
 62
    61
  6
CONTINUOUS
  0
LAYER
  2
FIX
 70
     0
 62
    11
  6
CONTINUOUS
  0
LAYER
  2
NOTE
 70
     0
 62
     4
  6
CONTINUOUS
  0
LAYER
  2
SERVICESPACE
 70
     0
 62
     2
  6
DASHDOT
  0
LAYER
  2
SYMBOLLINE
 70
     0
 62
    15
  6
CONTINUOUS
  0
ENDTAB
  0
TABLE
  2
STYLE
 70
     2
  0
STYLE
  2
STANDARD
 70
     0
 40
64.0
 41
0.9
 50
0.0
 71
     0
 42
64.0
  3
SIMPLEX.shx
  4
BIGFONT.shx
  0
STYLE
  2
ANNOTATIVE
 70
     0
 40
0.0
 41
1.0
 50
0.0
 71
     0
 42
0.2
  3
txt
  4

  0
ENDTAB
  0
TABLE
  2
VIEW
 70
     1
  0
VIEW
  2
ALL
 70
     0
 40
4282.6198079999986
 10
0.0
 20
41.309903999999989
 41
5940.0
 11
0.0
 21
0.0
 31
1.0
 12
0.0
 22
0.0
 32
0.0
 42
50.0
 43
0.0
 44
0.0
 50
0.0
 71
     0
  0
ENDTAB
  0
TABLE
  2
UCS
 70
     0
  0
ENDTAB
  0
TABLE
  2
APPID
 70
     4
  0
APPID
  2
ACAD
 70
     0
  0
APPID
  2
ACADANNOTATIVE
 70
     0
  0
APPID
  2
ACAD_MLEADERVER
 70
     0
  0
APPID
  2
ACAD_EXEMPT_FROM_CAD_STANDARDS
 70
     0
  0
ENDTAB
  0
TABLE
  2
DIMSTYLE
 70
     2
  0
DIMSTYLE
  2
STANDARD
 70
     0
  3

  4

  5

  6

  7

 40
1.0
 41
0.18
 42
0.0625
 43
0.38
 44
0.18
 45
0.0
 46
0.0
 47
0.0
 48
0.0
140
0.18
141
0.09
142
0.0
143
25.399999999999999
144
1.0
145
0.0
146
1.0
147
0.09
 71
     0
 72
     0
 73
     1
 74
     1
 75
     0
 76
     0
 77
     0
 78
     0
170
     0
171
     2
172
     0
173
     0
174
     0
175
     0
176
     0
177
     0
178
     0
  0
DIMSTYLE
  2
ANNOTATIVE
 70
     0
  3

  4

  5

  6

  7

 40
1.0
 41
0.18
 42
0.0625
 43
0.38
 44
0.18
 45
0.0
 46
0.0
 47
0.0
 48
0.0
140
0.18
141
0.09
142
0.0
143
25.399999999999999
144
1.0
145
0.0
146
1.0
147
0.09
 71
     0
 72
     0
 73
     1
 74
     1
 75
     0
 76
     0
 77
     0
 78
     0
170
     0
171
     2
172
     0
173
     0
174
     0
175
     0
176
     0
177
     0
178
     0
  0
ENDTAB
  0
ENDSEC
  0
SECTION
  2
BLOCKS
  0
BLOCK
  8
0
  2
$MODEL_SPACE
 70
     0
 10
0.0
 20
0.0
 30
0.0
  3
$MODEL_SPACE
  1

  0
ENDBLK
  5
76
  8
0
  0
BLOCK
 67
     1
  8
0
  2
$PAPER_SPACE
 70
     0
 10
0.0
 20
0.0
 30
0.0
  3
$PAPER_SPACE
  1

  0
ENDBLK
  5
72
 67
     1
  8
0
  0
BLOCK
  8
0
  2
DOT1
 70
     0
 10
0.0
 20
0.0
 30
0.0
  3
DOT1
  1

  0
CIRCLE
  5
8B
  8
SIZE
  6
CONTINUOUS
 62
     7
 10
0.0
 20
0.0
 30
0.0
 40
3.0
  0
ENDBLK
  5
8C
  8
0
  0
BLOCK
  8
0
  2
_ORIGIN
 70
     0
 10
0.0
 20
0.0
 30
0.0
  3
_ORIGIN
  1

  0
CIRCLE
  5
8F
  8
0
  6
CONTINUOUS
 62
     7
 10
0.0
 20
0.0
 30
0.0
 40
0.5
  0
LINE
  5
90
  8
0
  6
CONTINUOUS
 62
     7
 10
0.0
 20
0.0
 30
0.0
 11
-1.0
 21
0.0
 31
0.0
  0
ENDBLK
  5
91
  8
0
  0
ENDSEC
  0
SECTION
  2
ENTITIES
  0
LINE
  5
94
  8
BASIS
  6
DASHDOT
 62
     6
 39
50.0
 10
-147.53625299999999
 20
-52.0
 30
0.0
 11
151.300094
 21
-52.0
 31
0.0
  0
LINE
  5
95
  8
DETAIL
  6
CONTINUOUS
 62
     5
 39
50.0
 10
-40.0
 20
44.0
 30
0.0
 11
40.0
 21
44.0
 31
0.0
  0
LINE
  5
96
  8
DETAIL
  6
CONTINUOUS
 62
     5
 39
50.0
 10
-40.0
 20
43.0
 30
0.0
 11
40.0
 21
43.0
 31
0.0
  0
LINE
  5
97
  8
BASIS
  6
DASHDOT
 62
     6
 39
50.0
 10
0.0
 20
-122.70728
 30
0.0
 11
0.0
 21
74.167396999999994
 31
0.0
  0
LINE
  5
98
  8
NOTE
  6
CONTINUOUS
 62
     4
 10
0.0
 20
24.0
 30
0.0
 11
0.0
 21
64.0
 31
0.0
  0
LINE
  5
99
  8
NOTE
  6
CONTINUOUS
 62
     4
 10
-20.0
 20
44.0
 30
0.0
 11
20.0
 21
44.0
 31
0.0
  0
CIRCLE
  5
9A
  8
FIX
  6
CONTINUOUS
 62
    11
 39
50.0
 10
0.0
 20
44.0
 30
0.0
 40
5.0
  0
TEXT
  5
9B
  8
NOTE
  6
CONTINUOUS
 62
     4
 10
140.651398
 20
166.87311800000001
 30
0.0
 40
64.0
  1
AH φ10×30
 41
0.9
  0
LINE
  5
9C
  8
NOTE
  6
CONTINUOUS
 62
     4
 10
119.852799
 20
140.89222599999999
 30
0.0
 11
634.5715919999999
 21
140.89222599999999
 31
0.0
  0
LINE
  5
9D
  8
NOTE
  6
CONTINUOUS
 62
     4
 10
0.0
 20
44.0
 30
0.0
 11
119.852799
 21
140.89222599999999
 31
0.0
  0
LINE
  5
9E
  8
NOTE
  6
CONTINUOUS
 62
     4
 10
24.014517999999999
 20
75.989106000000007
 30
0.0
 11
0.0
 21
44.0
 31
0.0
  0
LINE
  5
9F
  8
NOTE
  6
CONTINUOUS
 62
     4
 10
0.0
 20
44.0
 30
0.0
 11
36.791736
 21
59.696119000000003
 31
0.0
  0
POINT
  5
A0
  8
ARRANGE
  6
CONTINUOUS
 62
     1
 10
0.0
 20
0.0
 30
0.0
 39
50.0
  0
CIRCLE
  5
A1
  8
ARRANGE
  6
CONTINUOUS
 62
     1
 39
50.0
 10
0.0
 20
0.0
 30
0.0
 40
20.0
  0
LINE
  5
A2
  8
DETAIL
  6
CONTINUOUS
 62
     5
 39
50.0
 10
130.0
 20
-2.5
 30
0.0
 11
85.0
 21
-2.5
 31
0.0
  0
LINE
  5
A3
  8
DETAIL
  6
CONTINUOUS
 62
     5
 39
50.0
 10
130.0
 20
-101.5
 30
0.0
 11
85.0
 21
-101.5
 31
0.0
  0
LINE
  5
A4
  8
DETAIL
  6
CONTINUOUS
 62
     5
 39
50.0
 10
-130.0
 20
-101.5
 30
0.0
 11
-130.0
 21
-2.5
 31
0.0
  0
LINE
  5
A5
  8
DETAIL
  6
CONTINUOUS
 62
     5
 39
50.0
 10
130.0
 20
-101.5
 30
0.0
 11
130.0
 21
-2.5
 31
0.0
  0
LINE
  5
A6
  8
DETAIL
  6
CONTINUOUS
 62
     5
 39
50.0
 10
-85.0
 20
-101.5
 30
0.0
 11
-85.0
 21
-2.5
 31
0.0
  0
LINE
  5
A7
  8
DETAIL
  6
CONTINUOUS
 62
     5
 39
50.0
 10
-75.0
 20
-101.5
 30
0.0
 11
-75.0
 21
-2.5
 31
0.0
  0
ARC
  5
A8
  8
DETAIL
  6
CONTINUOUS
 62
     5
 39
50.0
 10
-80.0
 20
-6.25
 30
0.0
 40
6.25
 50
36.869897999999999
 51
143.13010199999999
  0
ARC
  5
A9
  8
DETAIL
  6
CONTINUOUS
 62
     5
 39
50.0
 10
-80.0
 20
-97.75
 30
0.0
 40
6.25
 50
216.86989800000001
 51
323.13010200000002
  0
LINE
  5
AA
  8
DETAIL
  6
CONTINUOUS
 62
     5
 39
50.0
 10
75.0
 20
-101.5
 30
0.0
 11
75.0
 21
-2.5
 31
0.0
  0
LINE
  5
AB
  8
DETAIL
  6
CONTINUOUS
 62
     5
 39
50.0
 10
85.0
 20
-101.5
 30
0.0
 11
85.0
 21
-2.5
 31
0.0
  0
ARC
  5
AC
  8
DETAIL
  6
CONTINUOUS
 62
     5
 39
50.0
 10
80.0
 20
-97.75
 30
0.0
 40
6.25
 50
216.86989800000001
 51
323.13010200000002
  0
ARC
  5
AD
  8
DETAIL
  6
CONTINUOUS
 62
     5
 39
50.0
 10
80.0
 20
-6.25
 30
0.0
 40
6.25
 50
36.869897999999999
 51
143.13010199999999
  0
LINE
  5
AE
  8
DETAIL
  6
CONTINUOUS
 62
     5
 39
50.0
 10
-85.0
 20
-2.5
 30
0.0
 11
-130.0
 21
-2.5
 31
0.0
  0
LINE
  5
AF
  8
DETAIL
  6
CONTINUOUS
 62
     5
 39
50.0
 10
-85.0
 20
-101.5
 30
0.0
 11
-130.0
 21
-101.5
 31
0.0
  0
LINE
  5
B0
  8
DETAIL
  6
CONTINUOUS
 62
     5
 39
50.0
 10
75.0
 20
-2.5
 30
0.0
 11
-75.0
 21
-2.5
 31
0.0
  0
LINE
  5
B1
  8
DETAIL
  6
CONTINUOUS
 62
     5
 39
50.0
 10
75.0
 20
-101.5
 30
0.0
 11
-75.0
 21
-101.5
 31
0.0
  0
LINE
  5
B2
  8
DETAIL
  6
CONTINUOUS
 62
     5
 39
50.0
 10
-40.0
 20
-2.5
 30
0.0
 11
-40.0
 21
44.0
 31
0.0
  0
LINE
  5
B3
  8
DETAIL
  6
CONTINUOUS
 62
     5
 39
50.0
 10
40.0
 20
-2.5
 30
0.0
 11
40.0
 21
44.0
 31
0.0
  0
LINE
  5
B4
  8
SIZE
  6
CONTINUOUS
 62
    30
 10
40.0
 20
64.0
 30
0.0
 11
40.0
 21
164.968827
 31
0.0
  0
LINE
  5
B5
  8
SIZE
  6
CONTINUOUS
 62
    30
 10
-40.0
 20
64.0
 30
0.0
 11
-40.0
 21
164.968827
 31
0.0
  0
LINE
  5
B6
  8
SIZE
  6
CONTINUOUS
 62
    30
 10
52.0
 20
144.968827
 30
0.0
 11
64.0
 21
144.968827
 31
0.0
  0
LINE
  5
B7
  8
SIZE
  6
CONTINUOUS
 62
    30
 10
-52.0
 20
144.968827
 30
0.0
 11
-64.0
 21
144.968827
 31
0.0
  0
LINE
  5
B8
  8
SIZE
  6
CONTINUOUS
 62
    30
 10
40.0
 20
144.968827
 30
0.0
 11
-40.0
 21
144.968827
 31
0.0
  0
CIRCLE
  5
B9
  8
SIZE
  6
CONTINUOUS
 62
    30
 10
40.0
 20
144.968827
 30
0.0
 40
6.0
  0
LINE
  5
BA
  8
SIZE
  6
CONTINUOUS
 62
    30
 10
40.0
 20
144.968827
 30
0.0
 11
52.0
 21
144.968827
 31
0.0
  0
CIRCLE
  5
BB
  8
SIZE
  6
CONTINUOUS
 62
    30
 10
-40.0
 20
144.968827
 30
0.0
 40
6.0
  0
LINE
  5
BC
  8
SIZE
  6
CONTINUOUS
 62
    30
 10
-40.0
 20
144.968827
 30
0.0
 11
-52.0
 21
144.968827
 31
0.0
  0
TEXT
  5
BD
  8
SIZE
  6
CONTINUOUS
 62
    30
 10
-46.628571428571419
 20
169.968827
 30
0.0
 40
64.0
  1
80
 41
0.9
 72
     1
 11
0.0
 21
169.968827
 31
0.0
  0
POINT
  5
C0
  8
DEFPOINTS
  6
CONTINUOUS
 62
    30
 10
-40.0
 20
144.968827
 30
0.0
  0
LINE
  5
C1
  8
SIZE
  6
CONTINUOUS
 62
    30
 10
-150.0
 20
-2.5
 30
0.0
 11
-263.09125699999998
 21
-2.5
 31
0.0
  0
LINE
  5
C2
  8
SIZE
  6
CONTINUOUS
 62
    30
 10
-150.0
 20
-101.5
 30
0.0
 11
-263.09125699999998
 21
-101.5
 31
0.0
  0
LINE
  5
C3
  8
SIZE
  6
CONTINUOUS
 62
    30
 10
-243.09125700000001
 20
-14.5
 30
0.0
 11
-243.09125700000001
 21
-89.500000000000014
 31
0.0
  0
LINE
  5
C4
  8
SIZE
  6
CONTINUOUS
 62
    30
 10
-243.09125700000001
 20
240.502014
 30
0.0
 11
-243.09125700000001
 21
-2.5
 31
0.0
  0
TEXT
  5
C5
  8
SIZE
  6
CONTINUOUS
 62
    30
 10
-268.09125699999998
 20
58.610586142857109
 30
0.0
 40
64.0
  1
φ99
 50
90.0
 41
0.9
 72
     1
 11
-268.09125699999998
 21
144.18772899999999
 31
0.0
  0
CIRCLE
  5
C6
  8
SIZE
  6
CONTINUOUS
 62
    30
 10
-243.09125700000001
 20
-2.5
 30
0.0
 40
6.0
  0
LINE
  5
C7
  8
SIZE
  6
CONTINUOUS
 62
    30
 10
-243.09125700000001
 20
-2.5
 30
0.0
 11
-243.09125700000001
 21
-14.5
 31
0.0
  0
CIRCLE
  5
C8
  8
SIZE
  6
CONTINUOUS
 62
    30
 10
-243.09125700000001
 20
-101.5
 30
0.0
 40
6.0
  0
LINE
  5
C9
  8
SIZE
  6
CONTINUOUS
 62
    30
 10
-243.09125700000001
 20
-101.5
 30
0.0
 11
-243.09125700000001
 21
-89.500000000000014
 31
0.0
  0
POINT
  5
CC
  8
DEFPOINTS
  6
CONTINUOUS
 62
    30
 10
-243.09125700000001
 20
-101.5
 30
0.0
  0
LINE
  5
CD
  8
SIZE
  6
CONTINUOUS
 62
    30
 10
-130.0
 20
-121.5
 30
0.0
 11
-130.0
 21
-267.25374599999998
 31
0.0
  0
LINE
  5
CE
  8
SIZE
  6
CONTINUOUS
 62
    30
 10
-85.0
 20
-121.5
 30
0.0
 11
-85.0
 21
-267.25374599999998
 31
0.0
  0
LINE
  5
CF
  8
SIZE
  6
CONTINUOUS
 62
    30
 10
-142.0
 20
-247.25374600000001
 30
0.0
 11
-154.0
 21
-247.25374600000001
 31
0.0
  0
LINE
  5
D0
  8
SIZE
  6
CONTINUOUS
 62
    30
 10
-73.0
 20
-247.25374600000001
 30
0.0
 11
-61.0
 21
-247.25374600000001
 31
0.0
  0
LINE
  5
D1
  8
SIZE
  6
CONTINUOUS
 62
    30
 10
-299.71633200000002
 20
-247.25374600000001
 30
0.0
 11
-130.0
 21
-247.25374600000001
 31
0.0
  0
TEXT
  5
D2
  8
SIZE
  6
CONTINUOUS
 62
    30
 10
-274.71633142857138
 20
-222.25374600000001
 30
0.0
 40
64.0
  1
45
 41
0.9
 72
     1
 11
-228.08776
 21
-222.25374600000001
 31
0.0
  0
LINE
  5
D3
  8
SIZE
  6
CONTINUOUS
 62
    30
 10
-130.0
 20
-247.25374600000001
 30
0.0
 11
-85.0
 21
-247.25374600000001
 31
0.0
  0
LINE
  5
D4
  8
SIZE
  6
CONTINUOUS
 62
    30
 10
-130.0
 20
-247.25374600000001
 30
0.0
 11
-85.0
 21
-247.25374600000001
 31
0.0
  0
CIRCLE
  5
D5
  8
SIZE
  6
CONTINUOUS
 62
    30
 10
-130.0
 20
-247.25374600000001
 30
0.0
 40
6.0
  0
LINE
  5
D6
  8
SIZE
  6
CONTINUOUS
 62
    30
 10
-130.0
 20
-247.25374600000001
 30
0.0
 11
-142.0
 21
-247.25374600000001
 31
0.0
  0
CIRCLE
  5
D7
  8
SIZE
  6
CONTINUOUS
 62
    30
 10
-85.0
 20
-247.25374600000001
 30
0.0
 40
6.0
  0
LINE
  5
D8
  8
SIZE
  6
CONTINUOUS
 62
    30
 10
-85.0
 20
-247.25374600000001
 30
0.0
 11
-73.0
 21
-247.25374600000001
 31
0.0
  0
POINT
  5
DB
  8
DEFPOINTS
  6
CONTINUOUS
 62
    30
 10
-85.0
 20
-247.25374600000001
 30
0.0
  0
LINE
  5
DC
  8
SIZE
  6
CONTINUOUS
 62
    30
 10
85.0
 20
-121.5
 30
0.0
 11
85.0
 21
-267.25374599999998
 31
0.0
  0
LINE
  5
DD
  8
SIZE
  6
CONTINUOUS
 62
    30
 10
130.0
 20
-121.5
 30
0.0
 11
130.0
 21
-267.25374599999998
 31
0.0
  0
LINE
  5
DE
  8
SIZE
  6
CONTINUOUS
 62
    30
 10
73.0
 20
-247.25374600000001
 30
0.0
 11
61.0
 21
-247.25374600000001
 31
0.0
  0
LINE
  5
DF
  8
SIZE
  6
CONTINUOUS
 62
    30
 10
142.0
 20
-247.25374600000001
 30
0.0
 11
154.0
 21
-247.25374600000001
 31
0.0
  0
LINE
  5
E0
  8
SIZE
  6
CONTINUOUS
 62
    30
 10
298.69662499999998
 20
-247.25374600000001
 30
0.0
 11
130.0
 21
-247.25374600000001
 31
0.0
  0
TEXT
  5
E1
  8
SIZE
  6
CONTINUOUS
 62
    30
 10
180.43948257142861
 20
-222.25374600000001
 30
0.0
 40
64.0
  1
45
 41
0.9
 72
     1
 11
227.06805399999999
 21
-222.25374600000001
 31
0.0
  0
LINE
  5
E2
  8
SIZE
  6
CONTINUOUS
 62
    30
 10
85.0
 20
-247.25374600000001
 30
0.0
 11
130.0
 21
-247.25374600000001
 31
0.0
  0
LINE
  5
E3
  8
SIZE
  6
CONTINUOUS
 62
    30
 10
85.0
 20
-247.25374600000001
 30
0.0
 11
130.0
 21
-247.25374600000001
 31
0.0
  0
CIRCLE
  5
E4
  8
SIZE
  6
CONTINUOUS
 62
    30
 10
85.0
 20
-247.25374600000001
 30
0.0
 40
6.0
  0
LINE
  5
E5
  8
SIZE
  6
CONTINUOUS
 62
    30
 10
85.0
 20
-247.25374600000001
 30
0.0
 11
73.0
 21
-247.25374600000001
 31
0.0
  0
CIRCLE
  5
E6
  8
SIZE
  6
CONTINUOUS
 62
    30
 10
130.0
 20
-247.25374600000001
 30
0.0
 40
6.0
  0
LINE
  5
E7
  8
SIZE
  6
CONTINUOUS
 62
    30
 10
130.0
 20
-247.25374600000001
 30
0.0
 11
142.0
 21
-247.25374600000001
 31
0.0
  0
POINT
  5
EA
  8
DEFPOINTS
  6
CONTINUOUS
 62
    30
 10
130.0
 20
-247.25374600000001
 30
0.0
  0
LINE
  5
EB
  8
SIZE
  6
CONTINUOUS
 62
    30
 10
-130.0
 20
-121.5
 30
0.0
 11
-130.0
 21
-395.52394500000003
 31
0.0
  0
LINE
  5
EC
  8
SIZE
  6
CONTINUOUS
 62
    30
 10
130.0
 20
-121.5
 30
0.0
 11
130.0
 21
-395.52394500000003
 31
0.0
  0
LINE
  5
ED
  8
SIZE
  6
CONTINUOUS
 62
    30
 10
-118.0
 20
-375.52394500000003
 30
0.0
 11
118.0
 21
-375.52394500000003
 31
0.0
  0
CIRCLE
  5
EE
  8
SIZE
  6
CONTINUOUS
 62
    30
 10
-130.0
 20
-375.52394500000003
 30
0.0
 40
6.0
  0
LINE
  5
EF
  8
SIZE
  6
CONTINUOUS
 62
    30
 10
-130.0
 20
-375.52394500000003
 30
0.0
 11
-118.0
 21
-375.52394500000003
 31
0.0
  0
CIRCLE
  5
F0
  8
SIZE
  6
CONTINUOUS
 62
    30
 10
130.0
 20
-375.52394500000003
 30
0.0
 40
6.0
  0
LINE
  5
F1
  8
SIZE
  6
CONTINUOUS
 62
    30
 10
130.0
 20
-375.52394500000003
 30
0.0
 11
118.0
 21
-375.52394500000003
 31
0.0
  0
TEXT
  5
F2
  8
SIZE
  6
CONTINUOUS
 62
    30
 10
-74.05714285714285
 20
-350.52394500000003
 30
0.0
 40
64.0
  1
260
 41
0.9
 72
     1
 11
0.0
 21
-350.52394500000003
 31
0.0
  0
POINT
  5
F5
  8
DEFPOINTS
  6
CONTINUOUS
 62
    30
 10
130.0
 20
-375.52394500000003
 30
0.0
  0
LINE
  5
F6
  8
SIZE
  6
CONTINUOUS
 62
    30
 10
-100.0
 20
-104.0
 30
0.0
 11
-382.91893900000002
 21
-104.0
 31
0.0
  0
LINE
  5
F7
  8
SIZE
  6
CONTINUOUS
 62
    30
 10
-167.53625299999999
 20
-52.0
 30
0.0
 11
-382.91893900000002
 21
-52.0
 31
0.0
  0
LINE
  5
F8
  8
SIZE
  6
CONTINUOUS
 62
    30
 10
-362.91893900000002
 20
-116.0
 30
0.0
 11
-362.91893900000002
 21
-128.0
 31
0.0
  0
LINE
  5
F9
  8
SIZE
  6
CONTINUOUS
 62
    30
 10
-362.91893900000002
 20
-40.0
 30
0.0
 11
-362.91893900000002
 21
-28.0
 31
0.0
  0
LINE
  5
FA
  8
SIZE
  6
CONTINUOUS
 62
    30
 10
-362.91893900000002
 20
-277.98462599999999
 30
0.0
 11
-362.91893900000002
 21
-104.0
 31
0.0
  0
TEXT
  5
FB
  8
SIZE
  6
CONTINUOUS
 62
    30
 10
-387.91893900000002
 20
-252.9846264285714
 30
0.0
 40
64.0
  1
52
 50
90.0
 41
0.9
 72
     1
 11
-387.91893900000002
 21
-206.356055
 31
0.0
  0
LINE
  5
FC
  8
SIZE
  6
CONTINUOUS
 62
    30
 10
-362.91893900000002
 20
-104.0
 30
0.0
 11
-362.91893900000002
 21
-52.0
 31
0.0
  0
LINE
  5
FD
  8
SIZE
  6
CONTINUOUS
 62
    30
 10
-362.91893900000002
 20
-104.0
 30
0.0
 11
-362.91893900000002
 21
-52.0
 31
0.0
  0
CIRCLE
  5
FE
  8
SIZE
  6
CONTINUOUS
 62
    30
 10
-362.91893900000002
 20
-104.0
 30
0.0
 40
6.0
  0
LINE
  5
FF
  8
SIZE
  6
CONTINUOUS
 62
    30
 10
-362.91893900000002
 20
-104.0
 30
0.0
 11
-362.91893900000002
 21
-116.0
 31
0.0
  0
CIRCLE
  5
100
  8
SIZE
  6
CONTINUOUS
 62
    30
 10
-362.91893900000002
 20
-52.0
 30
0.0
 40
6.0
  0
LINE
  5
101
  8
SIZE
  6
CONTINUOUS
 62
    30
 10
-362.91893900000002
 20
-52.0
 30
0.0
 11
-362.91893900000002
 21
-40.0
 31
0.0
  0
POINT
  5
103
  8
DEFPOINTS
  6
CONTINUOUS
 62
    30
 10
-147.53625299999999
 20
-52.0
 30
0.0
  0
POINT
  5
104
  8
DEFPOINTS
  6
CONTINUOUS
 62
    30
 10
-362.91893900000002
 20
-52.0
 30
0.0
  0
LINE
  5
105
  8
SIZE
  6
CONTINUOUS
 62
    30
 10
-167.53625299999999
 20
-52.0
 30
0.0
 11
-382.91893900000002
 21
-52.0
 31
0.0
  0
LINE
  5
106
  8
SIZE
  6
CONTINUOUS
 62
    30
 10
-60.0
 20
44.0
 30
0.0
 11
-382.91893900000002
 21
44.0
 31
0.0
  0
LINE
  5
107
  8
SIZE
  6
CONTINUOUS
 62
    30
 10
-362.91893900000002
 20
-40.0
 30
0.0
 11
-362.91893900000002
 21
32.0
 31
0.0
  0
LINE
  5
108
  8
SIZE
  6
CONTINUOUS
 62
    30
 10
-362.91893900000002
 20
210.36989199999999
 30
0.0
 11
-362.91893900000002
 21
44.0
 31
0.0
  0
TEXT
  5
109
  8
SIZE
  6
CONTINUOUS
 62
    30
 10
-387.91893900000002
 20
94.855606142857155
 30
0.0
 40
64.0
  1
96
 50
90.0
 41
0.9
 72
     1
 11
-387.91893900000002
 21
140.11274900000001
 31
0.0
  0
CIRCLE
  5
10A
  8
SIZE
  6
CONTINUOUS
 62
    30
 10
-362.91893900000002
 20
-52.0
 30
0.0
 40
6.0
  0
LINE
  5
10B
  8
SIZE
  6
CONTINUOUS
 62
    30
 10
-362.91893900000002
 20
-52.0
 30
0.0
 11
-362.91893900000002
 21
-40.0
 31
0.0
  0
CIRCLE
  5
10C
  8
SIZE
  6
CONTINUOUS
 62
    30
 10
-362.91893900000002
 20
44.0
 30
0.0
 40
6.0
  0
LINE
  5
10D
  8
SIZE
  6
CONTINUOUS
 62
    30
 10
-362.91893900000002
 20
44.0
 30
0.0
 11
-362.91893900000002
 21
32.0
 31
0.0
  0
POINT
  5
10E
  8
DEFPOINTS
  6
CONTINUOUS
 62
    30
 10
-147.53625299999999
 20
-52.0
 30
0.0
  0
POINT
  5
110
  8
DEFPOINTS
  6
CONTINUOUS
 62
    30
 10
-362.91893900000002
 20
44.0
 30
0.0
  0
LINE
  5
111
  8
OUTLINE
  6
CONTINUOUS
 62
     3
 39
50.0
 10
75.0
 20
-101.5
 30
0.0
 11
-75.0
 21
-101.5
 31
0.0
  0
LINE
  5
112
  8
OUTLINE
  6
CONTINUOUS
 62
     3
 39
50.0
 10
75.0
 20
-2.5
 30
0.0
 11
-75.0
 21
-2.5
 31
0.0
  0
LINE
  5
113
  8
OUTLINE
  6
CONTINUOUS
 62
     3
 39
50.0
 10
-85.0
 20
-101.5
 30
0.0
 11
-130.0
 21
-101.5
 31
0.0
  0
LINE
  5
114
  8
OUTLINE
  6
CONTINUOUS
 62
     3
 39
50.0
 10
-85.0
 20
-2.5
 30
0.0
 11
-130.0
 21
-2.5
 31
0.0
  0
LINE
  5
115
  8
OUTLINE
  6
CONTINUOUS
 62
     3
 39
50.0
 10
-75.0
 20
-101.5
 30
0.0
 11
-75.0
 21
-2.5
 31
0.0
  0
LINE
  5
116
  8
OUTLINE
  6
CONTINUOUS
 62
     3
 39
50.0
 10
-85.0
 20
-101.5
 30
0.0
 11
-85.0
 21
-2.5
 31
0.0
  0
ARC
  5
117
  8
OUTLINE
  6
CONTINUOUS
 62
     3
 39
50.0
 10
-80.0
 20
-97.75
 30
0.0
 40
6.25
 50
216.86989800000001
 51
323.13010200000002
  0
ARC
  5
118
  8
OUTLINE
  6
CONTINUOUS
 62
     3
 39
50.0
 10
-80.0
 20
-6.25
 30
0.0
 40
6.25
 50
36.869897999999999
 51
143.13010199999999
  0
LINE
  5
119
  8
OUTLINE
  6
CONTINUOUS
 62
     3
 39
50.0
 10
-130.0
 20
-101.5
 30
0.0
 11
-130.0
 21
-2.5
 31
0.0
  0
LINE
  5
11A
  8
OUTLINE
  6
CONTINUOUS
 62
     3
 39
50.0
 10
130.0
 20
-101.5
 30
0.0
 11
85.0
 21
-101.5
 31
0.0
  0
LINE
  5
11B
  8
OUTLINE
  6
CONTINUOUS
 62
     3
 39
50.0
 10
130.0
 20
-2.5
 30
0.0
 11
85.0
 21
-2.5
 31
0.0
  0
ARC
  5
11C
  8
OUTLINE
  6
CONTINUOUS
 62
     3
 39
50.0
 10
80.0
 20
-6.25
 30
0.0
 40
6.25
 50
36.869897999999999
 51
143.13010199999999
  0
ARC
  5
11D
  8
OUTLINE
  6
CONTINUOUS
 62
     3
 39
50.0
 10
80.0
 20
-97.75
 30
0.0
 40
6.25
 50
216.86989800000001
 51
323.13010200000002
  0
LINE
  5
11E
  8
OUTLINE
  6
CONTINUOUS
 62
     3
 39
50.0
 10
85.0
 20
-101.5
 30
0.0
 11
85.0
 21
-2.5
 31
0.0
  0
LINE
  5
11F
  8
OUTLINE
  6
CONTINUOUS
 62
     3
 39
50.0
 10
75.0
 20
-101.5
 30
0.0
 11
75.0
 21
-2.5
 31
0.0
  0
LINE
  5
120
  8
OUTLINE
  6
CONTINUOUS
 62
     3
 39
50.0
 10
130.0
 20
-101.5
 30
0.0
 11
130.0
 21
-2.5
 31
0.0
  0
TEXT
  5
128
  8
ETC
  6
CONTINUOUS
 62
    61
 10
219.15143482201319
 20
470.95052772934139
 30
0.0
 40
64.0
  1
P-13DUE4_4
 41
0.9
  0
TEXT
  5
129
  8
ETC
  6
CONTINUOUS
 62
    61
 10
211.2357278220131
 20
382.52728472934149
 30
0.0
 40
64.0
  1
システム部材
 41
0.9
  0
TEXT
  5
12A
  8
ETC
  6
CONTINUOUS
 62
    61
 10
284.70442280635302
 20
300.20005801088291
 30
0.0
 40
64.0
  1
P-13DUE4
 41
0.9
  0
ENDSEC
  0
EOF
