  0
SECTION
  2
HEADER
  9
$ACADVER
  1
AC1009
  9
$INSBASE
 10
0.0
 20
0.0
 30
0.0
  9
$EXTMIN
 10
-611.38913642078467
 20
-226.1398145185558
 30
-0.0000000698494069
  9
$EXTMAX
 10
756.2256014861922
 20
473.57941766220392
 30
0.0000000465733773
  9
$LIMMIN
 10
-4200.0
 20
-2970.0
  9
$LIMMAX
 10
4200.0
 20
2970.0
  9
$ORTHOMODE
 70
     1
  9
$REGENMODE
 70
     1
  9
$FILLMODE
 70
     1
  9
$QTEXTMODE
 70
     0
  9
$MIRRTEXT
 70
     0
  9
$DRAGMODE
 70
     2
  9
$LTSCALE
 40
20.0
  9
$OSMODE
 70
    37
  9
$ATTMODE
 70
     1
  9
$TEXTSIZE
 40
64.0
  9
$TRACEWID
 40
0.05
  9
$TEXTSTYLE
  7
STANDARD
  9
$CLAYER
  8
ETC
  9
$CELTYPE
  6
CONTINUOUS
  9
$CECOLOR
 62
    30
  9
$DIMSCALE
 40
1.0
  9
$DIMASZ
 40
2.0
  9
$DIMEXO
 40
20.0
  9
$DIMDLI
 40
200.0
  9
$DIMRND
 40
0.0
  9
$DIMDLE
 40
0.0
  9
$DIMEXE
 40
30.0
  9
$DIMTP
 40
0.0
  9
$DIMTM
 40
0.0
  9
$DIMTXT
 40
64.0
  9
$DIMCEN
 40
0.09
  9
$DIMTSZ
 40
0.0
  9
$DIMTOL
 70
     0
  9
$DIMLIM
 70
     0
  9
$DIMTIH
 70
     0
  9
$DIMTOH
 70
     0
  9
$DIMSE1
 70
     0
  9
$DIMSE2
 70
     0
  9
$DIMTAD
 70
     1
  9
$DIMZIN
 70
     8
  9
$DIMBLK
  1
DOT1
  9
$DIMASO
 70
     1
  9
$DIMSHO
 70
     0
  9
$DIMPOST
  1

  9
$DIMAPOST
  1

  9
$DIMALT
 70
     0
  9
$DIMALTD
 70
     2
  9
$DIMALTF
 40
25.399999999999999
  9
$DIMLFAC
 40
1.0
  9
$DIMTOFL
 70
     1
  9
$DIMTVP
 40
0.0
  9
$DIMTIX
 70
     1
  9
$DIMSOXD
 70
     0
  9
$DIMSAH
 70
     0
  9
$DIMBLK1
  1

  9
$DIMBLK2
  1

  9
$DIMSTYLE
  2
STANDARD
  9
$DIMCLRD
 70
     7
  9
$DIMCLRE
 70
     7
  9
$DIMCLRT
 70
     7
  9
$DIMTFAC
 40
1.0
  9
$DIMGAP
 40
0.09
  9
$LUNITS
 70
     2
  9
$LUPREC
 70
     4
  9
$SKETCHINC
 40
0.1
  9
$FILLETRAD
 40
10.0
  9
$AUNITS
 70
     1
  9
$AUPREC
 70
     3
  9
$MENU
  1
ACAD
  9
$ELEVATION
 40
0.0
  9
$PELEVATION
 40
0.0
  9
$THICKNESS
 40
0.0
  9
$LIMCHECK
 70
     1
  9
$BLIPMODE
 70
     0
  9
$CHAMFERA
 40
0.0
  9
$CHAMFERB
 40
0.0
  9
$SKPOLY
 70
     0
  9
$TDCREATE
 40
2451800.6164467591
  9
$TDUPDATE
 40
2454799.7048027199
  9
$TDINDWG
 40
0.0127391667
  9
$TDUSRTIMER
 40
0.0127391667
  9
$USRTIMER
 70
     1
  9
$ANGBASE
 50
0.0
  9
$ANGDIR
 70
     0
  9
$PDMODE
 70
     3
  9
$PDSIZE
 40
-2.0
  9
$PLINEWID
 40
0.0
  9
$COORDS
 70
     1
  9
$SPLFRAME
 70
     0
  9
$SPLINETYPE
 70
     6
  9
$SPLINESEGS
 70
     8
  9
$ATTDIA
 70
     0
  9
$ATTREQ
 70
     1
  9
$HANDLING
 70
     1
  9
$HANDSEED
  5
129
  9
$SURFTAB1
 70
     6
  9
$SURFTAB2
 70
     6
  9
$SURFTYPE
 70
     6
  9
$SURFU
 70
     6
  9
$SURFV
 70
     6
  9
$UCSNAME
  2

  9
$UCSORG
 10
0.0
 20
0.0
 30
0.0
  9
$UCSXDIR
 10
1.0
 20
0.0
 30
0.0
  9
$UCSYDIR
 10
0.0
 20
1.0
 30
0.0
  9
$PUCSNAME
  2

  9
$PUCSORG
 10
0.0
 20
0.0
 30
0.0
  9
$PUCSXDIR
 10
1.0
 20
0.0
 30
0.0
  9
$PUCSYDIR
 10
0.0
 20
1.0
 30
0.0
  9
$USERI1
 70
     0
  9
$USERI2
 70
     0
  9
$USERI3
 70
     0
  9
$USERI4
 70
     0
  9
$USERI5
 70
     0
  9
$USERR1
 40
20.0
  9
$USERR2
 40
0.0
  9
$USERR3
 40
0.0
  9
$USERR4
 40
0.0
  9
$USERR5
 40
0.0
  9
$WORLDVIEW
 70
     1
  9
$SHADEDGE
 70
     3
  9
$SHADEDIF
 70
    70
  9
$TILEMODE
 70
     1
  9
$MAXACTVP
 70
    48
  9
$PLIMCHECK
 70
     0
  9
$PEXTMIN
 10
-1.0000000000000000E+020
 20
-1.0000000000000000E+020
 30
-1.0000000000000000E+020
  9
$PEXTMAX
 10
1.0000000000000000E+020
 20
1.0000000000000000E+020
 30
1.0000000000000000E+020
  9
$PLIMMIN
 10
0.0
 20
0.0
  9
$PLIMMAX
 10
12.0
 20
9.0
  9
$UNITMODE
 70
     0
  9
$VISRETAIN
 70
     0
  9
$PLINEGEN
 70
     0
  9
$PSLTSCALE
 70
     0
  0
ENDSEC
  0
SECTION
  2
TABLES
  0
TABLE
  2
VPORT
 70
     1
  0
VPORT
  2
*ACTIVE
 70
     0
 10
0.0
 20
0.0
 11
1.0
 21
1.0
 12
150.42553344678751
 22
68.936307956924338
 13
0.0
 23
0.0
 14
400.0
 24
400.0
 15
400.0
 25
400.0
 16
0.0
 26
0.0
 36
1.0
 17
0.0
 27
0.0
 37
0.0
 40
1319.931736021626
 41
1.313669064748201
 42
50.0
 43
0.0
 44
0.0
 50
0.0
 51
0.0
 71
     0
 72
   500
 73
     1
 74
     0
 75
     0
 76
     0
 77
     0
 78
     0
  0
ENDTAB
  0
TABLE
  2
LTYPE
 70
     3
  0
LTYPE
  2
CONTINUOUS
 70
     0
  3
実線
 72
    65
 73
     0
 40
0.0
  0
LTYPE
  2
DASHDOT
 70
     0
  3
____ _ ____ _ ____ _ ____ _ ____ _ ____ _ ____
 72
    65
 73
     4
 40
5.5
 49
4.0
 49
-0.6
 49
0.3
 49
-0.6
  0
ENDTAB
  0
TABLE
  2
LAYER
 70
    12
  0
LAYER
  2
0
 70
     0
 62
     7
  6
CONTINUOUS
  0
LAYER
  2
DEFPOINTS
 70
     0
 62
     7
  6
CONTINUOUS
  0
LAYER
  2
OUTLINE
 70
     0
 62
     3
  6
CONTINUOUS
  0
LAYER
  2
DETAIL
 70
     0
 62
     5
  6
CONTINUOUS
  0
LAYER
  2
BASIS
 70
     0
 62
     6
  6
DASHDOT
  0
LAYER
  2
SIZE
 70
     0
 62
    30
  6
CONTINUOUS
  0
LAYER
  2
NOTE
 70
     0
 62
     4
  6
CONTINUOUS
  0
LAYER
  2
ARRANGE
 70
     0
 62
     1
  6
CONTINUOUS
  0
LAYER
  2
FIX
 70
     0
 62
    11
  6
CONTINUOUS
  0
LAYER
  2
ETC
 70
     0
 62
    61
  6
CONTINUOUS
  0
LAYER
  2
SERVICESPACE
 70
     0
 62
     2
  6
DASHDOT
  0
LAYER
  2
SYMBOLLINE
 70
     0
 62
    15
  6
CONTINUOUS
  0
ENDTAB
  0
TABLE
  2
STYLE
 70
     2
  0
STYLE
  2
STANDARD
 70
     0
 40
0.0
 41
0.9
 50
0.0
 71
     0
 42
64.0
  3
SIMPLEX
  4
BIGFONT
  0
STYLE
  2
ANNOTATIVE
 70
     0
 40
0.0
 41
1.0
 50
0.0
 71
     0
 42
0.2
  3
txt
  4

  0
ENDTAB
  0
TABLE
  2
VIEW
 70
     1
  0
VIEW
  2
ALL
 70
     0
 40
6374.9789810000002
 10
0.0
 20
58.115015999999997
 41
8842.1052629999976
 11
0.0
 21
0.0
 31
1.0
 12
0.0
 22
0.0
 32
0.0
 42
50.0
 43
0.0
 44
0.0
 50
0.0
 71
     0
  0
ENDTAB
  0
TABLE
  2
UCS
 70
     0
  0
ENDTAB
  0
TABLE
  2
APPID
 70
     4
  0
APPID
  2
ACAD
 70
     0
  0
APPID
  2
ACADANNOTATIVE
 70
     0
  0
APPID
  2
ACAD_MLEADERVER
 70
     0
  0
APPID
  2
ACAD_EXEMPT_FROM_CAD_STANDARDS
 70
     0
  0
ENDTAB
  0
TABLE
  2
DIMSTYLE
 70
     2
  0
DIMSTYLE
  2
STANDARD
 70
     0
  3

  4

  5

  6

  7

 40
1.0
 41
0.18
 42
0.0625
 43
0.38
 44
0.18
 45
0.0
 46
0.0
 47
0.0
 48
0.0
140
0.18
141
0.09
142
0.0
143
25.399999999999999
144
1.0
145
0.0
146
1.0
147
0.09
 71
     0
 72
     0
 73
     1
 74
     1
 75
     0
 76
     0
 77
     0
 78
     0
170
     0
171
     2
172
     0
173
     0
174
     0
175
     0
176
     7
177
     7
178
     7
  0
DIMSTYLE
  2
ANNOTATIVE
 70
     0
  3

  4

  5

  6

  7

 40
1.0
 41
0.18
 42
0.0625
 43
0.38
 44
0.18
 45
0.0
 46
0.0
 47
0.0
 48
0.0
140
0.18
141
0.09
142
0.0
143
25.399999999999999
144
1.0
145
0.0
146
1.0
147
0.09
 71
     0
 72
     0
 73
     1
 74
     1
 75
     0
 76
     0
 77
     0
 78
     0
170
     0
171
     2
172
     0
173
     0
174
     0
175
     0
176
     0
177
     0
178
     0
  0
ENDTAB
  0
ENDSEC
  0
SECTION
  2
BLOCKS
  0
BLOCK
  8
0
  2
$MODEL_SPACE
 70
     0
 10
0.0
 20
0.0
 30
0.0
  3
$MODEL_SPACE
  1

  0
ENDBLK
  5
76
  8
0
  0
BLOCK
 67
     1
  8
0
  2
$PAPER_SPACE
 70
     0
 10
0.0
 20
0.0
 30
0.0
  3
$PAPER_SPACE
  1

  0
ENDBLK
  5
72
 67
     1
  8
0
  0
BLOCK
  8
SIZE
  2
DOT1
 70
     0
 10
0.0
 20
0.0
 30
0.0
  3
DOT1
  1

  0
CIRCLE
  5
8B
  8
SIZE
  6
CONTINUOUS
 62
     8
 10
0.0
 20
0.0
 30
0.0
 40
3.0
  0
ENDBLK
  5
8C
  8
SIZE
  0
ENDSEC
  0
SECTION
  2
ENTITIES
  0
LINE
  5
8D
  8
BASIS
  6
DASHDOT
 62
     6
 10
-135.240837
 20
0.0
 30
0.0
 11
133.71690100000001
 21
0.0
 31
0.0
  0
LINE
  5
8E
  8
BASIS
  6
DASHDOT
 62
     6
 10
0.0
 20
115.737381
 30
0.0
 11
0.0
 21
-124.442858
 31
0.0
  0
POINT
  5
8F
  8
ARRANGE
  6
CONTINUOUS
 62
     1
 10
0.0
 20
0.0
 30
0.0
  0
CIRCLE
  5
90
  8
ARRANGE
  6
CONTINUOUS
 62
     1
 10
0.0
 20
0.0
 30
0.0
 40
40.0
  0
CIRCLE
  5
91
  8
DETAIL
  6
CONTINUOUS
 62
     5
 10
0.0
 20
0.0
 30
0.0
 40
78.5
  0
LINE
  5
92
  8
SIZE
  6
CONTINUOUS
 62
    30
 10
78.5
 20
20.0
 30
0.0
 11
78.5
 21
382.327516
 31
0.0
  0
LINE
  5
93
  8
SIZE
  6
CONTINUOUS
 62
    30
 10
-78.5
 20
20.0
 30
0.0
 11
-78.5
 21
382.327516
 31
0.0
  0
LINE
  5
94
  8
SIZE
  6
CONTINUOUS
 62
    30
 10
76.5
 20
352.327516
 30
0.0
 11
-76.5
 21
352.327516
 31
0.0
  0
TEXT
  5
95
  8
SIZE
  6
CONTINUOUS
 62
    30
 10
-108.89142857142851
 20
399.11659700000001
 30
0.0
 40
64.0
  1
φ157
 41
0.9
 72
     1
 11
0.0
 21
399.11659700000001
 31
0.0
  0
CIRCLE
  5
96
  8
SIZE
  6
CONTINUOUS
 62
     8
 10
78.5
 20
352.327516
 30
0.0
 40
6.0
  0
CIRCLE
  5
97
  8
SIZE
  6
CONTINUOUS
 62
     8
 10
-78.5
 20
352.327516
 30
0.0
 40
6.0
  0
POINT
  5
98
  8
DEFPOINTS
  6
CONTINUOUS
 62
    30
 10
78.5
 20
0.0
 30
0.0
  0
POINT
  5
99
  8
DEFPOINTS
  6
CONTINUOUS
 62
    30
 10
-78.5
 20
0.0
 30
0.0
  0
POINT
  5
9A
  8
DEFPOINTS
  6
CONTINUOUS
 62
    30
 10
-78.5
 20
352.327516
 30
0.0
  0
CIRCLE
  5
9B
  8
OUTLINE
  6
CONTINUOUS
 62
     3
 10
0.0
 20
0.0
 30
0.0
 40
78.5
  0
CIRCLE
  5
9C
  8
DETAIL
  6
CONTINUOUS
 62
     5
 10
0.0
 20
0.0
 30
0.0
 40
48.5
  0
LINE
  5
9D
  8
SIZE
  6
CONTINUOUS
 62
    30
 10
48.5
 20
20.0
 30
0.0
 11
48.5
 21
288.01937199999998
 31
0.0
  0
LINE
  5
9E
  8
SIZE
  6
CONTINUOUS
 62
    30
 10
-48.5
 20
20.0
 30
0.0
 11
-48.5
 21
288.01937199999998
 31
0.0
  0
LINE
  5
9F
  8
SIZE
  6
CONTINUOUS
 62
    30
 10
46.5
 20
258.01937199999998
 30
0.0
 11
-46.5
 21
258.01937199999998
 31
0.0
  0
TEXT
  5
A0
  8
SIZE
  6
CONTINUOUS
 62
    30
 10
84.845796571428551
 20
277.351652
 30
0.0
 40
64.0
  1
φ97
 41
0.9
 72
     1
 11
171.79436799999999
 21
277.351652
 31
0.0
  0
CIRCLE
  5
A1
  8
SIZE
  6
CONTINUOUS
 62
     8
 10
48.5
 20
258.01937199999998
 30
0.0
 40
6.0
  0
CIRCLE
  5
A2
  8
SIZE
  6
CONTINUOUS
 62
     8
 10
-48.5
 20
258.01937199999998
 30
0.0
 40
6.0
  0
POINT
  5
A3
  8
DEFPOINTS
  6
CONTINUOUS
 62
    30
 10
48.5
 20
0.0
 30
0.0
  0
POINT
  5
A4
  8
DEFPOINTS
  6
CONTINUOUS
 62
    30
 10
-48.5
 20
0.0
 30
0.0
  0
POINT
  5
A5
  8
DEFPOINTS
  6
CONTINUOUS
 62
    30
 10
-48.5
 20
258.01937199999998
 30
0.0
  0
TEXT
  5
A6
  8
ETC
  6
CONTINUOUS
 62
    61
 10
365.98105299999997
 20
433.56233399999991
 30
0.0
 40
40.0
  1
P-13FA5_3
 41
0.9
  0
ARC
  5
AA
  8
SIZE
  6
CONTINUOUS
 62
    30
 10
0.0
 20
0.0
 30
0.0
 40
71.0
 50
211.775025
 51
234.59930700000001
  0
LINE
  5
AB
  8
SIZE
  6
CONTINUOUS
 62
    30
 10
0.0
 20
0.0
 30
0.0
 11
100.0
 21
100.0
 31
0.0
  0
LINE
  5
AC
  8
SIZE
  6
CONTINUOUS
 62
    30
 10
0.0
 20
0.0
 30
0.0
 11
100.0
 21
-100.0
 31
0.0
  0
LINE
  5
AD
  8
SIZE
  6
CONTINUOUS
 62
    30
 10
0.0
 20
0.0
 30
0.0
 11
-100.0
 21
100.0
 31
0.0
  0
LINE
  5
AE
  8
SIZE
  6
CONTINUOUS
 62
    30
 10
0.0
 20
0.0
 30
0.0
 11
-100.0
 21
-100.0
 31
0.0
  0
CIRCLE
  5
AF
  8
FIX
  6
CONTINUOUS
 62
    11
 10
-50.20458099999999
 20
50.20458099999999
 30
0.0
 40
2.5
  0
CIRCLE
  5
B0
  8
FIX
  6
CONTINUOUS
 62
    11
 10
50.20458099999999
 20
50.20458099999999
 30
0.0
 40
2.5
  0
CIRCLE
  5
B1
  8
FIX
  6
CONTINUOUS
 62
    11
 10
50.20458099999999
 20
-50.20458099999999
 30
0.0
 40
2.5
  0
CIRCLE
  5
B2
  8
FIX
  6
CONTINUOUS
 62
    11
 10
-50.0
 20
-50.0
 30
0.0
 40
2.5
  0
LINE
  5
B3
  8
NOTE
  6
CONTINUOUS
 62
     4
 10
-58.551067000000003
 20
-89.332019999999986
 30
0.0
 11
-49.912861999999997
 21
-50.275888000000002
 31
0.0
  0
LINE
  5
B4
  8
NOTE
  6
CONTINUOUS
 62
     4
 10
-49.912861999999997
 20
-50.275888000000002
 30
0.0
 11
-76.921832999999992
 21
-79.780387000000005
 31
0.0
  0
TEXT
  5
B5
  8
NOTE
  6
CONTINUOUS
 62
     4
 10
-597.14502500000003
 20
-184.49562700000001
 30
0.0
 40
64.0
  1
4×φ5取付穴
 41
0.9
  0
ARC
  5
B6
  8
SIZE
  6
CONTINUOUS
 62
    30
 10
0.0
 20
0.0
 30
0.0
 40
71.0
 50
304.50198599999999
 51
322.57391899999999
  0
ARC
  5
B7
  8
SIZE
  6
CONTINUOUS
 62
    30
 10
0.0
 20
0.0
 30
0.0
 40
71.0
 50
32.451639
 51
53.088571999999999
  0
ARC
  5
B8
  8
SIZE
  6
CONTINUOUS
 62
    30
 10
0.0
 20
0.0
 30
0.0
 40
71.0
 50
122.52851099999999
 51
173.785269
  0
LINE
  5
B9
  8
SIZE
  6
CONTINUOUS
 62
    30
 10
0.0
 20
0.0
 30
0.0
 11
-62.611823999999999
 21
28.995853
 31
0.0
  0
TEXT
  5
BA
  8
SIZE
  6
CONTINUOUS
 62
    30
 10
-245.23902931813251
 20
132.58258952219069
 30
0.0
 40
64.0
  1
R71
 50
335.15089999999998
 41
0.9
 72
     1
 11
-187.99393599999999
 21
106.07208900000001
 31
0.0
  0
CIRCLE
  5
BB
  8
SIZE
  6
CONTINUOUS
 62
     8
 10
-64.426659000000001
 20
29.836313000000001
 30
0.0
 40
6.0
  0
POINT
  5
BC
  8
DEFPOINTS
  6
CONTINUOUS
 62
    30
 10
-64.426659000000001
 20
29.836313000000001
 30
0.0
  0
POINT
  5
BD
  8
DEFPOINTS
  6
CONTINUOUS
 62
    30
 10
0.0
 20
0.0
 30
0.0
  0
LINE
  5
BE
  8
SIZE
  6
CONTINUOUS
 62
    30
 10
-58.982152999999997
 20
27.314934000000001
 30
0.0
 11
-273.72767399999998
 21
125.45312300000001
 31
0.0
  0
LINE
  5
BF
  8
SIZE
  6
CONTINUOUS
 62
    30
 10
153.71690100000001
 20
0.0
 30
0.0
 11
319.41616900000002
 21
0.0
 31
0.0
  0
LINE
  5
C0
  8
SIZE
  6
CONTINUOUS
 62
    30
 10
114.14213599999999
 20
114.14213599999999
 30
0.0
 11
225.86133899999999
 21
225.86133899999999
 31
0.0
  0
ARC
  5
C1
  8
SIZE
  6
CONTINUOUS
 62
    30
 10
0.0
 20
0.0
 30
0.0
 40
289.41616900000002
 50
0.395941
 51
36.270826
  0
ARC
  5
C2
  8
SIZE
  6
CONTINUOUS
 62
    30
 10
0.0
 20
0.0
 30
0.0
 40
289.41616900000002
 50
43.202323999999997
 51
44.604058999999999
  0
CIRCLE
  5
C3
  8
SIZE
  6
CONTINUOUS
 62
     8
 10
289.41616900000002
 20
0.0
 30
0.0
 40
6.0
  0
CIRCLE
  5
C4
  8
SIZE
  6
CONTINUOUS
 62
     8
 10
204.64813599999999
 20
204.64813599999999
 30
0.0
 40
6.0
  0
TEXT
  5
C5
  8
SIZE
  6
CONTINUOUS
 62
    30
 10
233.24588700000001
 20
48.27755885714285
 30
0.0
 40
64.0
  1
45°
 50
90.0
 41
0.9
 72
     1
 11
233.24588700000001
 21
108.62041600000001
 31
0.0
  0
POINT
  5
C6
  8
DEFPOINTS
  6
CONTINUOUS
 62
    30
 10
279.554552
 20
74.906415999999993
 30
0.0
  0
POINT
  5
C7
  8
DEFPOINTS
  6
CONTINUOUS
 62
    30
 10
0.0
 20
0.0
 30
0.0
  0
POINT
  5
C8
  8
DEFPOINTS
  6
CONTINUOUS
 62
    30
 10
-135.240837
 20
0.0
 30
0.0
  0
POINT
  5
C9
  8
DEFPOINTS
  6
CONTINUOUS
 62
    30
 10
133.71690100000001
 20
0.0
 30
0.0
  0
POINT
  5
CA
  8
DEFPOINTS
  6
CONTINUOUS
 62
    30
 10
100.0
 20
100.0
 30
0.0
  0
LINE
  5
CB
  8
SIZE
  6
CONTINUOUS
 62
    30
 10
114.14213599999999
 20
-114.14213599999999
 30
0.0
 11
225.848623
 21
-225.848623
 31
0.0
  0
LINE
  5
CC
  8
SIZE
  6
CONTINUOUS
 62
    30
 10
153.71690100000001
 20
0.0
 30
0.0
 11
319.39818500000001
 21
0.0
 31
0.0
  0
ARC
  5
CD
  8
SIZE
  6
CONTINUOUS
 62
    30
 10
0.0
 20
0.0
 30
0.0
 40
289.39818500000001
 50
315.39596599999999
 51
359.60403400000001
  0
CIRCLE
  5
CE
  8
SIZE
  6
CONTINUOUS
 62
     8
 10
204.63541900000001
 20
-204.63541900000001
 30
0.0
 40
6.0
  0
CIRCLE
  5
CF
  8
SIZE
  6
CONTINUOUS
 62
     8
 10
289.39818500000001
 20
0.0
 30
0.0
 40
6.0
  0
TEXT
  5
D0
  8
SIZE
  6
CONTINUOUS
 62
    30
 10
230.01099910939331
 20
-114.7233084911358
 30
0.0
 40
64.0
  1
45°
 50
77.069023000000001
 41
0.9
 72
     1
 11
243.51434800000001
 21
-55.910724999999999
 31
0.0
  0
POINT
  5
D1
  8
DEFPOINTS
  6
CONTINUOUS
 62
    30
 10
250.62618000000001
 20
-144.699093
 30
0.0
  0
POINT
  5
D2
  8
DEFPOINTS
  6
CONTINUOUS
 62
    30
 10
-135.240837
 20
0.0
 30
0.0
  0
POINT
  5
D3
  8
DEFPOINTS
  6
CONTINUOUS
 62
    30
 10
0.0
 20
0.0
 30
0.0
  0
POINT
  5
D4
  8
DEFPOINTS
  6
CONTINUOUS
 62
    30
 10
100.0
 20
-100.0
 30
0.0
  0
POINT
  5
D5
  8
DEFPOINTS
  6
CONTINUOUS
 62
    30
 10
133.71690100000001
 20
0.0
 30
0.0
  0
LINE
  5
D6
  8
SIZE
  6
CONTINUOUS
 62
    30
 10
42.5
 20
258.01937199999998
 30
0.0
 11
265.01978500000001
 21
258.01937199999998
 31
0.0
  0
LINE
  5
D7
  8
NOTE
  6
CONTINUOUS
 62
     4
 10
-49.95255499999999
 20
-50.455348999999991
 30
0.0
 11
-129.98610400000001
 21
-201.58554799999999
 31
0.0
  0
LINE
  5
D8
  8
NOTE
  6
CONTINUOUS
 62
     4
 10
-129.98610400000001
 20
-201.58554799999999
 30
0.0
 11
-610.88088099999993
 21
-201.58554799999999
 31
0.0
  0
TEXT
  5
EB
  8
ETC
  6
CONTINUOUS
 62
    61
 10
358.9978798036185
 20
374.2578981073803
 30
0.0
 40
40.0
  1
システム部材
 41
0.9
  0
TEXT
  5
EC
  8
ETC
  6
CONTINUOUS
 62
    61
 10
409.78685782839642
 20
314.9165437356026
 30
0.0
 40
40.0
  1
P-13FA5
 41
0.9
  0
TEXT
  5
ED
  8
ETC
  6
CONTINUOUS
 62
    61
 10
409.78685782839642
 20
248.91654373560249
 30
0.0
 40
40.0
  1
P-13FA5-BL
 41
0.9
  0
ENDSEC
  0
EOF
