  0
SECTION
  2
HEADER
  9
$ACADVER
  1
AC1009
  9
$INSBASE
 10
0.0
 20
0.0
 30
0.0
  9
$EXTMIN
 10
-393.49362835461937
 20
-311.79197526280041
 30
-0.0000000349181948
  9
$EXTMAX
 10
651.12306230133618
 20
324.934397957908
 30
0.0000000814935746
  9
$LIMMIN
 10
-4200.0
 20
-2970.0
  9
$LIMMAX
 10
4200.0
 20
2970.0
  9
$ORTHOMODE
 70
     1
  9
$REGENMODE
 70
     1
  9
$FILLMODE
 70
     1
  9
$QTEXTMODE
 70
     0
  9
$MIRRTEXT
 70
     0
  9
$DRAGMODE
 70
     2
  9
$LTSCALE
 40
20.0
  9
$OSMODE
 70
    37
  9
$ATTMODE
 70
     1
  9
$TEXTSIZE
 40
64.0
  9
$TRACEWID
 40
0.05
  9
$TEXTSTYLE
  7
STANDARD
  9
$CLAYER
  8
SIZE
  9
$CELTYPE
  6
CONTINUOUS
  9
$CECOLOR
 62
    30
  9
$DIMSCALE
 40
1.0
  9
$DIMASZ
 40
2.0
  9
$DIMEXO
 40
20.0
  9
$DIMDLI
 40
200.0
  9
$DIMRND
 40
0.0
  9
$DIMDLE
 40
0.0
  9
$DIMEXE
 40
30.0
  9
$DIMTP
 40
0.0
  9
$DIMTM
 40
0.0
  9
$DIMTXT
 40
64.0
  9
$DIMCEN
 40
0.09
  9
$DIMTSZ
 40
0.0
  9
$DIMTOL
 70
     0
  9
$DIMLIM
 70
     0
  9
$DIMTIH
 70
     0
  9
$DIMTOH
 70
     0
  9
$DIMSE1
 70
     0
  9
$DIMSE2
 70
     0
  9
$DIMTAD
 70
     1
  9
$DIMZIN
 70
     8
  9
$DIMBLK
  1
DOT1
  9
$DIMASO
 70
     1
  9
$DIMSHO
 70
     0
  9
$DIMPOST
  1

  9
$DIMAPOST
  1

  9
$DIMALT
 70
     0
  9
$DIMALTD
 70
     2
  9
$DIMALTF
 40
25.399999999999999
  9
$DIMLFAC
 40
1.0
  9
$DIMTOFL
 70
     1
  9
$DIMTVP
 40
0.0
  9
$DIMTIX
 70
     1
  9
$DIMSOXD
 70
     0
  9
$DIMSAH
 70
     0
  9
$DIMBLK1
  1

  9
$DIMBLK2
  1

  9
$DIMSTYLE
  2
STANDARD
  9
$DIMCLRD
 70
     7
  9
$DIMCLRE
 70
     7
  9
$DIMCLRT
 70
     7
  9
$DIMTFAC
 40
1.0
  9
$DIMGAP
 40
0.09
  9
$LUNITS
 70
     2
  9
$LUPREC
 70
     4
  9
$SKETCHINC
 40
0.1
  9
$FILLETRAD
 40
10.0
  9
$AUNITS
 70
     1
  9
$AUPREC
 70
     3
  9
$MENU
  1
ACAD
  9
$ELEVATION
 40
0.0
  9
$PELEVATION
 40
0.0
  9
$THICKNESS
 40
0.0
  9
$LIMCHECK
 70
     1
  9
$BLIPMODE
 70
     0
  9
$CHAMFERA
 40
0.0
  9
$CHAMFERB
 40
0.0
  9
$SKPOLY
 70
     0
  9
$TDCREATE
 40
2451800.6834606482
  9
$TDUPDATE
 40
2454799.4795035878
  9
$TDINDWG
 40
0.0056952778
  9
$TDUSRTIMER
 40
0.0056950926
  9
$USRTIMER
 70
     1
  9
$ANGBASE
 50
0.0
  9
$ANGDIR
 70
     0
  9
$PDMODE
 70
     3
  9
$PDSIZE
 40
-2.0
  9
$PLINEWID
 40
0.0
  9
$COORDS
 70
     1
  9
$SPLFRAME
 70
     0
  9
$SPLINETYPE
 70
     6
  9
$SPLINESEGS
 70
     8
  9
$ATTDIA
 70
     0
  9
$ATTREQ
 70
     1
  9
$HANDLING
 70
     1
  9
$HANDSEED
  5
141
  9
$SURFTAB1
 70
     6
  9
$SURFTAB2
 70
     6
  9
$SURFTYPE
 70
     6
  9
$SURFU
 70
     6
  9
$SURFV
 70
     6
  9
$UCSNAME
  2

  9
$UCSORG
 10
0.0
 20
0.0
 30
0.0
  9
$UCSXDIR
 10
1.0
 20
0.0
 30
0.0
  9
$UCSYDIR
 10
0.0
 20
1.0
 30
0.0
  9
$PUCSNAME
  2

  9
$PUCSORG
 10
0.0
 20
0.0
 30
0.0
  9
$PUCSXDIR
 10
1.0
 20
0.0
 30
0.0
  9
$PUCSYDIR
 10
0.0
 20
1.0
 30
0.0
  9
$USERI1
 70
     0
  9
$USERI2
 70
     0
  9
$USERI3
 70
     0
  9
$USERI4
 70
     0
  9
$USERI5
 70
     0
  9
$USERR1
 40
20.0
  9
$USERR2
 40
0.0
  9
$USERR3
 40
0.0
  9
$USERR4
 40
0.0
  9
$USERR5
 40
0.0
  9
$WORLDVIEW
 70
     1
  9
$SHADEDGE
 70
     3
  9
$SHADEDIF
 70
    70
  9
$TILEMODE
 70
     1
  9
$MAXACTVP
 70
    48
  9
$PLIMCHECK
 70
     0
  9
$PEXTMIN
 10
-1.0000000000000000E+020
 20
-1.0000000000000000E+020
 30
-1.0000000000000000E+020
  9
$PEXTMAX
 10
1.0000000000000000E+020
 20
1.0000000000000000E+020
 30
1.0000000000000000E+020
  9
$PLIMMIN
 10
0.0
 20
0.0
  9
$PLIMMAX
 10
12.0
 20
9.0
  9
$UNITMODE
 70
     0
  9
$VISRETAIN
 70
     0
  9
$PLINEGEN
 70
     0
  9
$PSLTSCALE
 70
     0
  0
ENDSEC
  0
SECTION
  2
TABLES
  0
TABLE
  2
VPORT
 70
     1
  0
VPORT
  2
*ACTIVE
 70
     0
 10
0.0
 20
0.0
 11
1.0
 21
1.0
 12
139.59455822309599
 22
-30.120666751522659
 13
0.0
 23
0.0
 14
400.0
 24
400.0
 15
400.0
 25
400.0
 16
0.0
 26
0.0
 36
1.0
 17
0.0
 27
0.0
 37
0.0
 40
898.31396799275115
 41
1.313669064748201
 42
50.0
 43
0.0
 44
0.0
 50
0.0
 51
0.0
 71
     0
 72
   500
 73
     1
 74
     0
 75
     0
 76
     0
 77
     0
 78
     0
  0
ENDTAB
  0
TABLE
  2
LTYPE
 70
     3
  0
LTYPE
  2
CONTINUOUS
 70
     0
  3
実線
 72
    65
 73
     0
 40
0.0
  0
LTYPE
  2
DASHED
 70
     0
  3
_ _ _ _ _ _ _ _ _ _ _ _ _ _ _ _ _ _ _ _ _ _ _
 72
    65
 73
     2
 40
2.0
 49
1.1999999999999991
 49
-0.8
  0
LTYPE
  2
DASHDOT
 70
     0
  3
____ _ ____ _ ____ _ ____ _ ____ _ ____ _ ____
 72
    65
 73
     4
 40
5.5
 49
4.0
 49
-0.6
 49
0.3
 49
-0.6
  0
ENDTAB
  0
TABLE
  2
LAYER
 70
    12
  0
LAYER
  2
0
 70
     0
 62
     7
  6
CONTINUOUS
  0
LAYER
  2
SIZE
 70
     0
 62
    30
  6
CONTINUOUS
  0
LAYER
  2
OUTLINE
 70
     0
 62
     3
  6
CONTINUOUS
  0
LAYER
  2
DETAIL
 70
     0
 62
     5
  6
CONTINUOUS
  0
LAYER
  2
BASIS
 70
     0
 62
     6
  6
DASHDOT
  0
LAYER
  2
ARRANGE
 70
     0
 62
     1
  6
CONTINUOUS
  0
LAYER
  2
ETC
 70
     0
 62
    61
  6
CONTINUOUS
  0
LAYER
  2
DEFPOINTS
 70
     0
 62
     7
  6
CONTINUOUS
  0
LAYER
  2
FIX
 70
     0
 62
    11
  6
CONTINUOUS
  0
LAYER
  2
NOTE
 70
     0
 62
     4
  6
CONTINUOUS
  0
LAYER
  2
SERVICESPACE
 70
     0
 62
     2
  6
DASHDOT
  0
LAYER
  2
SYMBOLLINE
 70
     0
 62
    15
  6
CONTINUOUS
  0
ENDTAB
  0
TABLE
  2
STYLE
 70
     2
  0
STYLE
  2
STANDARD
 70
     0
 40
0.0
 41
0.9
 50
0.0
 71
     0
 42
64.0
  3
SIMPLEX
  4
BIGFONT
  0
STYLE
  2
ANNOTATIVE
 70
     0
 40
0.0
 41
1.0
 50
0.0
 71
     0
 42
0.2
  3
txt
  4

  0
ENDTAB
  0
TABLE
  2
VIEW
 70
     1
  0
VIEW
  2
ALL
 70
     0
 40
6374.9789810000002
 10
0.0
 20
58.115015999999997
 41
8842.1052629999976
 11
0.0
 21
0.0
 31
1.0
 12
0.0
 22
0.0
 32
0.0
 42
50.0
 43
0.0
 44
0.0
 50
0.0
 71
     0
  0
ENDTAB
  0
TABLE
  2
UCS
 70
     0
  0
ENDTAB
  0
TABLE
  2
APPID
 70
     3
  0
APPID
  2
ACAD
 70
     0
  0
APPID
  2
ACADANNOTATIVE
 70
     0
  0
APPID
  2
ACAD_MLEADERVER
 70
     0
  0
ENDTAB
  0
TABLE
  2
DIMSTYLE
 70
     2
  0
DIMSTYLE
  2
STANDARD
 70
     0
  3

  4

  5

  6

  7

 40
1.0
 41
0.18
 42
0.0625
 43
0.38
 44
0.18
 45
0.0
 46
0.0
 47
0.0
 48
0.0
140
0.18
141
0.09
142
0.0
143
25.399999999999999
144
1.0
145
0.0
146
1.0
147
0.09
 71
     0
 72
     0
 73
     1
 74
     1
 75
     0
 76
     0
 77
     0
 78
     0
170
     0
171
     2
172
     0
173
     0
174
     0
175
     0
176
     7
177
     7
178
     7
  0
DIMSTYLE
  2
ANNOTATIVE
 70
     0
  3

  4

  5

  6

  7

 40
1.0
 41
0.18
 42
0.0625
 43
0.38
 44
0.18
 45
0.0
 46
0.0
 47
0.0
 48
0.0
140
0.18
141
0.09
142
0.0
143
25.399999999999999
144
1.0
145
0.0
146
1.0
147
0.09
 71
     0
 72
     0
 73
     1
 74
     1
 75
     0
 76
     0
 77
     0
 78
     0
170
     0
171
     2
172
     0
173
     0
174
     0
175
     0
176
     0
177
     0
178
     0
  0
ENDTAB
  0
ENDSEC
  0
SECTION
  2
BLOCKS
  0
BLOCK
  8
0
  2
$MODEL_SPACE
 70
     0
 10
0.0
 20
0.0
 30
0.0
  3
$MODEL_SPACE
  1

  0
ENDBLK
  5
76
  8
0
  0
BLOCK
 67
     1
  8
0
  2
$PAPER_SPACE
 70
     0
 10
0.0
 20
0.0
 30
0.0
  3
$PAPER_SPACE
  1

  0
ENDBLK
  5
72
 67
     1
  8
0
  0
BLOCK
  8
SIZE
  2
DOT1
 70
     0
 10
0.0
 20
0.0
 30
0.0
  3
DOT1
  1

  0
CIRCLE
  5
8C
  8
SIZE
  6
CONTINUOUS
 62
     8
 10
0.0
 20
0.0
 30
0.0
 40
3.0
  0
ENDBLK
  5
8D
  8
SIZE
  0
ENDSEC
  0
SECTION
  2
ENTITIES
  0
TEXT
  5
8E
  8
ETC
  6
CONTINUOUS
 62
    61
 10
293.76268299999998
 20
200.15730300000001
 30
0.0
 40
40.0
  1
システム部材
 41
0.9
  0
TEXT
  5
8F
  8
ETC
  6
CONTINUOUS
 62
    61
 10
303.11981800000001
 20
258.22419600000001
 30
0.0
 40
40.0
  1
P-13FAK5_4
 41
0.9
  0
LINE
  5
90
  8
DETAIL
  6
CONTINUOUS
 62
     5
 10
0.0
 20
0.0
 30
0.0
 11
0.0
 21
-78.5
 31
0.0
  0
LINE
  5
91
  8
DETAIL
  6
CONTINUOUS
 62
     5
 10
53.0
 20
48.5
 30
0.0
 11
53.0
 21
-48.5
 31
0.0
  0
LINE
  5
92
  8
DETAIL
  6
CONTINUOUS
 62
     5
 10
0.0
 20
-48.5
 30
0.0
 11
53.0
 21
-48.5
 31
0.0
  0
LINE
  5
93
  8
DETAIL
  6
CONTINUOUS
 62
     5
 10
0.0
 20
48.5
 30
0.0
 11
53.0
 21
48.5
 31
0.0
  0
ARC
  5
94
  8
DETAIL
  6
CONTINUOUS
 62
     5
 10
-38.534725999999999
 20
-54.831797999999999
 30
0.0
 40
2.0949719999999998
 50
180.0
 51
277.68702300000001
  0
LINE
  5
95
  8
DETAIL
  6
CONTINUOUS
 62
     5
 10
-40.629697999999998
 20
-54.831797999999999
 30
0.0
 11
-40.629697999999998
 21
-31.752452000000002
 31
0.0
  0
LINE
  5
96
  8
DETAIL
  6
CONTINUOUS
 62
     5
 10
-38.254499000000003
 20
-56.907943999999993
 30
0.0
 11
-35.003256
 21
-56.469107999999999
 31
0.0
  0
ARC
  5
97
  8
DETAIL
  6
DASHED
 62
     5
 10
-7.5558659999999991
 20
-76.055866000000009
 30
0.0
 40
2.444134
 50
180.0
 51
270.0
  0
LINE
  5
98
  8
DETAIL
  6
DASHED
 62
     5
 10
-7.5558659999999991
 20
-78.5
 30
0.0
 11
0.349162
 21
-78.5
 31
0.0
  0
LINE
  5
99
  8
DETAIL
  6
CONTINUOUS
 62
     5
 10
-35.0
 20
-55.865921999999998
 30
0.0
 11
-35.0
 21
-63.0
 31
0.0
  0
LINE
  5
9A
  8
DETAIL
  6
CONTINUOUS
 62
     5
 10
-35.162481
 20
-63.0
 30
0.0
 11
-10.0
 21
-63.0
 31
0.0
  0
LINE
  5
9B
  8
DETAIL
  6
CONTINUOUS
 62
     5
 10
-35.162481
 20
-62.650838
 30
0.0
 11
-35.0
 21
-62.650838
 31
0.0
  0
ARC
  5
9C
  8
DETAIL
  6
CONTINUOUS
 62
     5
 10
-7.5558659999999991
 20
76.055866000000009
 30
0.0
 40
2.444134
 50
90.0
 51
180.0
  0
LINE
  5
9D
  8
DETAIL
  6
CONTINUOUS
 62
     5
 10
-10.0
 20
76.055866000000009
 30
0.0
 11
-10.0
 21
0.0
 31
0.0
  0
LINE
  5
9E
  8
DETAIL
  6
CONTINUOUS
 62
     5
 10
-7.5558659999999991
 20
78.5
 30
0.0
 11
0.0
 21
78.5
 31
0.0
  0
LINE
  5
9F
  8
DETAIL
  6
CONTINUOUS
 62
     5
 10
0.0
 20
78.5
 30
0.0
 11
0.0
 21
0.0
 31
0.0
  0
LINE
  5
A0
  8
DETAIL
  6
CONTINUOUS
 62
     5
 10
-36.264757000000003
 20
-66.113854000000003
 30
0.0
 11
-35.499746000000002
 21
-63.258792000000007
 31
0.0
  0
LINE
  5
A1
  8
DETAIL
  6
CONTINUOUS
 62
     5
 10
-36.602021999999998
 20
-66.023483999999996
 30
0.0
 11
-35.837009999999999
 21
-63.168421999999993
 31
0.0
  0
ARC
  5
A2
  8
DETAIL
  6
CONTINUOUS
 62
     5
 10
-35.162481
 20
-63.349162
 30
0.0
 40
0.349162
 50
90.0
 51
165.0
  0
ARC
  5
A3
  8
DETAIL
  6
CONTINUOUS
 62
     5
 10
-35.162481
 20
-63.349162
 30
0.0
 40
0.6983239999999999
 50
90.0
 51
165.0
  0
LINE
  5
A4
  8
DETAIL
  6
CONTINUOUS
 62
     5
 10
-36.264757000000003
 20
-66.113854000000003
 30
0.0
 11
-36.602021999999998
 21
-66.023483999999996
 31
0.0
  0
LINE
  5
A6
  8
BASIS
  6
DASHDOT
 62
     6
 10
-142.57762700000001
 20
0.0
 30
0.0
 11
82.713993999999985
 21
0.0
 31
0.0
  0
LINE
  5
A7
  8
OUTLINE
  6
CONTINUOUS
 62
     3
 10
0.0
 20
78.5
 30
0.0
 11
0.0
 21
0.0
 31
0.0
  0
LINE
  5
A8
  8
OUTLINE
  6
CONTINUOUS
 62
     3
 10
-7.5558659999999991
 20
78.5
 30
0.0
 11
0.0
 21
78.5
 31
0.0
  0
LINE
  5
A9
  8
OUTLINE
  6
CONTINUOUS
 62
     3
 10
-10.0
 20
76.055866000000009
 30
0.0
 11
-10.0
 21
63.0
 31
0.0
  0
ARC
  5
AA
  8
OUTLINE
  6
CONTINUOUS
 62
     3
 10
-7.5558659999999991
 20
76.055866000000009
 30
0.0
 40
2.444134
 50
90.0
 51
180.0
  0
LINE
  5
AB
  8
OUTLINE
  6
CONTINUOUS
 62
     3
 10
0.0
 20
48.5
 30
0.0
 11
53.0
 21
48.5
 31
0.0
  0
LINE
  5
AC
  8
OUTLINE
  6
CONTINUOUS
 62
     3
 10
0.0
 20
-48.5
 30
0.0
 11
53.0
 21
-48.5
 31
0.0
  0
LINE
  5
AD
  8
OUTLINE
  6
CONTINUOUS
 62
     3
 10
53.0
 20
48.5
 30
0.0
 11
53.0
 21
-48.5
 31
0.0
  0
LINE
  5
AE
  8
OUTLINE
  6
CONTINUOUS
 62
     3
 10
0.0
 20
0.0
 30
0.0
 11
0.0
 21
-48.5
 31
0.0
  0
LINE
  5
AF
  8
SIZE
  6
CONTINUOUS
 62
    30
 10
0.0
 20
97.5
 30
0.0
 11
0.0
 21
167.150328
 31
0.0
  0
LINE
  5
B0
  8
SIZE
  6
CONTINUOUS
 62
    30
 10
-10.0
 20
95.055865999999995
 30
0.0
 11
-10.0
 21
167.150328
 31
0.0
  0
LINE
  5
B1
  8
SIZE
  6
CONTINUOUS
 62
    30
 10
-2.0
 20
137.150328
 30
0.0
 11
-8.0
 21
137.150328
 31
0.0
  0
TEXT
  5
B2
  8
SIZE
  6
CONTINUOUS
 62
    30
 10
79.244188857142859
 20
151.09801300000001
 30
0.0
 40
64.0
  1
10
 41
0.9
 72
     1
 11
120.387046
 21
151.09801300000001
 31
0.0
  0
CIRCLE
  5
B3
  8
SIZE
  6
CONTINUOUS
 62
     8
 10
0.0
 20
137.150328
 30
0.0
 40
6.0
  0
CIRCLE
  5
B4
  8
SIZE
  6
CONTINUOUS
 62
     8
 10
-10.0
 20
137.150328
 30
0.0
 40
6.0
  0
POINT
  5
B5
  8
DEFPOINTS
  6
CONTINUOUS
 62
    30
 10
0.0
 20
77.5
 30
0.0
  0
POINT
  5
B6
  8
DEFPOINTS
  6
CONTINUOUS
 62
    30
 10
-10.0
 20
75.055865999999995
 30
0.0
  0
POINT
  5
B7
  8
DEFPOINTS
  6
CONTINUOUS
 62
    30
 10
-10.0
 20
137.150328
 30
0.0
  0
LINE
  5
B8
  8
SIZE
  6
CONTINUOUS
 62
    30
 10
0.0
 20
97.5
 30
0.0
 11
0.0
 21
258.61148800000001
 31
0.0
  0
LINE
  5
B9
  8
SIZE
  6
CONTINUOUS
 62
    30
 10
53.0
 20
67.592179000000002
 30
0.0
 11
53.0
 21
258.61148800000001
 31
0.0
  0
LINE
  5
BA
  8
SIZE
  6
CONTINUOUS
 62
    30
 10
0.0
 20
228.61148800000001
 30
0.0
 11
53.0
 21
228.61148800000001
 31
0.0
  0
TEXT
  5
BB
  8
SIZE
  6
CONTINUOUS
 62
    30
 10
78.488871571428575
 20
254.75335200000001
 30
0.0
 40
64.0
  1
53
 41
0.9
 72
     1
 11
125.11744299999999
 21
254.75335200000001
 31
0.0
  0
CIRCLE
  5
BC
  8
SIZE
  6
CONTINUOUS
 62
     8
 10
0.0
 20
228.61148800000001
 30
0.0
 40
6.0
  0
CIRCLE
  5
BD
  8
SIZE
  6
CONTINUOUS
 62
     8
 10
53.0
 20
228.61148800000001
 30
0.0
 40
6.0
  0
POINT
  5
BE
  8
DEFPOINTS
  6
CONTINUOUS
 62
    30
 10
0.0
 20
77.5
 30
0.0
  0
POINT
  5
BF
  8
DEFPOINTS
  6
CONTINUOUS
 62
    30
 10
52.0
 20
47.592178999999987
 30
0.0
  0
POINT
  5
C0
  8
DEFPOINTS
  6
CONTINUOUS
 62
    30
 10
52.0
 20
228.61148800000001
 30
0.0
  0
LINE
  5
C1
  8
SIZE
  6
CONTINUOUS
 62
    30
 10
0.0
 20
137.150328
 30
0.0
 11
175.292508
 21
137.150328
 31
0.0
  0
LINE
  5
C2
  8
SIZE
  6
CONTINUOUS
 62
    30
 10
71.092179000000002
 20
48.5
 30
0.0
 11
317.43520899999999
 21
48.5
 31
0.0
  0
LINE
  5
C3
  8
SIZE
  6
CONTINUOUS
 62
    30
 10
71.162010999999993
 20
-48.5
 30
0.0
 11
317.43520899999999
 21
-48.5
 31
0.0
  0
LINE
  5
C4
  8
SIZE
  6
CONTINUOUS
 62
    30
 10
287.43520899999999
 20
46.5
 30
0.0
 11
287.43520899999999
 21
-46.5
 31
0.0
  0
TEXT
  5
C5
  8
SIZE
  6
CONTINUOUS
 62
    30
 10
255.43520899999999
 20
-247.66622242857139
 30
0.0
 40
64.0
  1
φ97
 50
90.0
 41
0.9
 72
     1
 11
255.43520899999999
 21
-160.71765099999999
 31
0.0
  0
CIRCLE
  5
C6
  8
SIZE
  6
CONTINUOUS
 62
     8
 10
287.43520899999999
 20
48.5
 30
0.0
 40
6.0
  0
CIRCLE
  5
C7
  8
SIZE
  6
CONTINUOUS
 62
     8
 10
287.43520899999999
 20
-48.5
 30
0.0
 40
6.0
  0
POINT
  5
C8
  8
DEFPOINTS
  6
CONTINUOUS
 62
    30
 10
51.092178999999987
 20
48.5
 30
0.0
  0
POINT
  5
C9
  8
DEFPOINTS
  6
CONTINUOUS
 62
    30
 10
51.162011
 20
-48.5
 30
0.0
  0
POINT
  5
CA
  8
DEFPOINTS
  6
CONTINUOUS
 62
    30
 10
287.43520899999999
 20
-48.5
 30
0.0
  0
LINE
  5
CB
  8
SIZE
  6
CONTINUOUS
 62
    30
 10
287.43520899999999
 20
-50.5
 30
0.0
 11
287.43520899999999
 21
-233.43004199999999
 31
0.0
  0
POINT
  5
CC
  8
ARRANGE
  6
CONTINUOUS
 62
     1
 10
0.0
 20
0.0
 30
0.0
  0
CIRCLE
  5
CD
  8
ARRANGE
  6
CONTINUOUS
 62
     1
 10
0.0
 20
0.0
 30
0.0
 40
40.0
  0
LINE
  5
CE
  8
DETAIL
  6
CONTINUOUS
 62
     5
 10
-10.0
 20
0.0
 30
0.0
 11
-10.0
 21
-76.055866000000009
 31
0.0
  0
LINE
  5
CF
  8
OUTLINE
  6
CONTINUOUS
 62
     3
 10
-10.0
 20
-63.0
 30
0.0
 11
-10.0
 21
-76.055866000000009
 31
0.0
  0
ARC
  5
D0
  8
OUTLINE
  6
DASHED
 62
     3
 10
-7.5558659999999991
 20
-76.055866000000009
 30
0.0
 40
2.444134
 50
180.0
 51
270.0
  0
LINE
  5
D1
  8
OUTLINE
  6
DASHED
 62
     3
 10
-7.5558659999999991
 20
-78.5
 30
0.0
 11
0.349162
 21
-78.5
 31
0.0
  0
LINE
  5
D2
  8
OUTLINE
  6
CONTINUOUS
 62
     3
 10
0.0
 20
-48.5
 30
0.0
 11
0.0
 21
-78.5
 31
0.0
  0
LINE
  5
D3
  8
OUTLINE
  6
CONTINUOUS
 62
     3
 10
-35.0
 20
-63.0
 30
0.0
 11
-10.0
 21
-63.0
 31
0.0
  0
LINE
  5
D4
  8
OUTLINE
  6
CONTINUOUS
 62
     3
 10
-35.0
 20
-55.865921999999998
 30
0.0
 11
-35.0
 21
-63.0
 31
0.0
  0
LINE
  5
D5
  8
OUTLINE
  6
CONTINUOUS
 62
     3
 10
-38.254499000000003
 20
-56.907943999999993
 30
0.0
 11
-35.003256
 21
-56.469107999999999
 31
0.0
  0
LINE
  5
D6
  8
OUTLINE
  6
CONTINUOUS
 62
     3
 10
-40.629697999999998
 20
-54.831797999999999
 30
0.0
 11
-40.629697999999998
 21
-31.752452000000002
 31
0.0
  0
ARC
  5
D7
  8
OUTLINE
  6
CONTINUOUS
 62
     3
 10
-38.534725999999999
 20
-54.831797999999999
 30
0.0
 40
2.0949719999999998
 50
180.0
 51
277.68702300000001
  0
ARC
  5
D8
  8
DETAIL
  6
CONTINUOUS
 62
     5
 10
-35.071559000000001
 20
0.072975
 30
0.0
 40
62.928483999999997
 50
90.390095000000002
 51
180.06644299999999
  0
LINE
  5
D9
  8
DETAIL
  6
CONTINUOUS
 62
     5
 10
-35.5
 20
63.0
 30
0.0
 11
-10.0
 21
63.0
 31
0.0
  0
ARC
  5
DA
  8
DETAIL
  6
CONTINUOUS
 62
     5
 10
-90.865921999999998
 20
-55.865921999999998
 30
0.0
 40
55.865921999999998
 50
0.0
 51
90.0
  0
LINE
  5
DB
  8
SIZE
  6
CONTINUOUS
 62
    30
 10
0.0
 20
97.5
 30
0.0
 11
0.0
 21
258.61148800000001
 31
0.0
  0
LINE
  5
DC
  8
SIZE
  6
CONTINUOUS
 62
    30
 10
-98.0
 20
20.0
 30
0.0
 11
-98.0
 21
258.61148800000001
 31
0.0
  0
LINE
  5
DD
  8
SIZE
  6
CONTINUOUS
 62
    30
 10
0.0
 20
228.61148800000001
 30
0.0
 11
-98.0
 21
228.61148800000001
 31
0.0
  0
TEXT
  5
DE
  8
SIZE
  6
CONTINUOUS
 62
    30
 10
-222.51939742857141
 20
260.61148800000001
 30
0.0
 40
64.0
  1
98
 41
0.9
 72
     1
 11
-175.890826
 21
260.61148800000001
 31
0.0
  0
CIRCLE
  5
DF
  8
SIZE
  6
CONTINUOUS
 62
     8
 10
0.0
 20
228.61148800000001
 30
0.0
 40
6.0
  0
CIRCLE
  5
E0
  8
SIZE
  6
CONTINUOUS
 62
     8
 10
-98.0
 20
228.61148800000001
 30
0.0
 40
6.0
  0
POINT
  5
E1
  8
DEFPOINTS
  6
CONTINUOUS
 62
    30
 10
0.0
 20
77.5
 30
0.0
  0
POINT
  5
E2
  8
DEFPOINTS
  6
CONTINUOUS
 62
    30
 10
-98.0
 20
0.0
 30
0.0
  0
POINT
  5
E3
  8
DEFPOINTS
  6
CONTINUOUS
 62
    30
 10
-98.0
 20
228.61148800000001
 30
0.0
  0
LINE
  5
E4
  8
SIZE
  6
CONTINUOUS
 62
    30
 10
-96.0
 20
228.61148800000001
 30
0.0
 11
-224.492276
 21
228.61148800000001
 31
0.0
  0
LINE
  5
E5
  8
SIZE
  6
CONTINUOUS
 62
    30
 10
-176.15227300000001
 20
-62.5
 30
0.0
 11
-176.15227300000001
 21
-306.19678699999997
 31
0.0
  0
LINE
  5
E6
  8
DETAIL
  6
CONTINUOUS
 62
     5
 10
-90.865921999999998
 20
0.0
 30
0.0
 11
-98.0
 21
0.0
 31
0.0
  0
LINE
  5
E7
  8
OUTLINE
  6
CONTINUOUS
 62
     3
 10
-35.5
 20
63.0
 30
0.0
 11
-10.0
 21
63.0
 31
0.0
  0
ARC
  5
E8
  8
OUTLINE
  6
CONTINUOUS
 62
     3
 10
-35.071559000000001
 20
0.072975
 30
0.0
 40
62.928483999999997
 50
90.390095000000002
 51
180.06644299999999
  0
LINE
  5
E9
  8
OUTLINE
  6
CONTINUOUS
 62
     3
 10
-90.865921999999998
 20
0.0
 30
0.0
 11
-98.0
 21
0.0
 31
0.0
  0
ARC
  5
EA
  8
OUTLINE
  6
CONTINUOUS
 62
     3
 10
-90.865921999999998
 20
-55.865921999999998
 30
0.0
 40
55.865921999999998
 50
0.0
 51
90.0
  0
LINE
  5
EB
  8
OUTLINE
  6
CONTINUOUS
 62
     3
 10
-35.0
 20
-63.0
 30
0.0
 11
-10.0
 21
-63.0
 31
0.0
  0
LINE
  5
EC
  8
SIZE
  6
CONTINUOUS
 62
    30
 10
-30.0
 20
63.0
 30
0.0
 11
-206.15227300000001
 21
63.0
 31
0.0
  0
LINE
  5
ED
  8
SIZE
  6
CONTINUOUS
 62
    30
 10
-55.0
 20
-63.0
 30
0.0
 11
-206.15227300000001
 21
-63.0
 31
0.0
  0
LINE
  5
EE
  8
SIZE
  6
CONTINUOUS
 62
    30
 10
-176.15227300000001
 20
61.0
 30
0.0
 11
-176.15227300000001
 21
-61.0
 31
0.0
  0
TEXT
  5
EF
  8
SIZE
  6
CONTINUOUS
 62
    30
 10
-208.15227300000001
 20
-322.98774600000002
 30
0.0
 40
64.0
  1
φ126
 50
90.0
 41
0.9
 72
     1
 11
-208.15227300000001
 21
-215.46774600000001
 31
0.0
  0
CIRCLE
  5
F0
  8
SIZE
  6
CONTINUOUS
 62
     8
 10
-176.15227300000001
 20
63.0
 30
0.0
 40
6.0
  0
CIRCLE
  5
F1
  8
SIZE
  6
CONTINUOUS
 62
     8
 10
-176.15227300000001
 20
-63.0
 30
0.0
 40
6.0
  0
POINT
  5
F2
  8
DEFPOINTS
  6
CONTINUOUS
 62
    30
 10
-10.0
 20
63.0
 30
0.0
  0
POINT
  5
F3
  8
DEFPOINTS
  6
CONTINUOUS
 62
    30
 10
-35.0
 20
-63.0
 30
0.0
  0
POINT
  5
F4
  8
DEFPOINTS
  6
CONTINUOUS
 62
    30
 10
-176.15227300000001
 20
-63.0
 30
0.0
  0
LINE
  5
F5
  8
SIZE
  6
CONTINUOUS
 62
    30
 10
-20.0
 20
78.5
 30
0.0
 11
-315.551582
 21
78.5
 31
0.0
  0
LINE
  5
F6
  8
SIZE
  6
CONTINUOUS
 62
    30
 10
-20.0
 20
-78.5
 30
0.0
 11
-315.551582
 21
-78.5
 31
0.0
  0
LINE
  5
F7
  8
SIZE
  6
CONTINUOUS
 62
    30
 10
-285.551582
 20
76.5
 30
0.0
 11
-285.551582
 21
-76.5
 31
0.0
  0
TEXT
  5
F8
  8
SIZE
  6
CONTINUOUS
 62
    30
 10
-329.29265099999998
 20
-108.89142857142851
 30
0.0
 40
64.0
  1
φ157
 50
90.0
 41
0.9
 72
     1
 11
-329.29265099999998
 21
0.0
 31
0.0
  0
CIRCLE
  5
F9
  8
SIZE
  6
CONTINUOUS
 62
     8
 10
-285.551582
 20
78.5
 30
0.0
 40
6.0
  0
CIRCLE
  5
FA
  8
SIZE
  6
CONTINUOUS
 62
     8
 10
-285.551582
 20
-78.5
 30
0.0
 40
6.0
  0
POINT
  5
FB
  8
DEFPOINTS
  6
CONTINUOUS
 62
    30
 10
0.0
 20
78.5
 30
0.0
  0
POINT
  5
FC
  8
DEFPOINTS
  6
CONTINUOUS
 62
    30
 10
0.0
 20
-78.5
 30
0.0
  0
POINT
  5
FD
  8
DEFPOINTS
  6
CONTINUOUS
 62
    30
 10
-285.551582
 20
-78.5
 30
0.0
  0
LINE
  5
FE
  8
SIZE
  6
CONTINUOUS
 62
    30
 10
-35.0
 20
-82.650838000000007
 30
0.0
 11
-35.0
 21
-224.02411799999999
 31
0.0
  0
LINE
  5
FF
  8
SIZE
  6
CONTINUOUS
 62
    30
 10
0.0
 20
-98.500000000000014
 30
0.0
 11
0.0
 21
-224.02411799999999
 31
0.0
  0
LINE
  5
100
  8
SIZE
  6
CONTINUOUS
 62
    30
 10
-33.0
 20
-194.02411799999999
 30
0.0
 11
-2.0
 21
-194.02411799999999
 31
0.0
  0
TEXT
  5
101
  8
SIZE
  6
CONTINUOUS
 62
    30
 10
21.842537571428579
 20
-184.678967
 30
0.0
 40
64.0
  1
35
 41
0.9
 72
     1
 11
68.471108999999998
 21
-184.678967
 31
0.0
  0
CIRCLE
  5
102
  8
SIZE
  6
CONTINUOUS
 62
     8
 10
-35.0
 20
-194.02411799999999
 30
0.0
 40
6.0
  0
CIRCLE
  5
103
  8
SIZE
  6
CONTINUOUS
 62
     8
 10
0.0
 20
-194.02411799999999
 30
0.0
 40
6.0
  0
POINT
  5
104
  8
DEFPOINTS
  6
CONTINUOUS
 62
    30
 10
-35.0
 20
-62.650838
 30
0.0
  0
POINT
  5
105
  8
DEFPOINTS
  6
CONTINUOUS
 62
    30
 10
0.0
 20
-78.5
 30
0.0
  0
POINT
  5
106
  8
DEFPOINTS
  6
CONTINUOUS
 62
    30
 10
0.0
 20
-194.02411799999999
 30
0.0
  0
LINE
  5
107
  8
SIZE
  6
CONTINUOUS
 62
    30
 10
-6.0
 20
-194.02411799999999
 30
0.0
 11
124.432779
 21
-194.02411799999999
 31
0.0
  0
LINE
  5
108
  8
SIZE
  6
CONTINUOUS
 62
    30
 10
50.0
 20
228.61148800000001
 30
0.0
 11
179.75075000000001
 21
228.61148800000001
 31
0.0
  0
ENDSEC
  0
EOF
