  0
SECTION
  2
HEADER
  9
$ACADVER
  1
AC1009
  9
$DWGCODEPAGE
  3
dos932
  9
$INSBASE
 10
0.0
 20
0.0
 30
0.0
  9
$EXTMIN
 10
-565.246558
 20
-211.637861
 30
-0.001526
  9
$EXTMAX
 10
522.308365
 20
373.425304
 30
0.0
  9
$LIMMIN
 10
-4200.0
 20
-2970.0
  9
$LIMMAX
 10
4200.0
 20
2970.0
  9
$ORTHOMODE
 70
     1
  9
$REGENMODE
 70
     1
  9
$FILLMODE
 70
     1
  9
$QTEXTMODE
 70
     0
  9
$MIRRTEXT
 70
     0
  9
$DRAGMODE
 70
     2
  9
$LTSCALE
 40
20.0
  9
$OSMODE
 70
    37
  9
$ATTMODE
 70
     1
  9
$TEXTSIZE
 40
40.0
  9
$TRACEWID
 40
0.05
  9
$TEXTSTYLE
  7
STANDARD
  9
$CLAYER
  8
ARRANGE
  9
$CELTYPE
  6
CONTINUOUS
  9
$CECOLOR
 62
     7
  9
$DIMSCALE
 40
1.0
  9
$DIMASZ
 40
2.0
  9
$DIMEXO
 40
20.0
  9
$DIMDLI
 40
200.0
  9
$DIMRND
 40
0.0
  9
$DIMDLE
 40
0.0
  9
$DIMEXE
 40
30.0
  9
$DIMTP
 40
0.0
  9
$DIMTM
 40
0.0
  9
$DIMTXT
 40
64.0
  9
$DIMCEN
 40
0.09
  9
$DIMTSZ
 40
0.0
  9
$DIMTOL
 70
     0
  9
$DIMLIM
 70
     0
  9
$DIMTIH
 70
     0
  9
$DIMTOH
 70
     0
  9
$DIMSE1
 70
     0
  9
$DIMSE2
 70
     0
  9
$DIMTAD
 70
     1
  9
$DIMZIN
 70
     8
  9
$DIMBLK
  1
DOT1
  9
$DIMASO
 70
     1
  9
$DIMSHO
 70
     0
  9
$DIMPOST
  1

  9
$DIMAPOST
  1

  9
$DIMALT
 70
     0
  9
$DIMALTD
 70
     2
  9
$DIMALTF
 40
25.4
  9
$DIMLFAC
 40
1.0
  9
$DIMTOFL
 70
     1
  9
$DIMTVP
 40
0.0
  9
$DIMTIX
 70
     1
  9
$DIMSOXD
 70
     0
  9
$DIMSAH
 70
     0
  9
$DIMBLK1
  1

  9
$DIMBLK2
  1

  9
$DIMSTYLE
  2
STANDARD
  9
$DIMCLRD
 70
     7
  9
$DIMCLRE
 70
     7
  9
$DIMCLRT
 70
     7
  9
$DIMTFAC
 40
1.0
  9
$DIMGAP
 40
0.09
  9
$LUNITS
 70
     2
  9
$LUPREC
 70
     4
  9
$SKETCHINC
 40
0.1
  9
$FILLETRAD
 40
1.0
  9
$AUNITS
 70
     1
  9
$AUPREC
 70
     3
  9
$MENU
  1
ACAD
  9
$ELEVATION
 40
0.0
  9
$PELEVATION
 40
0.0
  9
$THICKNESS
 40
0.0
  9
$LIMCHECK
 70
     1
  9
$CHAMFERA
 40
0.0
  9
$CHAMFERB
 40
0.0
  9
$SKPOLY
 70
     0
  9
$TDCREATE
 40
2451793.482175915
  9
$TDUPDATE
 40
2457485.567326296
  9
$TDINDWG
 40
0.033376875
  9
$TDUSRTIMER
 40
0.033376875
  9
$USRTIMER
 70
     1
  9
$ANGBASE
 50
0.0
  9
$ANGDIR
 70
     0
  9
$PDMODE
 70
     3
  9
$PDSIZE
 40
-2.0
  9
$PLINEWID
 40
0.0
  9
$COORDS
 70
     1
  9
$SPLFRAME
 70
     0
  9
$SPLINETYPE
 70
     6
  9
$SPLINESEGS
 70
     8
  9
$ATTDIA
 70
     0
  9
$ATTREQ
 70
     1
  9
$HANDLING
 70
     1
  9
$HANDSEED
  5
4F5
  9
$SURFTAB1
 70
     6
  9
$SURFTAB2
 70
     6
  9
$SURFTYPE
 70
     6
  9
$SURFU
 70
     6
  9
$SURFV
 70
     6
  9
$UCSNAME
  2

  9
$UCSORG
 10
0.0
 20
0.0
 30
0.0
  9
$UCSXDIR
 10
1.0
 20
0.0
 30
0.0
  9
$UCSYDIR
 10
0.0
 20
1.0
 30
0.0
  9
$PUCSNAME
  2

  9
$PUCSORG
 10
0.0
 20
0.0
 30
0.0
  9
$PUCSXDIR
 10
1.0
 20
0.0
 30
0.0
  9
$PUCSYDIR
 10
0.0
 20
1.0
 30
0.0
  9
$USERI1
 70
     0
  9
$USERI2
 70
     0
  9
$USERI3
 70
     0
  9
$USERI4
 70
     0
  9
$USERI5
 70
     0
  9
$USERR1
 40
20.0
  9
$USERR2
 40
0.0
  9
$USERR3
 40
0.0
  9
$USERR4
 40
0.0
  9
$USERR5
 40
0.0
  9
$WORLDVIEW
 70
     1
  9
$SHADEDGE
 70
     3
  9
$SHADEDIF
 70
    70
  9
$TILEMODE
 70
     1
  9
$MAXACTVP
 70
    48
  9
$PLIMCHECK
 70
     0
  9
$PEXTMIN
 10
-1.000000000000000E+20
 20
-1.000000000000000E+20
 30
-1.000000000000000E+20
  9
$PEXTMAX
 10
1.000000000000000E+20
 20
1.000000000000000E+20
 30
1.000000000000000E+20
  9
$PLIMMIN
 10
0.0
 20
0.0
  9
$PLIMMAX
 10
12.0
 20
9.0
  9
$UNITMODE
 70
     0
  9
$VISRETAIN
 70
     0
  9
$PLINEGEN
 70
     0
  9
$PSLTSCALE
 70
     0
  0
ENDSEC
  0
SECTION
  2
TABLES
  0
TABLE
  2
VPORT
 70
     1
  0
VPORT
  2
*ACTIVE
 70
     0
 10
0.0
 20
0.0
 11
1.0
 21
1.0
 12
-21.469097
 22
80.893721
 13
0.0
 23
0.0
 14
400.0
 24
400.0
 15
400.0
 25
400.0
 16
0.0
 26
0.0
 36
1.0
 17
0.0
 27
0.0
 37
0.0
 40
765.771584
 41
1.428777
 42
50.0
 43
0.0
 44
0.0
 50
0.0
 51
0.0
 71
     0
 72
   500
 73
     1
 74
     0
 75
     0
 76
     0
 77
     0
 78
     1
  0
ENDTAB
  0
TABLE
  2
LTYPE
 70
     2
  0
LTYPE
  2
CONTINUOUS
 70
     0
  3
実線
 72
    65
 73
     0
 40
0.0
  0
LTYPE
  2
DASHDOT
 70
     0
  3
____ _ ____ _ ____ _ ____ _ ____ _ ____ _ ____
 72
    65
 73
     4
 40
5.5
 49
4.0
 49
-0.6
 49
0.3
 49
-0.6
  0
ENDTAB
  0
TABLE
  2
LAYER
 70
    12
  0
LAYER
  2
0
 70
     0
 62
     7
  6
CONTINUOUS
  0
LAYER
  2
OUTLINE
 70
     0
 62
     3
  6
CONTINUOUS
  0
LAYER
  2
DETAIL
 70
     0
 62
     5
  6
CONTINUOUS
  0
LAYER
  2
BASIS
 70
     0
 62
     6
  6
DASHDOT
  0
LAYER
  2
SIZE
 70
     0
 62
    30
  6
CONTINUOUS
  0
LAYER
  2
NOTE
 70
     0
 62
     4
  6
CONTINUOUS
  0
LAYER
  2
ARRANGE
 70
     0
 62
     1
  6
CONTINUOUS
  0
LAYER
  2
FIX
 70
     0
 62
    11
  6
CONTINUOUS
  0
LAYER
  2
ETC
 70
     0
 62
    61
  6
CONTINUOUS
  0
LAYER
  2
DEFPOINTS
 70
     0
 62
     7
  6
CONTINUOUS
  0
LAYER
  2
SERVICESPACE
 70
     0
 62
     2
  6
DASHDOT
  0
LAYER
  2
SYMBOLLINE
 70
     0
 62
    15
  6
CONTINUOUS
  0
ENDTAB
  0
TABLE
  2
STYLE
 70
     1
  0
STYLE
  2
STANDARD
 70
     0
 40
0.0
 41
0.9
 50
0.0
 71
     0
 42
40.0
  3
SIMPLEX
  4
BIGFONT
  0
ENDTAB
  0
TABLE
  2
VIEW
 70
     1
  0
VIEW
  2
ALL
 70
     0
 40
6374.978981
 10
0.0
 20
58.115016
 41
8842.105263
 11
0.0
 21
0.0
 31
1.0
 12
0.0
 22
0.0
 32
0.0
 42
50.0
 43
0.0
 44
0.0
 50
0.0
 71
     0
  0
ENDTAB
  0
TABLE
  2
UCS
 70
     0
  0
ENDTAB
  0
TABLE
  2
APPID
 70
     1
  0
APPID
  2
ACAD
 70
     0
  0
ENDTAB
  0
TABLE
  2
DIMSTYLE
 70
     1
  0
DIMSTYLE
  2
STANDARD
 70
     0
  3

  4

  5

  6

  7

 40
1.0
 41
0.18
 42
0.0625
 43
0.38
 44
0.18
 45
0.0
 46
0.0
 47
0.0
 48
0.0
140
0.18
141
0.09
142
0.0
143
25.4
144
1.0
145
0.0
146
1.0
147
0.09
 71
     0
 72
     0
 73
     1
 74
     1
 75
     0
 76
     0
 77
     0
 78
     0
170
     0
171
     2
172
     0
173
     0
174
     0
175
     0
176
     7
177
     7
178
     7
  0
ENDTAB
  0
ENDSEC
  0
SECTION
  2
BLOCKS
  0
BLOCK
  8
0
  2
$MODEL_SPACE
 70
     0
 10
0.0
 20
0.0
 30
0.0
  3
$MODEL_SPACE
  1

  0
ENDBLK
  5
4CD
  8
0
  0
BLOCK
 67
     1
  8
0
  2
$PAPER_SPACE
 70
     0
 10
0.0
 20
0.0
 30
0.0
  3
$PAPER_SPACE
  1

  0
ENDBLK
  5
4CF
 67
     1
  8
0
  0
BLOCK
  8
SIZE
  2
DOT1
 70
     0
 10
0.0
 20
0.0
 30
0.0
  3
DOT1
  1

  0
CIRCLE
  5
42F
  8
SIZE
  6
CONTINUOUS
 62
     8
 10
0.0
 20
0.0
 30
0.0
 40
3.0
  0
ENDBLK
  5
430
  8
SIZE
  0
ENDSEC
  0
SECTION
  2
ENTITIES
  0
TEXT
  5
431
  8
ETC
  6
CONTINUOUS
 62
    61
 10
173.483321
 20
142.88981
 30
0.0
 40
40.0
  1
システム部材
 41
0.9
  0
TEXT
  5
432
  8
ETC
  6
CONTINUOUS
 62
    61
 10
182.79143
 20
259.691131
 30
0.0
 40
40.0
  1
P-13GL5_5
 41
0.9
  0
TEXT
  5
433
  8
ETC
  6
CONTINUOUS
 62
    61
 10
184.372685
 20
201.421355
 30
0.0
 40
40.0
  1
P-13GLF5_5
 41
0.9
  0
CIRCLE
  5
434
  8
ARRANGE
  6
CONTINUOUS
 62
     1
 10
0.0
 20
0.0
 30
0.0
 40
40.0
  0
LINE
  5
435
  8
DETAIL
  6
CONTINUOUS
 62
     5
 10
-85.0
 20
0.0
 30
0.0
 11
85.0
 21
0.0
 31
0.0
  0
LINE
  5
436
  8
DETAIL
  6
CONTINUOUS
 62
     5
 10
-65.505217
 20
-15.0
 30
0.0
 11
65.505217
 21
-15.0
 31
0.0
  0
LINE
  5
437
  8
DETAIL
  6
CONTINUOUS
 62
     5
 10
-48.5
 20
50.0
 30
0.0
 11
48.5
 21
50.0
 31
0.0
  0
LINE
  5
438
  8
OUTLINE
  6
CONTINUOUS
 62
     3
 10
-85.0
 20
0.0
 30
0.0
 11
85.0
 21
0.0
 31
0.0
  0
LINE
  5
439
  8
OUTLINE
  6
CONTINUOUS
 62
     3
 10
-48.5
 20
50.0
 30
0.0
 11
48.5
 21
50.0
 31
0.0
  0
LINE
  5
43A
  8
SIZE
  6
CONTINUOUS
 62
    30
 10
48.5
 20
70.0
 30
0.0
 11
48.5
 21
292.895722
 31
0.0
  0
LINE
  5
43B
  8
SIZE
  6
CONTINUOUS
 62
    30
 10
-48.5
 20
70.0
 30
0.0
 11
-48.5
 21
292.895722
 31
0.0
  0
LINE
  5
43C
  8
SIZE
  6
CONTINUOUS
 62
    30
 10
46.5
 20
262.895722
 30
0.0
 11
-46.5
 21
262.895722
 31
0.0
  0
TEXT
  5
43D
  8
SIZE
  6
CONTINUOUS
 62
    30
 10
-156.688484
 20
309.047927
 30
0.0
 40
64.0
  1
97
 41
0.9
 72
     1
 11
-102.717284
 21
309.047927
 31
0.0
  0
CIRCLE
  5
43E
  8
SIZE
  6
CONTINUOUS
 62
     8
 10
48.5
 20
262.895722
 30
0.0
 40
6.0
  0
CIRCLE
  5
43F
  8
SIZE
  6
CONTINUOUS
 62
     8
 10
-48.5
 20
262.895722
 30
0.0
 40
6.0
  0
POINT
  5
440
  8
DEFPOINTS
  6
CONTINUOUS
 62
    30
 10
48.5
 20
50.0
 30
0.0
  0
POINT
  5
441
  8
DEFPOINTS
  6
CONTINUOUS
 62
    30
 10
-48.5
 20
50.0
 30
0.0
  0
POINT
  5
442
  8
DEFPOINTS
  6
CONTINUOUS
 62
    30
 10
-48.5
 20
262.895722
 30
0.0
  0
LINE
  5
443
  8
DETAIL
  6
CONTINUOUS
 62
     5
 10
-48.971251
 20
0.0
 30
0.0
 11
-48.5
 21
50.0
 31
0.0
  0
LINE
  5
444
  8
OUTLINE
  6
CONTINUOUS
 62
     3
 10
-48.971251
 20
0.0
 30
0.0
 11
-48.5
 21
50.0
 31
0.0
  0
LINE
  5
445
  8
NOTE
  6
CONTINUOUS
 62
     4
 10
-71.0
 20
0.0
 30
0.0
 11
-310.331726
 21
69.305981
 31
0.0
  0
LINE
  5
446
  8
NOTE
  6
CONTINUOUS
 62
     4
 10
-110.997406
 20
0.455552
 30
0.0
 11
-71.0
 21
0.0
 31
0.0
  0
LINE
  5
447
  8
NOTE
  6
CONTINUOUS
 62
     4
 10
-71.0
 20
0.0
 30
0.0
 11
-105.410993
 21
20.393223
 31
0.0
  0
LINE
  5
448
  8
DETAIL
  6
CONTINUOUS
 62
     5
 10
-63.009132
 20
-15.003121
 30
0.0
 11
-63.167977
 21
-15.000598
 31
0.0
  0
ARC
  5
449
  8
DETAIL
  6
CONTINUOUS
 62
     5
 10
-65.436968
 20
-14.001585
 30
0.0
 40
1.0
 50
252.6619060000003
 51
270.0013869999998
  0
LINE
  5
44A
  8
DETAIL
  6
CONTINUOUS
 62
     5
 10
-85.0
 20
0.0
 30
0.0
 11
-85.0
 21
-5.839013
 31
0.0
  0
LINE
  5
44B
  8
DETAIL
  6
CONTINUOUS
 62
     5
 10
-82.983814
 20
-8.782648
 30
0.0
 11
-65.505217
 21
-15.0
 31
0.0
  0
TEXT
  5
44C
  8
NOTE
  6
CONTINUOUS
 62
     4
 10
-563.317869
 20
92.557877
 30
0.0
 40
64.0
  1
4×φ4
 41
0.9
  0
LINE
  5
44D
  8
NOTE
  6
CONTINUOUS
 62
     4
 10
-564.9718
 20
69.373805
 30
0.0
 11
-310.331726
 21
69.305981
 31
0.0
  0
LINE
  5
44E
  8
SIZE
  6
CONTINUOUS
 62
    30
 10
-46.5
 20
262.895722
 30
0.0
 11
-180.295274
 21
262.895722
 31
0.0
  0
LINE
  5
44F
  8
DETAIL
  6
CONTINUOUS
 62
     5
 10
48.971251
 20
0.0
 30
0.0
 11
48.5
 21
50.0
 31
0.0
  0
LINE
  5
450
  8
SIZE
  6
CONTINUOUS
 62
    30
 10
85.505217
 20
-15.0
 30
0.0
 11
417.074677
 21
-15.0
 31
0.0
  0
LINE
  5
451
  8
SIZE
  6
CONTINUOUS
 62
    30
 10
68.5
 20
50.0
 30
0.0
 11
417.074677
 21
50.0
 31
0.0
  0
LINE
  5
452
  8
SIZE
  6
CONTINUOUS
 62
    30
 10
387.074677
 20
-13.0
 30
0.0
 11
387.074677
 21
48.0
 31
0.0
  0
TEXT
  5
453
  8
SIZE
  6
CONTINUOUS
 62
    30
 10
355.074677
 20
-137.079801
 30
0.0
 40
64.0
  1
65
 50
90.0
 41
0.9
 72
     1
 11
355.074677
 21
-83.10860100000001
 31
0.0
  0
CIRCLE
  5
454
  8
SIZE
  6
CONTINUOUS
 62
     8
 10
387.074677
 20
-15.0
 30
0.0
 40
6.0
  0
CIRCLE
  5
455
  8
SIZE
  6
CONTINUOUS
 62
     8
 10
387.074677
 20
50.0
 30
0.0
 40
6.0
  0
POINT
  5
456
  8
DEFPOINTS
  6
CONTINUOUS
 62
    30
 10
65.505217
 20
-15.0
 30
0.0
  0
POINT
  5
457
  8
DEFPOINTS
  6
CONTINUOUS
 62
    30
 10
48.5
 20
50.0
 30
0.0
  0
POINT
  5
458
  8
DEFPOINTS
  6
CONTINUOUS
 62
    30
 10
387.074677
 20
50.0
 30
0.0
  0
LINE
  5
459
  8
OUTLINE
  6
CONTINUOUS
 62
     3
 10
48.971251
 20
0.0
 30
0.0
 11
48.5
 21
50.0
 31
0.0
  0
LINE
  5
45A
  8
BASIS
  6
DASHDOT
 62
     6
 10
0.0
 20
-78.99723300000001
 30
0.0
 11
0.0
 21
78.930963
 31
0.0
  0
LINE
  5
45B
  8
SIZE
  6
CONTINUOUS
 62
    30
 10
105.0
 20
0.0
 30
0.0
 11
292.30681
 21
0.0
 31
0.0
  0
LINE
  5
45C
  8
SIZE
  6
CONTINUOUS
 62
    30
 10
85.505217
 20
-15.0
 30
0.0
 11
292.30681
 21
-15.0
 31
0.0
  0
LINE
  5
45D
  8
SIZE
  6
CONTINUOUS
 62
    30
 10
262.30681
 20
-2.0
 30
0.0
 11
262.30681
 21
-13.0
 31
0.0
  0
TEXT
  5
45E
  8
SIZE
  6
CONTINUOUS
 62
    30
 10
230.30681
 20
-124.894264
 30
0.0
 40
64.0
  1
15
 50
90.0
 41
0.9
 72
     1
 11
230.30681
 21
-76.337464
 31
0.0
  0
CIRCLE
  5
45F
  8
SIZE
  6
CONTINUOUS
 62
     8
 10
262.30681
 20
0.0
 30
0.0
 40
6.0
  0
CIRCLE
  5
460
  8
SIZE
  6
CONTINUOUS
 62
     8
 10
262.30681
 20
-15.0
 30
0.0
 40
6.0
  0
POINT
  5
461
  8
DEFPOINTS
  6
CONTINUOUS
 62
    30
 10
85.0
 20
0.0
 30
0.0
  0
POINT
  5
462
  8
DEFPOINTS
  6
CONTINUOUS
 62
    30
 10
65.505217
 20
-15.0
 30
0.0
  0
POINT
  5
463
  8
DEFPOINTS
  6
CONTINUOUS
 62
    30
 10
262.30681
 20
-15.0
 30
0.0
  0
ARC
  5
464
  8
DETAIL
  6
CONTINUOUS
 62
     5
 10
81.760493
 20
-5.782467
 30
0.0
 40
3.24
 50
292.18312
 51
308.0172690000001
  0
LINE
  5
465
  8
DETAIL
  6
CONTINUOUS
 62
     5
 10
85.0
 20
0.0
 30
0.0
 11
85.0
 21
-5.839013
 31
0.0
  0
LINE
  5
466
  8
DETAIL
  6
CONTINUOUS
 62
     5
 10
56.297411
 20
-14.998636
 30
0.0
 11
65.377486
 21
-15.001786
 31
0.0
  0
LINE
  5
467
  8
DETAIL
  6
CONTINUOUS
 62
     5
 10
82.983814
 20
-8.782648
 30
0.0
 11
65.505217
 21
-15.0
 31
0.0
  0
LINE
  5
468
  8
SIZE
  6
CONTINUOUS
 62
    30
 10
262.30681
 20
-17.0
 30
0.0
 11
262.30681
 21
-142.734607
 31
0.0
  0
LINE
  5
469
  8
SIZE
  6
CONTINUOUS
 62
    30
 10
387.074677
 20
-15.0
 30
0.0
 11
387.074677
 21
-139.204481
 31
0.0
  0
LINE
  5
46A
  8
DETAIL
  6
CONTINUOUS
 62
     5
 10
-85.0
 20
-5.839013
 30
0.0
 11
-88.0
 21
-11.839013
 31
0.0
  0
LINE
  5
46B
  8
DETAIL
  6
CONTINUOUS
 62
     5
 10
-88.0
 20
-11.839013
 30
0.0
 11
-86.0
 21
-12.839013
 31
0.0
  0
LINE
  5
46C
  8
DETAIL
  6
CONTINUOUS
 62
     5
 10
-83.750249
 20
-8.339511
 30
0.0
 11
-86.0
 21
-12.839013
 31
0.0
  0
ARC
  5
46D
  8
DETAIL
  6
CONTINUOUS
 62
     5
 10
-81.760493
 20
-5.782467
 30
0.0
 40
3.24
 50
232.1118429999999
 51
247.8168799999999
  0
LINE
  5
46E
  8
DETAIL
  6
CONTINUOUS
 62
     5
 10
85.0
 20
-5.839013
 30
0.0
 11
88.0
 21
-11.839013
 31
0.0
  0
LINE
  5
46F
  8
DETAIL
  6
CONTINUOUS
 62
     5
 10
88.0
 20
-11.839013
 30
0.0
 11
86.0
 21
-12.839013
 31
0.0
  0
LINE
  5
470
  8
DETAIL
  6
CONTINUOUS
 62
     5
 10
86.0
 20
-12.839013
 30
0.0
 11
83.733804
 21
-8.306621
 31
0.0
  0
LINE
  5
471
  8
SIZE
  6
CONTINUOUS
 62
    30
 10
-88.0
 20
-31.839013
 30
0.0
 11
-88.0
 21
-211.424107
 31
0.0
  0
LINE
  5
472
  8
SIZE
  6
CONTINUOUS
 62
    30
 10
88.0
 20
-31.839013
 30
0.0
 11
88.0
 21
-211.424107
 31
0.0
  0
LINE
  5
473
  8
SIZE
  6
CONTINUOUS
 62
    30
 10
-86.0
 20
-181.424107
 30
0.0
 11
86.0
 21
-181.424107
 31
0.0
  0
TEXT
  5
474
  8
SIZE
  6
CONTINUOUS
 62
    30
 10
-266.53418
 20
-149.368751
 30
0.0
 40
64.0
  1
176
 41
0.9
 72
     1
 11
-190.99178
 21
-149.368751
 31
0.0
  0
CIRCLE
  5
475
  8
SIZE
  6
CONTINUOUS
 62
     8
 10
-88.0
 20
-181.424107
 30
0.0
 40
6.0
  0
CIRCLE
  5
476
  8
SIZE
  6
CONTINUOUS
 62
     8
 10
88.0
 20
-181.424107
 30
0.0
 40
6.0
  0
POINT
  5
477
  8
DEFPOINTS
  6
CONTINUOUS
 62
    30
 10
-88.0
 20
-11.839013
 30
0.0
  0
POINT
  5
478
  8
DEFPOINTS
  6
CONTINUOUS
 62
    30
 10
88.0
 20
-11.839013
 30
0.0
  0
POINT
  5
479
  8
DEFPOINTS
  6
CONTINUOUS
 62
    30
 10
88.0
 20
-181.424107
 30
0.0
  0
LINE
  5
47A
  8
SIZE
  6
CONTINUOUS
 62
    30
 10
-86.0
 20
-181.424107
 30
0.0
 11
-273.434931
 21
-181.424107
 31
0.0
  0
LINE
  5
47B
  8
SIZE
  6
CONTINUOUS
 62
    30
 10
71.0
 20
20.0
 30
0.0
 11
71.0
 21
133.965533
 31
0.0
  0
LINE
  5
47C
  8
SIZE
  6
CONTINUOUS
 62
    30
 10
-71.0
 20
20.0
 30
0.0
 11
-71.0
 21
133.965533
 31
0.0
  0
LINE
  5
47D
  8
SIZE
  6
CONTINUOUS
 62
    30
 10
69.0
 20
103.965533
 30
0.0
 11
-69.0
 21
103.965533
 31
0.0
  0
TEXT
  5
47E
  8
SIZE
  6
CONTINUOUS
 62
    30
 10
-246.45842
 20
137.839242
 30
0.0
 40
64.0
  1
142
 41
0.9
 72
     1
 11
-170.91602
 21
137.839242
 31
0.0
  0
CIRCLE
  5
47F
  8
SIZE
  6
CONTINUOUS
 62
     8
 10
71.0
 20
103.965533
 30
0.0
 40
6.0
  0
CIRCLE
  5
480
  8
SIZE
  6
CONTINUOUS
 62
     8
 10
-71.0
 20
103.965533
 30
0.0
 40
6.0
  0
POINT
  5
481
  8
DEFPOINTS
  6
CONTINUOUS
 62
    30
 10
71.0
 20
0.0
 30
0.0
  0
POINT
  5
482
  8
DEFPOINTS
  6
CONTINUOUS
 62
    30
 10
-71.0
 20
0.0
 30
0.0
  0
POINT
  5
483
  8
DEFPOINTS
  6
CONTINUOUS
 62
    30
 10
-71.0
 20
103.965533
 30
0.0
  0
LINE
  5
484
  8
SIZE
  6
CONTINUOUS
 62
    30
 10
-65.0
 20
103.965533
 30
0.0
 11
-246.287199
 21
103.965533
 31
0.0
  0
ARC
  5
485
  8
FIX
  6
CONTINUOUS
 62
    11
 10
-72.251641
 20
0.097788
 30
0.0
 40
0.642508
 50
182.6385569999999
 51
227.908804
  0
ARC
  5
486
  8
FIX
  6
CONTINUOUS
 62
    11
 10
-71.681219
 20
0.664133
 30
0.0
 40
1.445801
 50
226.1779360000001
 51
244.3229719999998
  0
ARC
  5
487
  8
FIX
  6
CONTINUOUS
 62
    11
 10
-71.185098
 20
1.66128
 30
0.0
 40
2.559494
 50
243.9856739999998
 51
256.3780679999998
  0
ARC
  5
488
  8
FIX
  6
CONTINUOUS
 62
    11
 10
-70.906692
 20
2.797815
 30
0.0
 40
3.729629
 50
256.333443
 51
270.2031519999999
  0
ARC
  5
489
  8
FIX
  6
CONTINUOUS
 62
    11
 10
-70.880244
 20
2.797815
 30
0.0
 40
3.729629
 50
269.7968480000001
 51
283.666557
  0
ARC
  5
48A
  8
FIX
  6
CONTINUOUS
 62
    11
 10
-70.601838
 20
1.66128
 30
0.0
 40
2.559494
 50
283.6219320000001
 51
296.0143259999999
  0
ARC
  5
48B
  8
FIX
  6
CONTINUOUS
 62
    11
 10
-70.105717
 20
0.664133
 30
0.0
 40
1.445801
 50
295.6770280000002
 51
313.8220639999999
  0
ARC
  5
48C
  8
FIX
  6
CONTINUOUS
 62
    11
 10
-69.535295
 20
0.097788
 30
0.0
 40
0.642508
 50
312.0911959999999
 51
357.3614430000001
  0
ARC
  5
48D
  8
FIX
  6
CONTINUOUS
 62
    11
 10
-69.535295
 20
0.038632
 30
0.0
 40
0.642508
 50
2.638556999999961
 51
47.90880400000006
  0
ARC
  5
48E
  8
FIX
  6
CONTINUOUS
 62
    11
 10
-70.105717
 20
-0.527713
 30
0.0
 40
1.445801
 50
46.17793600000009
 51
64.32297199999981
  0
ARC
  5
48F
  8
FIX
  6
CONTINUOUS
 62
    11
 10
-70.601838
 20
-1.52486
 30
0.0
 40
2.559494
 50
63.98567400000012
 51
76.37806799999986
  0
ARC
  5
490
  8
FIX
  6
CONTINUOUS
 62
    11
 10
-70.880244
 20
-2.661395
 30
0.0
 40
3.729629
 50
76.33344299999999
 51
90.2031519999999
  0
ARC
  5
491
  8
FIX
  6
CONTINUOUS
 62
    11
 10
-70.906692
 20
-2.661395
 30
0.0
 40
3.729629
 50
89.7968479999999
 51
103.666557
  0
ARC
  5
492
  8
FIX
  6
CONTINUOUS
 62
    11
 10
-71.185098
 20
-1.52486
 30
0.0
 40
2.559494
 50
103.6219320000002
 51
116.0143259999999
  0
ARC
  5
493
  8
FIX
  6
CONTINUOUS
 62
    11
 10
-71.681219
 20
-0.527713
 30
0.0
 40
1.445801
 50
115.6770280000002
 51
133.8220639999999
  0
ARC
  5
494
  8
FIX
  6
CONTINUOUS
 62
    11
 10
-72.251641
 20
0.038632
 30
0.0
 40
0.642508
 50
132.091196
 51
177.361443
  0
ARC
  5
495
  8
FIX
  6
CONTINUOUS
 62
    11
 10
69.648903
 20
0.181396
 30
0.0
 40
0.642508
 50
182.6385569999999
 51
227.908804
  0
ARC
  5
496
  8
FIX
  6
CONTINUOUS
 62
    11
 10
70.219325
 20
0.747741
 30
0.0
 40
1.445801
 50
226.1779360000001
 51
244.3229719999998
  0
ARC
  5
497
  8
FIX
  6
CONTINUOUS
 62
    11
 10
70.715446
 20
1.744888
 30
0.0
 40
2.559494
 50
243.9856739999998
 51
256.3780679999998
  0
ARC
  5
498
  8
FIX
  6
CONTINUOUS
 62
    11
 10
70.993852
 20
2.881423
 30
0.0
 40
3.729629
 50
256.333443
 51
270.2031519999999
  0
ARC
  5
499
  8
FIX
  6
CONTINUOUS
 62
    11
 10
71.0203
 20
2.881423
 30
0.0
 40
3.729629
 50
269.7968480000001
 51
283.666557
  0
ARC
  5
49A
  8
FIX
  6
CONTINUOUS
 62
    11
 10
71.298706
 20
1.744888
 30
0.0
 40
2.559494
 50
283.6219320000001
 51
296.0143259999999
  0
ARC
  5
49B
  8
FIX
  6
CONTINUOUS
 62
    11
 10
71.794827
 20
0.747741
 30
0.0
 40
1.445801
 50
295.6770280000002
 51
313.8220639999999
  0
ARC
  5
49C
  8
FIX
  6
CONTINUOUS
 62
    11
 10
72.365249
 20
0.181396
 30
0.0
 40
0.642508
 50
312.0911959999999
 51
357.3614430000001
  0
ARC
  5
49D
  8
FIX
  6
CONTINUOUS
 62
    11
 10
72.365249
 20
0.12224
 30
0.0
 40
0.642508
 50
2.638556999999961
 51
47.90880400000006
  0
ARC
  5
49E
  8
FIX
  6
CONTINUOUS
 62
    11
 10
71.794827
 20
-0.444105
 30
0.0
 40
1.445801
 50
46.17793600000008
 51
64.32297199999981
  0
ARC
  5
49F
  8
FIX
  6
CONTINUOUS
 62
    11
 10
71.298706
 20
-1.441252
 30
0.0
 40
2.559494
 50
63.98567400000012
 51
76.37806799999986
  0
ARC
  5
4A0
  8
FIX
  6
CONTINUOUS
 62
    11
 10
71.0203
 20
-2.577787
 30
0.0
 40
3.729629
 50
76.33344299999999
 51
90.2031519999999
  0
ARC
  5
4A1
  8
FIX
  6
CONTINUOUS
 62
    11
 10
70.993852
 20
-2.577787
 30
0.0
 40
3.729629
 50
89.7968479999999
 51
103.666557
  0
ARC
  5
4A2
  8
FIX
  6
CONTINUOUS
 62
    11
 10
70.715446
 20
-1.441252
 30
0.0
 40
2.559494
 50
103.6219320000002
 51
116.0143259999999
  0
ARC
  5
4A3
  8
FIX
  6
CONTINUOUS
 62
    11
 10
70.219325
 20
-0.444105
 30
0.0
 40
1.445801
 50
115.6770280000002
 51
133.8220639999999
  0
ARC
  5
4A4
  8
FIX
  6
CONTINUOUS
 62
    11
 10
69.648903
 20
0.12224
 30
0.0
 40
0.642508
 50
132.091196
 51
177.361443
  0
LINE
  5
4A5
  8
NOTE
  6
CONTINUOUS
 62
     4
 10
-71.0
 20
-20.0
 30
0.0
 11
-71.0
 21
20.0
 31
0.0
  0
LINE
  5
4A6
  8
NOTE
  6
CONTINUOUS
 62
     4
 10
-91.0
 20
0.0
 30
0.0
 11
-51.0
 21
0.0
 31
0.0
  0
LINE
  5
4A7
  8
NOTE
  6
CONTINUOUS
 62
     4
 10
71.0
 20
-20.0
 30
0.0
 11
71.0
 21
20.0
 31
0.0
  0
LINE
  5
4A8
  8
NOTE
  6
CONTINUOUS
 62
     4
 10
91.0
 20
0.0
 30
0.0
 11
51.0
 21
0.0
 31
0.0
  0
POINT
  5
4A9
  8
ARRANGE
  6
CONTINUOUS
 62
     1
 10
0.0
 20
-0.033135
 30
0.0
  0
ENDSEC
  0
EOF
