  0
SECTION
  2
HEADER
  9
$ACADVER
  1
AC1009
  9
$INSBASE
 10
0.0
 20
0.0
 30
0.0
  9
$EXTMIN
 10
-564.61327300000005
 20
-211.42410699999991
 30
0.0
  9
$EXTMAX
 10
859.52816194443233
 20
443.1252408840881
 30
0.0
  9
$LIMMIN
 10
-4200.0
 20
-2970.0
  9
$LIMMAX
 10
4200.0
 20
2970.0
  9
$ORTHOMODE
 70
     1
  9
$REGENMODE
 70
     1
  9
$FILLMODE
 70
     1
  9
$QTEXTMODE
 70
     0
  9
$MIRRTEXT
 70
     0
  9
$DRAGMODE
 70
     2
  9
$LTSCALE
 40
20.0
  9
$OSMODE
 70
  2221
  9
$ATTMODE
 70
     1
  9
$TEXTSIZE
 40
40.0
  9
$TRACEWID
 40
0.05
  9
$TEXTSTYLE
  7
STANDARD
  9
$CLAYER
  8
OUTLINE
  9
$CELTYPE
  6
CONTINUOUS
  9
$CECOLOR
 62
     3
  9
$DIMSCALE
 40
1.0
  9
$DIMASZ
 40
2.0
  9
$DIMEXO
 40
20.0
  9
$DIMDLI
 40
200.0
  9
$DIMRND
 40
0.0
  9
$DIMDLE
 40
0.0
  9
$DIMEXE
 40
30.0
  9
$DIMTP
 40
0.0
  9
$DIMTM
 40
0.0
  9
$DIMTXT
 40
64.0
  9
$DIMCEN
 40
0.09
  9
$DIMTSZ
 40
0.0
  9
$DIMTOL
 70
     0
  9
$DIMLIM
 70
     0
  9
$DIMTIH
 70
     0
  9
$DIMTOH
 70
     0
  9
$DIMSE1
 70
     0
  9
$DIMSE2
 70
     0
  9
$DIMTAD
 70
     1
  9
$DIMZIN
 70
     8
  9
$DIMBLK
  1
DOT1
  9
$DIMASO
 70
     1
  9
$DIMSHO
 70
     0
  9
$DIMPOST
  1

  9
$DIMAPOST
  1

  9
$DIMALT
 70
     0
  9
$DIMALTD
 70
     2
  9
$DIMALTF
 40
25.399999999999999
  9
$DIMLFAC
 40
1.0
  9
$DIMTOFL
 70
     1
  9
$DIMTVP
 40
0.0
  9
$DIMTIX
 70
     1
  9
$DIMSOXD
 70
     0
  9
$DIMSAH
 70
     0
  9
$DIMBLK1
  1

  9
$DIMBLK2
  1

  9
$DIMSTYLE
  2
STANDARD
  9
$DIMCLRD
 70
     7
  9
$DIMCLRE
 70
     7
  9
$DIMCLRT
 70
     7
  9
$DIMTFAC
 40
1.0
  9
$DIMGAP
 40
0.09
  9
$LUNITS
 70
     2
  9
$LUPREC
 70
     4
  9
$SKETCHINC
 40
0.1
  9
$FILLETRAD
 40
1.0
  9
$AUNITS
 70
     1
  9
$AUPREC
 70
     3
  9
$MENU
  1
ACAD
  9
$ELEVATION
 40
0.0
  9
$PELEVATION
 40
0.0
  9
$THICKNESS
 40
0.0
  9
$LIMCHECK
 70
     1
  9
$BLIPMODE
 70
     0
  9
$CHAMFERA
 40
0.0
  9
$CHAMFERB
 40
0.0
  9
$SKPOLY
 70
     0
  9
$TDCREATE
 40
2451793.4821759248
  9
$TDUPDATE
 40
2453775.7552662031
  9
$TDINDWG
 40
0.0402256366
  9
$TDUSRTIMER
 40
0.0402256366
  9
$USRTIMER
 70
     1
  9
$ANGBASE
 50
0.0
  9
$ANGDIR
 70
     0
  9
$PDMODE
 70
     3
  9
$PDSIZE
 40
-2.0
  9
$PLINEWID
 40
0.0
  9
$COORDS
 70
     2
  9
$SPLFRAME
 70
     0
  9
$SPLINETYPE
 70
     6
  9
$SPLINESEGS
 70
     8
  9
$ATTDIA
 70
     0
  9
$ATTREQ
 70
     1
  9
$HANDLING
 70
 22529
  9
$HANDSEED
  5
21A
  9
$SURFTAB1
 70
     6
  9
$SURFTAB2
 70
     6
  9
$SURFTYPE
 70
     6
  9
$SURFU
 70
     6
  9
$SURFV
 70
     6
  9
$UCSNAME
  2

  9
$UCSORG
 10
0.0
 20
0.0
 30
0.0
  9
$UCSXDIR
 10
1.0
 20
0.0
 30
0.0
  9
$UCSYDIR
 10
0.0
 20
1.0
 30
0.0
  9
$PUCSNAME
  2

  9
$PUCSORG
 10
0.0
 20
0.0
 30
0.0
  9
$PUCSXDIR
 10
1.0
 20
0.0
 30
0.0
  9
$PUCSYDIR
 10
0.0
 20
1.0
 30
0.0
  9
$USERI1
 70
     0
  9
$USERI2
 70
     0
  9
$USERI3
 70
     0
  9
$USERI4
 70
     0
  9
$USERI5
 70
     0
  9
$USERR1
 40
20.0
  9
$USERR2
 40
0.0
  9
$USERR3
 40
0.0
  9
$USERR4
 40
0.0
  9
$USERR5
 40
0.0
  9
$WORLDVIEW
 70
     1
  9
$SHADEDGE
 70
     3
  9
$SHADEDIF
 70
    70
  9
$TILEMODE
 70
     1
  9
$MAXACTVP
 70
    48
  9
$PLIMCHECK
 70
     0
  9
$PEXTMIN
 10
-1.0000000000000000E+020
 20
-1.0000000000000000E+020
 30
-1.0000000000000000E+020
  9
$PEXTMAX
 10
1.0000000000000000E+020
 20
1.0000000000000000E+020
 30
1.0000000000000000E+020
  9
$PLIMMIN
 10
0.0
 20
0.0
  9
$PLIMMAX
 10
12.0
 20
9.0
  9
$UNITMODE
 70
     0
  9
$VISRETAIN
 70
     0
  9
$PLINEGEN
 70
     0
  9
$PSLTSCALE
 70
     0
  0
ENDSEC
  0
SECTION
  2
TABLES
  0
TABLE
  2
VPORT
 70
     3
  0
VPORT
  2
*ACTIVE
 70
     0
 10
0.0
 20
0.0
 11
1.0
 21
1.0
 12
11.90587802633797
 22
43.900366754961283
 13
0.0
 23
0.0
 14
400.0
 24
400.0
 15
400.0
 25
400.0
 16
0.0
 26
0.0
 36
1.0
 17
0.0
 27
0.0
 37
0.0
 40
1363.32976359433
 41
1.447268106734434
 42
50.0
 43
0.0
 44
0.0
 50
0.0
 51
0.0
 71
     0
 72
   500
 73
     1
 74
     0
 75
     0
 76
     0
 77
     0
 78
     1
  0
ENDTAB
  0
TABLE
  2
LTYPE
 70
     2
  0
LTYPE
  2
CONTINUOUS
 70
     0
  3
実線
 72
    65
 73
     0
 40
0.0
  0
LTYPE
  2
DASHDOT
 70
     0
  3
____ _ ____ _ ____ _ ____ _ ____ _ ____ _ ____
 72
    65
 73
     4
 40
5.5
 49
4.0
 49
-0.6
 49
0.3
 49
-0.6
  0
ENDTAB
  0
TABLE
  2
LAYER
 70
    12
  0
LAYER
  2
0
 70
     0
 62
     7
  6
CONTINUOUS
  0
LAYER
  2
SIZE
 70
     0
 62
    30
  6
CONTINUOUS
  0
LAYER
  2
ARRANGE
 70
     0
 62
     1
  6
CONTINUOUS
  0
LAYER
  2
OUTLINE
 70
     0
 62
     3
  6
CONTINUOUS
  0
LAYER
  2
DETAIL
 70
     0
 62
     5
  6
CONTINUOUS
  0
LAYER
  2
BASIS
 70
     0
 62
     6
  6
DASHDOT
  0
LAYER
  2
NOTE
 70
     0
 62
     4
  6
CONTINUOUS
  0
LAYER
  2
FIX
 70
     0
 62
    11
  6
CONTINUOUS
  0
LAYER
  2
ETC
 70
     0
 62
    61
  6
CONTINUOUS
  0
LAYER
  2
DEFPOINTS
 70
     0
 62
     7
  6
CONTINUOUS
  0
LAYER
  2
SERVICESPACE
 70
     0
 62
     2
  6
DASHDOT
  0
LAYER
  2
SYMBOLLINE
 70
     0
 62
    15
  6
CONTINUOUS
  0
ENDTAB
  0
TABLE
  2
STYLE
 70
     1
  0
STYLE
  2
STANDARD
 70
     0
 40
0.0
 41
0.9
 50
0.0
 71
     0
 42
40.0
  3
SIMPLEX
  4
BIGFONT
  0
ENDTAB
  0
TABLE
  2
VIEW
 70
     1
  0
VIEW
  2
ALL
 70
     0
 40
6374.9789810000002
 10
0.0
 20
58.11501599999999
 41
8842.1052629999976
 11
0.0
 21
0.0
 31
1.0
 12
0.0
 22
0.0
 32
0.0
 42
50.0
 43
0.0
 44
0.0
 50
0.0
 71
     0
  0
ENDTAB
  0
TABLE
  2
UCS
 70
     0
  0
ENDTAB
  0
TABLE
  2
APPID
 70
     1
  0
APPID
  2
ACAD
 70
     0
  0
ENDTAB
  0
TABLE
  2
DIMSTYLE
 70
     1
  0
DIMSTYLE
  2
STANDARD
 70
     0
  3

  4

  5

  6

  7

 40
1.0
 41
0.18
 42
0.0625
 43
0.38
 44
0.18
 45
0.0
 46
0.0
 47
0.0
 48
0.0
140
0.18
141
0.09
142
0.0
143
25.399999999999999
144
1.0
145
0.0
146
1.0
147
0.09
 71
     0
 72
     0
 73
     1
 74
     1
 75
     0
 76
     0
 77
     0
 78
     0
170
     0
171
     2
172
     0
173
     0
174
     0
175
     0
176
     7
177
     7
178
     7
  0
ENDTAB
  0
ENDSEC
  0
SECTION
  2
BLOCKS
  0
BLOCK
  8
0
  2
$MODEL_SPACE
 70
     0
 10
0.0
 20
0.0
 30
0.0
  3
$MODEL_SPACE
  1

  0
ENDBLK
  5
13C
  8
0
  0
BLOCK
 67
     1
  8
0
  2
$PAPER_SPACE
 70
     0
 10
0.0
 20
0.0
 30
0.0
  3
$PAPER_SPACE
  1

  0
ENDBLK
  5
138
 67
     1
  8
0
  0
BLOCK
  8
SIZE
  2
DOT1
 70
     0
 10
0.0
 20
0.0
 30
0.0
  3
DOT1
  1

  0
CIRCLE
  5
157
  8
SIZE
  6
CONTINUOUS
 62
     8
 10
0.0
 20
0.0
 30
0.0
 40
3.0
  0
ENDBLK
  5
158
  8
SIZE
  0
ENDSEC
  0
SECTION
  2
ENTITIES
  0
CIRCLE
  5
159
  8
ARRANGE
  6
CONTINUOUS
 62
     1
 10
0.0
 20
0.0
 30
0.0
 40
40.0
  0
LINE
  5
15A
  8
DETAIL
  6
CONTINUOUS
 62
     5
 10
-85.0
 20
0.0
 30
0.0
 11
85.0
 21
0.0
 31
0.0
  0
LINE
  5
15B
  8
DETAIL
  6
CONTINUOUS
 62
     5
 10
-65.505217000000002
 20
-15.0
 30
0.0
 11
65.505217000000002
 21
-15.0
 31
0.0
  0
LINE
  5
15C
  8
DETAIL
  6
CONTINUOUS
 62
     5
 10
-48.5
 20
50.0
 30
0.0
 11
48.5
 21
50.0
 31
0.0
  0
LINE
  5
15D
  8
OUTLINE
  6
CONTINUOUS
 62
     3
 10
-48.5
 20
50.0
 30
0.0
 11
48.5
 21
50.0
 31
0.0
  0
LINE
  5
15E
  8
SIZE
  6
CONTINUOUS
 62
    30
 10
48.5
 20
70.0
 30
0.0
 11
48.5
 21
292.89572199999998
 31
0.0
  0
LINE
  5
15F
  8
SIZE
  6
CONTINUOUS
 62
    30
 10
-48.5
 20
70.0
 30
0.0
 11
-48.5
 21
292.89572199999998
 31
0.0
  0
LINE
  5
160
  8
SIZE
  6
CONTINUOUS
 62
    30
 10
46.5
 20
262.89572199999992
 30
0.0
 11
-46.5
 21
262.89572199999992
 31
0.0
  0
CIRCLE
  5
161
  8
SIZE
  6
CONTINUOUS
 62
    30
 10
48.5
 20
262.89572199999992
 30
0.0
 40
6.0
  0
LINE
  5
164
  8
NOTE
  6
CONTINUOUS
 62
     4
 10
-71.0
 20
0.0
 30
0.0
 11
-319.604241
 21
69.305982
 31
0.0
  0
LINE
  5
165
  8
NOTE
  6
CONTINUOUS
 62
     4
 10
-110.997406
 20
0.4555520000000002
 30
0.0
 11
-71.0
 21
0.0
 31
0.0
  0
LINE
  5
166
  8
NOTE
  6
CONTINUOUS
 62
     4
 10
-71.0
 20
0.0
 30
0.0
 11
-105.41099299999991
 21
20.393222999999988
 31
0.0
  0
LINE
  5
167
  8
DETAIL
  6
CONTINUOUS
 62
     5
 10
-63.009132000000001
 20
-15.003119999999999
 30
0.0
 11
-63.167977
 21
-15.000597000000001
 31
0.0
  0
ARC
  5
168
  8
DETAIL
  6
CONTINUOUS
 62
     5
 10
-65.436968000000007
 20
-14.001583999999999
 30
0.0
 40
1.0
 50
252.66190599999999
 51
270.00138700000002
  0
LINE
  5
169
  8
DETAIL
  6
CONTINUOUS
 62
     5
 10
-85.0
 20
0.0
 30
0.0
 11
-85.0
 21
-5.8390129999999987
 31
0.0
  0
LINE
  5
16A
  8
DETAIL
  6
CONTINUOUS
 62
     5
 10
-82.983813999999981
 20
-8.782648
 30
0.0
 11
-65.505217000000002
 21
-15.0
 31
0.0
  0
TEXT
  5
16B
  8
NOTE
  6
CONTINUOUS
 62
     4
 10
-564.61327300000005
 20
92.557878000000002
 30
0.0
 40
64.0
  1
4×φ4
 41
0.9
  0
LINE
  5
16C
  8
NOTE
  6
CONTINUOUS
 62
     4
 10
-561.301423
 20
69.372692999999998
 30
0.0
 11
-319.604241
 21
69.305982
 31
0.0
  0
LINE
  5
16D
  8
SIZE
  6
CONTINUOUS
 62
    30
 10
-46.5
 20
262.89572199999992
 30
0.0
 11
-224.74969810114811
 21
262.89572199999992
 31
0.0
  0
LINE
  5
16F
  8
SIZE
  6
CONTINUOUS
 62
    30
 10
85.505217000000002
 20
-15.0
 30
0.0
 11
417.07467700000001
 21
-15.0
 31
0.0
  0
LINE
  5
170
  8
SIZE
  6
CONTINUOUS
 62
    30
 10
68.5
 20
50.0
 30
0.0
 11
417.07467700000001
 21
50.0
 31
0.0
  0
LINE
  5
171
  8
SIZE
  6
CONTINUOUS
 62
    30
 10
387.07467700000001
 20
-13.0
 30
0.0
 11
387.07467700000001
 21
48.0
 31
0.0
  0
TEXT
  5
172
  8
SIZE
  6
CONTINUOUS
 62
    30
 10
355.07467699999978
 20
-129.73717242857131
 30
0.0
 40
64.0
  1
65
 50
90.0
 41
0.9
 72
     1
 11
355.07467699999978
 21
-83.108600999999993
 31
0.0
  0
CIRCLE
  5
173
  8
SIZE
  6
CONTINUOUS
 62
    30
 10
387.07467700000001
 20
-15.0
 30
0.0
 40
6.0
  0
LINE
  5
175
  8
BASIS
  6
DASHDOT
 62
     6
 10
0.0
 20
-78.99723299999998
 30
0.0
 11
0.0
 21
78.930963000000006
 31
0.0
  0
LINE
  5
176
  8
SIZE
  6
CONTINUOUS
 62
    30
 10
105.0
 20
0.0
 30
0.0
 11
292.30680999999998
 21
0.0
 31
0.0
  0
LINE
  5
177
  8
SIZE
  6
CONTINUOUS
 62
    30
 10
85.505217000000002
 20
-15.0
 30
0.0
 11
292.30680999999998
 21
-15.0
 31
0.0
  0
TEXT
  5
178
  8
SIZE
  6
CONTINUOUS
 62
    30
 10
230.30681000000001
 20
-117.48032114285709
 30
0.0
 40
64.0
  1
15
 50
90.0
 41
0.9
 72
     1
 11
230.30681000000001
 21
-76.337463999999983
 31
0.0
  0
ARC
  5
179
  8
DETAIL
  6
CONTINUOUS
 62
     5
 10
81.760492999999983
 20
-5.7824669999999987
 30
0.0
 40
3.2400000000000002
 50
292.18311999999992
 51
308.01726899999989
  0
LINE
  5
17A
  8
DETAIL
  6
CONTINUOUS
 62
     5
 10
85.0
 20
0.0
 30
0.0
 11
85.0
 21
-5.8390129999999987
 31
0.0
  0
LINE
  5
17B
  8
DETAIL
  6
CONTINUOUS
 62
     5
 10
56.297410999999997
 20
-14.998635999999999
 30
0.0
 11
65.377486000000005
 21
-15.00178599999999
 31
0.0
  0
LINE
  5
17C
  8
DETAIL
  6
CONTINUOUS
 62
     5
 10
82.983813999999981
 20
-8.782648
 30
0.0
 11
65.505217000000002
 21
-15.0
 31
0.0
  0
LINE
  5
17D
  8
SIZE
  6
CONTINUOUS
 62
    30
 10
387.07467700000001
 20
-15.0
 30
0.0
 11
387.07467700000001
 21
-139.2044809999999
 31
0.0
  0
LINE
  5
17E
  8
DETAIL
  6
CONTINUOUS
 62
     5
 10
-85.0
 20
-5.8390129999999987
 30
0.0
 11
-88.0
 21
-11.839013
 31
0.0
  0
LINE
  5
17F
  8
DETAIL
  6
CONTINUOUS
 62
     5
 10
-88.0
 20
-11.839013
 30
0.0
 11
-86.0
 21
-12.839013
 31
0.0
  0
LINE
  5
180
  8
DETAIL
  6
CONTINUOUS
 62
     5
 10
-83.750248999999968
 20
-8.3395109999999981
 30
0.0
 11
-86.0
 21
-12.839013
 31
0.0
  0
ARC
  5
181
  8
DETAIL
  6
CONTINUOUS
 62
     5
 10
-81.760492999999983
 20
-5.7824669999999987
 30
0.0
 40
3.2400000000000002
 50
232.11184299999991
 51
247.81687999999991
  0
LINE
  5
182
  8
DETAIL
  6
CONTINUOUS
 62
     5
 10
85.0
 20
-5.8390129999999987
 30
0.0
 11
88.0
 21
-11.839013
 31
0.0
  0
LINE
  5
183
  8
DETAIL
  6
CONTINUOUS
 62
     5
 10
88.0
 20
-11.839013
 30
0.0
 11
86.0
 21
-12.839013
 31
0.0
  0
LINE
  5
184
  8
DETAIL
  6
CONTINUOUS
 62
     5
 10
86.0
 20
-12.839013
 30
0.0
 11
83.733804000000006
 21
-8.3066209999999998
 31
0.0
  0
LINE
  5
185
  8
SIZE
  6
CONTINUOUS
 62
    30
 10
-88.0
 20
-31.839013000000001
 30
0.0
 11
-88.0
 21
-211.42410699999991
 31
0.0
  0
LINE
  5
186
  8
SIZE
  6
CONTINUOUS
 62
    30
 10
88.0
 20
-31.839013000000001
 30
0.0
 11
88.0
 21
-211.42410699999991
 31
0.0
  0
LINE
  5
187
  8
SIZE
  6
CONTINUOUS
 62
    30
 10
-86.0
 20
-181.42410699999991
 30
0.0
 11
88.0
 21
-181.42410699999991
 31
0.0
  0
TEXT
  5
188
  8
SIZE
  6
CONTINUOUS
 62
    30
 10
-258.19177999999988
 20
-149.3687509999998
 30
0.0
 40
64.0
  1
176
 41
0.9
 72
     1
 11
-190.99178000000001
 21
-149.3687509999998
 31
0.0
  0
CIRCLE
  5
189
  8
SIZE
  6
CONTINUOUS
 62
    30
 10
-88.0
 20
-181.42410699999991
 30
0.0
 40
6.0
  0
LINE
  5
18A
  8
SIZE
  6
CONTINUOUS
 62
    30
 10
-86.0
 20
-181.42410699999991
 30
0.0
 11
-273.43493100000001
 21
-181.42410699999991
 31
0.0
  0
LINE
  5
18B
  8
SIZE
  6
CONTINUOUS
 62
    30
 10
71.0
 20
20.0
 30
0.0
 11
71.0
 21
133.96553299999999
 31
0.0
  0
LINE
  5
18C
  8
SIZE
  6
CONTINUOUS
 62
    30
 10
-71.0
 20
20.0
 30
0.0
 11
-71.0
 21
133.96553299999999
 31
0.0
  0
LINE
  5
18D
  8
SIZE
  6
CONTINUOUS
 62
    30
 10
69.0
 20
103.96553299999979
 30
0.0
 11
-69.0
 21
103.96553299999979
 31
0.0
  0
TEXT
  5
18E
  8
SIZE
  6
CONTINUOUS
 62
    30
 10
-239.4874485714285
 20
137.8392419999999
 30
0.0
 40
64.0
  1
142
 41
0.9
 72
     1
 11
-170.91602
 21
137.8392419999999
 31
0.0
  0
CIRCLE
  5
18F
  8
SIZE
  6
CONTINUOUS
 62
    30
 10
71.0
 20
103.96553299999979
 30
0.0
 40
6.0
  0
LINE
  5
190
  8
SIZE
  6
CONTINUOUS
 62
    30
 10
-65.0
 20
103.96553299999979
 30
0.0
 11
-246.28719899999999
 21
103.96553299999979
 31
0.0
  0
ARC
  5
191
  8
FIX
  6
CONTINUOUS
 62
    11
 10
-72.358172999999979
 20
0.029578
 30
0.0
 40
0.642508
 50
182.63855699999999
 51
227.9088039999998
  0
ARC
  5
192
  8
FIX
  6
CONTINUOUS
 62
    11
 10
-71.787751
 20
0.595923
 30
0.0
 40
1.445800999999999
 50
226.1779359999999
 51
244.32297199999999
  0
ARC
  5
193
  8
FIX
  6
CONTINUOUS
 62
    11
 10
-71.291629999999998
 20
1.5930699999999991
 30
0.0
 40
2.559493999999999
 50
243.9856739999999
 51
256.37806799999993
  0
ARC
  5
194
  8
FIX
  6
CONTINUOUS
 62
    11
 10
-71.013223999999994
 20
2.7296049999999981
 30
0.0
 40
3.7296290000000001
 50
256.33344299999982
 51
270.20315199999982
  0
ARC
  5
195
  8
FIX
  6
CONTINUOUS
 62
    11
 10
-70.98677600000002
 20
2.7296049999999981
 30
0.0
 40
3.7296290000000001
 50
269.79684800000001
 51
283.66655700000001
  0
ARC
  5
196
  8
FIX
  6
CONTINUOUS
 62
    11
 10
-70.708370000000002
 20
1.5930699999999991
 30
0.0
 40
2.559493999999999
 50
283.6219319999999
 51
296.01432599999993
  0
ARC
  5
197
  8
FIX
  6
CONTINUOUS
 62
    11
 10
-70.212248999999986
 20
0.595923
 30
0.0
 40
1.445800999999999
 50
295.67702800000001
 51
313.82206400000001
  0
ARC
  5
198
  8
FIX
  6
CONTINUOUS
 62
    11
 10
-69.641827000000006
 20
0.029578
 30
0.0
 40
0.642508
 50
312.09119599999991
 51
357.36144300000001
  0
ARC
  5
199
  8
FIX
  6
CONTINUOUS
 62
    11
 10
-69.641827000000006
 20
-0.029578
 30
0.0
 40
0.642508
 50
2.638557
 51
47.908803999999989
  0
ARC
  5
19A
  8
FIX
  6
CONTINUOUS
 62
    11
 10
-70.212248999999986
 20
-0.595923
 30
0.0
 40
1.445800999999999
 50
46.177935999999988
 51
64.322971999999993
  0
ARC
  5
19B
  8
FIX
  6
CONTINUOUS
 62
    11
 10
-70.708370000000002
 20
-1.5930699999999991
 30
0.0
 40
2.559493999999999
 50
63.98567400000001
 51
76.378067999999985
  0
ARC
  5
19C
  8
FIX
  6
CONTINUOUS
 62
    11
 10
-70.98677600000002
 20
-2.7296049999999981
 30
0.0
 40
3.7296290000000001
 50
76.333443000000003
 51
90.203152000000017
  0
ARC
  5
19D
  8
FIX
  6
CONTINUOUS
 62
    11
 10
-71.013223999999994
 20
-2.7296049999999981
 30
0.0
 40
3.7296290000000001
 50
89.796847999999983
 51
103.666557
  0
ARC
  5
19E
  8
FIX
  6
CONTINUOUS
 62
    11
 10
-71.291629999999998
 20
-1.5930699999999991
 30
0.0
 40
2.559493999999999
 50
103.621932
 51
116.0143259999999
  0
ARC
  5
19F
  8
FIX
  6
CONTINUOUS
 62
    11
 10
-71.787751
 20
-0.595923
 30
0.0
 40
1.445800999999999
 50
115.67702800000001
 51
133.82206399999981
  0
ARC
  5
1A0
  8
FIX
  6
CONTINUOUS
 62
    11
 10
-72.358172999999979
 20
-0.029578
 30
0.0
 40
0.642508
 50
132.09119599999991
 51
177.36144299999981
  0
ARC
  5
1A1
  8
FIX
  6
CONTINUOUS
 62
    11
 10
69.647081999999997
 20
0.174564
 30
0.0
 40
0.642508
 50
182.63855699999999
 51
227.9088039999998
  0
ARC
  5
1A2
  8
FIX
  6
CONTINUOUS
 62
    11
 10
70.217504000000005
 20
0.7409090000000002
 30
0.0
 40
1.445800999999999
 50
226.1779359999999
 51
244.32297199999999
  0
ARC
  5
1A3
  8
FIX
  6
CONTINUOUS
 62
    11
 10
70.713624999999979
 20
1.738056
 30
0.0
 40
2.559493999999999
 50
243.9856739999999
 51
256.37806799999993
  0
ARC
  5
1A4
  8
FIX
  6
CONTINUOUS
 62
    11
 10
70.992031000000026
 20
2.8745910000000001
 30
0.0
 40
3.7296290000000001
 50
256.33344299999982
 51
270.20315199999982
  0
ARC
  5
1A5
  8
FIX
  6
CONTINUOUS
 62
    11
 10
71.018478999999999
 20
2.8745910000000001
 30
0.0
 40
3.7296290000000001
 50
269.79684800000001
 51
283.66655700000001
  0
ARC
  5
1A6
  8
FIX
  6
CONTINUOUS
 62
    11
 10
71.296885000000003
 20
1.738056
 30
0.0
 40
2.559493999999999
 50
283.6219319999999
 51
296.01432599999993
  0
ARC
  5
1A7
  8
FIX
  6
CONTINUOUS
 62
    11
 10
71.79300600000002
 20
0.7409090000000002
 30
0.0
 40
1.445800999999999
 50
295.67702800000001
 51
313.82206400000001
  0
ARC
  5
1A8
  8
FIX
  6
CONTINUOUS
 62
    11
 10
72.363427999999999
 20
0.174564
 30
0.0
 40
0.642508
 50
312.09119599999991
 51
357.36144300000001
  0
ARC
  5
1A9
  8
FIX
  6
CONTINUOUS
 62
    11
 10
72.363427999999999
 20
0.115408
 30
0.0
 40
0.642508
 50
2.638557
 51
47.908803999999989
  0
ARC
  5
1AA
  8
FIX
  6
CONTINUOUS
 62
    11
 10
71.79300600000002
 20
-0.450937
 30
0.0
 40
1.445800999999999
 50
46.177935999999988
 51
64.322971999999993
  0
ARC
  5
1AB
  8
FIX
  6
CONTINUOUS
 62
    11
 10
71.296885000000003
 20
-1.4480839999999979
 30
0.0
 40
2.559493999999999
 50
63.98567400000001
 51
76.378067999999985
  0
ARC
  5
1AC
  8
FIX
  6
CONTINUOUS
 62
    11
 10
71.018478999999999
 20
-2.5846189999999991
 30
0.0
 40
3.7296290000000001
 50
76.333443000000003
 51
90.203152000000017
  0
ARC
  5
1AD
  8
FIX
  6
CONTINUOUS
 62
    11
 10
70.992031000000026
 20
-2.5846189999999991
 30
0.0
 40
3.7296290000000001
 50
89.796847999999983
 51
103.666557
  0
ARC
  5
1AE
  8
FIX
  6
CONTINUOUS
 62
    11
 10
70.713624999999979
 20
-1.4480839999999979
 30
0.0
 40
2.559493999999999
 50
103.621932
 51
116.0143259999999
  0
ARC
  5
1AF
  8
FIX
  6
CONTINUOUS
 62
    11
 10
70.217504000000005
 20
-0.450937
 30
0.0
 40
1.445800999999999
 50
115.67702800000001
 51
133.82206399999981
  0
ARC
  5
1B0
  8
FIX
  6
CONTINUOUS
 62
    11
 10
69.647081999999997
 20
0.115408
 30
0.0
 40
0.642508
 50
132.09119599999991
 51
177.36144299999981
  0
LINE
  5
1B1
  8
NOTE
  6
CONTINUOUS
 62
     4
 10
-71.0
 20
-20.0
 30
0.0
 11
-71.0
 21
20.0
 31
0.0
  0
LINE
  5
1B2
  8
NOTE
  6
CONTINUOUS
 62
     4
 10
-91.0
 20
0.0
 30
0.0
 11
-51.0
 21
0.0
 31
0.0
  0
LINE
  5
1B3
  8
NOTE
  6
CONTINUOUS
 62
     4
 10
71.0
 20
-20.0
 30
0.0
 11
71.0
 21
20.0
 31
0.0
  0
LINE
  5
1B4
  8
NOTE
  6
CONTINUOUS
 62
     4
 10
91.0
 20
0.0
 30
0.0
 11
51.0
 21
0.0
 31
0.0
  0
POINT
  5
1B5
  8
ARRANGE
  6
CONTINUOUS
 62
     1
 10
0.0
 20
0.0
 30
0.0
  0
TEXT
  5
1B6
  8
ETC
  6
CONTINUOUS
 62
    61
 10
318.21534097246382
 20
393.1252408840881
 30
0.0
 40
50.0
  1
P-13GLF5_4
 41
0.9
  0
TEXT
  5
1B7
  8
ETC
  6
CONTINUOUS
 62
    61
 10
484.0995905158606
 20
187.8772308569566
 30
0.0
 40
40.0
  1
P-13GLF5
 41
0.9
  0
TEXT
  5
1B8
  8
ETC
  6
CONTINUOUS
 62
    61
 10
484.0995905158606
 20
124.70163964080599
 30
0.0
 40
40.0
  1
P-13GLF5-BE
 41
0.9
  0
TEXT
  5
1B9
  8
ETC
  6
CONTINUOUS
 62
    61
 10
480.00358214636123
 20
255.7164111215049
 30
0.0
 40
40.0
  1
P-13GL5
 41
0.9
  0
TEXT
  5
1BA
  8
ETC
  6
CONTINUOUS
 62
    61
 10
310.73384042987891
 20
320.67377323957282
 30
0.0
 40
50.0
  1
システム部材
 41
0.9
  0
TEXT
  5
1BB
  8
SIZE
  6
CONTINUOUS
 62
    30
 10
-222.8019156773197
 20
288.25120445103761
 30
0.0
 40
64.0
  1
φ97
 41
0.9
  0
CIRCLE
  5
1BC
  8
SIZE
  6
CONTINUOUS
 62
    30
 10
-48.5
 20
262.89572199999992
 30
0.0
 40
6.0
  0
CIRCLE
  5
1BD
  8
SIZE
  6
CONTINUOUS
 62
    30
 10
-71.0
 20
103.96553299999979
 30
0.0
 40
6.0
  0
LINE
  5
1BE
  8
SIZE
  6
CONTINUOUS
 62
    30
 10
252.94396525367921
 20
21.996406851850661
 30
0.0
 11
252.94396525367921
 21
-126.9505165598749
 31
0.0
  0
CIRCLE
  5
1BF
  8
SIZE
  6
CONTINUOUS
 62
    30
 10
88.0
 20
-181.42410699999991
 30
0.0
 40
6.0
  0
CIRCLE
  5
1C0
  8
SIZE
  6
CONTINUOUS
 62
    30
 10
251.28994700000001
 20
-15.0
 30
0.0
 40
6.0
  0
CIRCLE
  5
1C1
  8
SIZE
  6
CONTINUOUS
 62
    30
 10
252.94396525367921
 20
0.0
 30
0.0
 40
6.0
  0
CIRCLE
  5
1C2
  8
SIZE
  6
CONTINUOUS
 62
    30
 10
387.07467700000001
 20
48.0
 30
0.0
 40
6.0
  0
LINE
  5
1C4
  8
OUTLINE
  6
CONTINUOUS
 62
     3
 10
-85.0
 20
-0.0331349999999873
 30
0.0
 11
85.0
 21
-0.0331349999999873
 31
0.0
  0
LINE
  5
1D5
  8
DETAIL
  6
CONTINUOUS
 62
     5
 10
-48.5
 20
50.0
 30
0.0
 11
-48.5
 21
0.0
 31
0.0
  0
LINE
  5
1D6
  8
DETAIL
  6
CONTINUOUS
 62
     5
 10
48.5
 20
50.0
 30
0.0
 11
48.5
 21
0.0
 31
0.0
  0
LINE
  5
1D7
  8
OUTLINE
  6
CONTINUOUS
 62
     3
 10
-48.5
 20
50.0
 30
0.0
 11
-48.5
 21
-0.0331349999999873
 31
0.0
  0
LINE
  5
1D8
  8
OUTLINE
  6
CONTINUOUS
 62
     3
 10
48.5
 20
50.0
 30
0.0
 11
48.5
 21
-0.0331349999999873
 31
0.0
  0
ENDSEC
  0
EOF
