  0
SECTION
  2
HEADER
  9
$ACADVER
  1
AC1009
  9
$DWGCODEPAGE
  3
ansi_932
  9
$INSBASE
 10
0.0
 20
0.0
 30
0.0
  9
$EXTMIN
 10
-351.4577598921569
 20
-121.3354959999999
 30
0.0
  9
$EXTMAX
 10
862.2503427508204
 20
365.4689352660216
 30
0.0
  9
$LIMMIN
 10
-4200.0
 20
-2970.0
  9
$LIMMAX
 10
4200.0
 20
2970.0
  9
$ORTHOMODE
 70
     1
  9
$REGENMODE
 70
     1
  9
$FILLMODE
 70
     1
  9
$QTEXTMODE
 70
     0
  9
$MIRRTEXT
 70
     0
  9
$DRAGMODE
 70
     2
  9
$LTSCALE
 40
20.0
  9
$OSMODE
 70
    37
  9
$ATTMODE
 70
     1
  9
$TEXTSIZE
 40
40.0
  9
$TRACEWID
 40
0.05
  9
$TEXTSTYLE
  7
STANDARD
  9
$CLAYER
  8
SIZE
  9
$CELTYPE
  6
DASHDOT
  9
$CECOLOR
 62
     6
  9
$DIMSCALE
 40
1.0
  9
$DIMASZ
 40
2.0
  9
$DIMEXO
 40
20.0
  9
$DIMDLI
 40
200.0
  9
$DIMRND
 40
0.0
  9
$DIMDLE
 40
0.0
  9
$DIMEXE
 40
30.0
  9
$DIMTP
 40
0.0
  9
$DIMTM
 40
0.0
  9
$DIMTXT
 40
64.0
  9
$DIMCEN
 40
0.09
  9
$DIMTSZ
 40
0.0
  9
$DIMTOL
 70
     0
  9
$DIMLIM
 70
     0
  9
$DIMTIH
 70
     0
  9
$DIMTOH
 70
     0
  9
$DIMSE1
 70
     0
  9
$DIMSE2
 70
     0
  9
$DIMTAD
 70
     1
  9
$DIMZIN
 70
     8
  9
$DIMBLK
  1
DOT1
  9
$DIMASO
 70
     1
  9
$DIMSHO
 70
     0
  9
$DIMPOST
  1

  9
$DIMAPOST
  1

  9
$DIMALT
 70
     0
  9
$DIMALTD
 70
     2
  9
$DIMALTF
 40
25.4
  9
$DIMLFAC
 40
1.0
  9
$DIMTOFL
 70
     1
  9
$DIMTVP
 40
0.0
  9
$DIMTIX
 70
     1
  9
$DIMSOXD
 70
     0
  9
$DIMSAH
 70
     0
  9
$DIMBLK1
  1

  9
$DIMBLK2
  1

  9
$DIMSTYLE
  2
STANDARD
  9
$DIMCLRD
 70
     7
  9
$DIMCLRE
 70
     7
  9
$DIMCLRT
 70
     7
  9
$DIMTFAC
 40
1.0
  9
$DIMGAP
 40
0.09
  9
$LUNITS
 70
     2
  9
$LUPREC
 70
     4
  9
$SKETCHINC
 40
0.1
  9
$FILLETRAD
 40
10.0
  9
$AUNITS
 70
     1
  9
$AUPREC
 70
     3
  9
$MENU
  1
ACAD
  9
$ELEVATION
 40
0.0
  9
$PELEVATION
 40
0.0
  9
$THICKNESS
 40
0.0
  9
$LIMCHECK
 70
     1
  9
$CHAMFERA
 40
0.0
  9
$CHAMFERB
 40
0.0
  9
$SKPOLY
 70
     0
  9
$TDCREATE
 40
2451793.517442118
  9
$TDUPDATE
 40
2457485.567352836
  9
$TDINDWG
 40
0.0464256829
  9
$TDUSRTIMER
 40
0.0464256829
  9
$USRTIMER
 70
     1
  9
$ANGBASE
 50
0.0
  9
$ANGDIR
 70
     0
  9
$PDMODE
 70
     3
  9
$PDSIZE
 40
-2.0
  9
$PLINEWID
 40
0.0
  9
$COORDS
 70
     1
  9
$SPLFRAME
 70
     0
  9
$SPLINETYPE
 70
     6
  9
$SPLINESEGS
 70
     8
  9
$ATTDIA
 70
     0
  9
$ATTREQ
 70
     1
  9
$HANDLING
 70
     1
  9
$HANDSEED
  5
BA6
  9
$SURFTAB1
 70
     6
  9
$SURFTAB2
 70
     6
  9
$SURFTYPE
 70
     6
  9
$SURFU
 70
     6
  9
$SURFV
 70
     6
  9
$UCSNAME
  2

  9
$UCSORG
 10
0.0
 20
0.0
 30
0.0
  9
$UCSXDIR
 10
1.0
 20
0.0
 30
0.0
  9
$UCSYDIR
 10
0.0
 20
1.0
 30
0.0
  9
$PUCSNAME
  2

  9
$PUCSORG
 10
0.0
 20
0.0
 30
0.0
  9
$PUCSXDIR
 10
1.0
 20
0.0
 30
0.0
  9
$PUCSYDIR
 10
0.0
 20
1.0
 30
0.0
  9
$USERI1
 70
     0
  9
$USERI2
 70
     0
  9
$USERI3
 70
     0
  9
$USERI4
 70
     0
  9
$USERI5
 70
     0
  9
$USERR1
 40
20.0
  9
$USERR2
 40
0.0
  9
$USERR3
 40
0.0
  9
$USERR4
 40
0.0
  9
$USERR5
 40
0.0
  9
$WORLDVIEW
 70
     1
  9
$SHADEDGE
 70
     3
  9
$SHADEDIF
 70
    70
  9
$TILEMODE
 70
     1
  9
$MAXACTVP
 70
    48
  9
$PLIMCHECK
 70
     0
  9
$PEXTMIN
 10
-1.000000000000000E+20
 20
-1.000000000000000E+20
 30
-1.000000000000000E+20
  9
$PEXTMAX
 10
1.000000000000000E+20
 20
1.000000000000000E+20
 30
1.000000000000000E+20
  9
$PLIMMIN
 10
0.0
 20
0.0
  9
$PLIMMAX
 10
12.0
 20
9.0
  9
$UNITMODE
 70
     0
  9
$VISRETAIN
 70
     0
  9
$PLINEGEN
 70
     0
  9
$PSLTSCALE
 70
     0
  0
ENDSEC
  0
SECTION
  2
TABLES
  0
TABLE
  2
VPORT
 70
     1
  0
VPORT
  2
*ACTIVE
 70
     0
 10
0.0
 20
0.0
 11
1.0
 21
1.0
 12
107.5566633325531
 22
80.21394199999997
 13
0.0
 23
0.0
 14
400.0
 24
400.0
 15
400.0
 25
400.0
 16
0.0
 26
0.0
 36
1.0
 17
0.0
 27
0.0
 37
0.0
 40
1215.668028849138
 41
1.447268106734434
 42
50.0
 43
0.0
 44
0.0
 50
0.0
 51
0.0
 71
     0
 72
   500
 73
     1
 74
     0
 75
     0
 76
     0
 77
     0
 78
     1
  0
ENDTAB
  0
TABLE
  2
LTYPE
 70
     2
  0
LTYPE
  2
CONTINUOUS
 70
     0
  3
実線
 72
    65
 73
     0
 40
0.0
  0
LTYPE
  2
DASHDOT
 70
     0
  3
____ _ ____ _ ____ _ ____ _ ____ _ ____ _ ____
 72
    65
 73
     4
 40
5.5
 49
4.0
 49
-0.6
 49
0.3
 49
-0.6
  0
ENDTAB
  0
TABLE
  2
LAYER
 70
    12
  0
LAYER
  2
0
 70
     0
 62
     7
  6
CONTINUOUS
  0
LAYER
  2
SIZE
 70
     0
 62
    30
  6
CONTINUOUS
  0
LAYER
  2
OUTLINE
 70
     0
 62
     3
  6
CONTINUOUS
  0
LAYER
  2
DETAIL
 70
     0
 62
     5
  6
CONTINUOUS
  0
LAYER
  2
BASIS
 70
     0
 62
     6
  6
DASHDOT
  0
LAYER
  2
ARRANGE
 70
     0
 62
     1
  6
CONTINUOUS
  0
LAYER
  2
ETC
 70
     0
 62
    61
  6
CONTINUOUS
  0
LAYER
  2
DEFPOINTS
 70
     0
 62
     7
  6
CONTINUOUS
  0
LAYER
  2
FIX
 70
     0
 62
    11
  6
CONTINUOUS
  0
LAYER
  2
NOTE
 70
     0
 62
     4
  6
CONTINUOUS
  0
LAYER
  2
SERVICESPACE
 70
     0
 62
     2
  6
DASHDOT
  0
LAYER
  2
SYMBOLLINE
 70
     0
 62
    15
  6
CONTINUOUS
  0
ENDTAB
  0
TABLE
  2
STYLE
 70
     1
  0
STYLE
  2
STANDARD
 70
     0
 40
0.0
 41
0.9
 50
0.0
 71
     0
 42
40.0
  3
SIMPLEX
  4
BIGFONT
  0
ENDTAB
  0
TABLE
  2
VIEW
 70
     1
  0
VIEW
  2
ALL
 70
     0
 40
6374.978981
 10
0.0
 20
58.11501599999999
 41
8842.105262999998
 11
0.0
 21
0.0
 31
1.0
 12
0.0
 22
0.0
 32
0.0
 42
50.0
 43
0.0
 44
0.0
 50
0.0
 71
     0
  0
ENDTAB
  0
TABLE
  2
UCS
 70
     0
  0
ENDTAB
  0
TABLE
  2
APPID
 70
     1
  0
APPID
  2
ACAD
 70
     0
  0
ENDTAB
  0
TABLE
  2
DIMSTYLE
 70
     1
  0
DIMSTYLE
  2
STANDARD
 70
     0
  3

  4

  5

  6

  7

 40
1.0
 41
0.18
 42
0.0625
 43
0.38
 44
0.18
 45
0.0
 46
0.0
 47
0.0
 48
0.0
140
0.18
141
0.09
142
0.0
143
25.4
144
1.0
145
0.0
146
1.0
147
0.09
 71
     0
 72
     0
 73
     1
 74
     1
 75
     0
 76
     0
 77
     0
 78
     0
170
     0
171
     2
172
     0
173
     0
174
     0
175
     0
176
     7
177
     7
178
     7
  0
ENDTAB
  0
ENDSEC
  0
SECTION
  2
BLOCKS
  0
BLOCK
  8
0
  2
$MODEL_SPACE
 70
     0
 10
0.0
 20
0.0
 30
0.0
  3
$MODEL_SPACE
  1

  0
ENDBLK
  5
5B1
  8
0
  0
BLOCK
 67
     1
  8
0
  2
$PAPER_SPACE
 70
     0
 10
0.0
 20
0.0
 30
0.0
  3
$PAPER_SPACE
  1

  0
ENDBLK
  5
5AD
 67
     1
  8
0
  0
BLOCK
  8
SIZE
  2
DOT1
 70
     0
 10
0.0
 20
0.0
 30
0.0
  3
DOT1
  1

  0
CIRCLE
  5
5CC
  8
SIZE
  6
CONTINUOUS
 62
     8
 10
0.0
 20
0.0
 30
0.0
 40
3.0
  0
ENDBLK
  5
5CD
  8
SIZE
  0
ENDSEC
  0
SECTION
  2
ENTITIES
  0
LINE
  5
5CE
  8
BASIS
  6
DASHDOT
 62
     6
 10
-118.45203
 20
0.0
 30
0.0
 11
118.45203
 21
0.0
 31
0.0
  0
LINE
  5
5CF
  8
BASIS
  6
DASHDOT
 62
     6
 10
0.087270999999987
 20
115.6042639999999
 30
0.0
 11
0.087270999999987
 21
-121.3354959999999
 31
0.0
  0
LINE
  5
5D2
  8
DETAIL
  6
CONTINUOUS
 62
     5
 10
-74.91272900000001
 20
85.0
 30
0.0
 11
75.08727099999999
 21
85.0
 31
0.0
  0
LINE
  5
5D3
  8
DETAIL
  6
CONTINUOUS
 62
     5
 10
-74.91272900000001
 20
-85.0
 30
0.0
 11
75.08727099999999
 21
-85.0
 31
0.0
  0
LINE
  5
5D4
  8
DETAIL
  6
CONTINUOUS
 62
     5
 10
85.08727099999999
 20
75.0
 30
0.0
 11
85.08727099999999
 21
-75.0
 31
0.0
  0
LINE
  5
5D5
  8
DETAIL
  6
CONTINUOUS
 62
     5
 10
-84.91272900000001
 20
75.0
 30
0.0
 11
-84.91272900000001
 21
-75.0
 31
0.0
  0
ARC
  5
5D6
  8
DETAIL
  6
CONTINUOUS
 62
     5
 10
-74.91272900000001
 20
75.0
 30
0.0
 40
10.0
 50
90.0
 51
180.0
  0
ARC
  5
5D7
  8
DETAIL
  6
CONTINUOUS
 62
     5
 10
-74.91272900000001
 20
-75.0
 30
0.0
 40
10.0
 50
180.0
 51
270.0
  0
ARC
  5
5D8
  8
DETAIL
  6
CONTINUOUS
 62
     5
 10
75.08727099999999
 20
-75.0
 30
0.0
 40
10.0
 50
270.0
 51
0.0
  0
ARC
  5
5D9
  8
DETAIL
  6
CONTINUOUS
 62
     5
 10
75.08727099999999
 20
75.0
 30
0.0
 40
10.0
 50
0.0
 51
90.0
  0
LINE
  5
5DA
  8
SIZE
  6
CONTINUOUS
 62
    30
 10
85.08727099999999
 20
95.0
 30
0.0
 11
85.08727099999999
 21
215.687095
 31
0.0
  0
LINE
  5
5DB
  8
SIZE
  6
CONTINUOUS
 62
    30
 10
-84.91272900000001
 20
95.0
 30
0.0
 11
-84.91272900000001
 21
215.687095
 31
0.0
  0
LINE
  5
5DC
  8
SIZE
  6
CONTINUOUS
 62
    30
 10
83.08727099999999
 20
185.687095
 30
0.0
 11
-82.91272900000001
 21
185.687095
 31
0.0
  0
TEXT
  5
5DD
  8
SIZE
  6
CONTINUOUS
 62
    30
 10
-129.224729
 20
217.687095
 30
0.0
 40
64.0
  1
□170
 41
0.9
 72
     1
 11
0.087270999999987
 21
217.687095
 31
0.0
  0
CIRCLE
  5
5DE
  8
SIZE
  6
CONTINUOUS
 62
    30
 10
85.08727099999999
 20
185.687095
 30
0.0
 40
6.0
  0
CIRCLE
  5
5DF
  8
SIZE
  6
CONTINUOUS
 62
    30
 10
-84.91272900000001
 20
185.687095
 30
0.0
 40
6.0
  0
ARC
  5
5E3
  8
OUTLINE
  6
CONTINUOUS
 62
     3
 10
75.08727099999999
 20
-75.0
 30
0.0
 40
10.0
 50
270.0
 51
0.0
  0
LINE
  5
5E4
  8
OUTLINE
  6
CONTINUOUS
 62
     3
 10
-74.91272900000001
 20
-85.0
 30
0.0
 11
-5.912729000000013
 21
-85.0
 31
0.0
  0
ARC
  5
5E5
  8
OUTLINE
  6
CONTINUOUS
 62
     3
 10
-74.91272900000001
 20
-75.0
 30
0.0
 40
10.0
 50
180.0
 51
270.0
  0
LINE
  5
5E6
  8
OUTLINE
  6
CONTINUOUS
 62
     3
 10
-84.91272900000001
 20
75.0
 30
0.0
 11
-84.91272900000001
 21
-75.0
 31
0.0
  0
ARC
  5
5E7
  8
OUTLINE
  6
CONTINUOUS
 62
     3
 10
-74.91272900000001
 20
75.0
 30
0.0
 40
10.0
 50
90.0
 51
180.0
  0
LINE
  5
5E8
  8
OUTLINE
  6
CONTINUOUS
 62
     3
 10
-74.91272900000001
 20
85.0
 30
0.0
 11
-5.912729000000013
 21
85.0
 31
0.0
  0
ARC
  5
5E9
  8
OUTLINE
  6
CONTINUOUS
 62
     3
 10
75.08727099999999
 20
75.0
 30
0.0
 40
10.0
 50
0.0
 51
90.0
  0
LINE
  5
5EA
  8
OUTLINE
  6
CONTINUOUS
 62
     3
 10
85.08727099999999
 20
75.0
 30
0.0
 11
85.08727099999999
 21
-75.0
 31
0.0
  0
LINE
  5
5EB
  8
DETAIL
  6
CONTINUOUS
 62
     5
 10
55.16727099999999
 20
-46.751009
 30
0.0
 11
55.16727099999999
 21
-49.13780899999999
 31
0.0
  0
LINE
  5
5EC
  8
DETAIL
  6
CONTINUOUS
 62
     5
 10
55.16727099999999
 20
-37.57100899999999
 30
0.0
 11
55.16727099999999
 21
-44.733111
 31
0.0
  0
LINE
  5
5ED
  8
DETAIL
  6
CONTINUOUS
 62
     5
 10
55.16727099999999
 20
-28.391009
 30
0.0
 11
55.16727099999999
 21
-35.553111
 31
0.0
  0
LINE
  5
5EE
  8
DETAIL
  6
CONTINUOUS
 62
     5
 10
55.16727099999999
 20
-19.211009
 30
0.0
 11
55.16727099999999
 21
-26.37311099999999
 31
0.0
  0
LINE
  5
5EF
  8
DETAIL
  6
CONTINUOUS
 62
     5
 10
55.16727099999999
 20
-10.03100899999999
 30
0.0
 11
55.16727099999999
 21
-17.19311099999999
 31
0.0
  0
LINE
  5
5F0
  8
DETAIL
  6
CONTINUOUS
 62
     5
 10
55.16727099999999
 20
-0.8510089999999998
 30
0.0
 11
55.16727099999999
 21
-8.013111
 31
0.0
  0
LINE
  5
5F1
  8
DETAIL
  6
CONTINUOUS
 62
     5
 10
55.16727099999999
 20
8.328991
 30
0.0
 11
55.16727099999999
 21
1.166888999999998
 31
0.0
  0
LINE
  5
5F2
  8
DETAIL
  6
CONTINUOUS
 62
     5
 10
55.16727099999999
 20
17.508991
 30
0.0
 11
55.16727099999999
 21
10.34688899999999
 31
0.0
  0
LINE
  5
5F3
  8
DETAIL
  6
CONTINUOUS
 62
     5
 10
55.16727099999999
 20
26.68899099999999
 30
0.0
 11
55.16727099999999
 21
19.526889
 31
0.0
  0
LINE
  5
5F4
  8
DETAIL
  6
CONTINUOUS
 62
     5
 10
55.16727099999999
 20
35.86899099999998
 30
0.0
 11
55.16727099999999
 21
28.706889
 31
0.0
  0
LINE
  5
5F5
  8
DETAIL
  6
CONTINUOUS
 62
     5
 10
55.60739399999999
 20
-46.29200899999999
 30
0.0
 11
55.57904299999998
 21
-46.41930499999999
 31
0.0
  0
LINE
  5
5F6
  8
DETAIL
  6
CONTINUOUS
 62
     5
 10
55.57904299999998
 20
-46.41930499999999
 30
0.0
 11
55.50579
 21
-46.538533
 31
0.0
  0
LINE
  5
5F7
  8
DETAIL
  6
CONTINUOUS
 62
     5
 10
55.50579
 20
-46.538533
 30
0.0
 11
55.41290399999998
 21
-46.63922099999999
 31
0.0
  0
LINE
  5
5F8
  8
DETAIL
  6
CONTINUOUS
 62
     5
 10
55.41290399999998
 20
-46.63922099999999
 30
0.0
 11
55.31407299999998
 21
-46.717092
 31
0.0
  0
LINE
  5
5F9
  8
DETAIL
  6
CONTINUOUS
 62
     5
 10
55.31407299999998
 20
-46.717092
 30
0.0
 11
55.22665399999998
 21
-46.751009
 31
0.0
  0
LINE
  5
5FA
  8
DETAIL
  6
CONTINUOUS
 62
     5
 10
55.60739399999999
 20
-46.29200899999999
 30
0.0
 11
55.60739699999998
 21
-45.50799099999998
 31
0.0
  0
LINE
  5
5FB
  8
DETAIL
  6
CONTINUOUS
 62
     5
 10
55.26531299999998
 20
-44.925597
 30
0.0
 11
55.37774499999998
 21
-45.043169
 31
0.0
  0
LINE
  5
5FC
  8
DETAIL
  6
CONTINUOUS
 62
     5
 10
55.37774499999998
 20
-45.043169
 30
0.0
 11
55.48752599999999
 21
-45.18497299999999
 31
0.0
  0
LINE
  5
5FD
  8
DETAIL
  6
CONTINUOUS
 62
     5
 10
55.48752599999999
 20
-45.18497299999999
 30
0.0
 11
55.57321499999997
 21
-45.341692
 31
0.0
  0
LINE
  5
5FE
  8
DETAIL
  6
CONTINUOUS
 62
     5
 10
55.57321499999997
 20
-45.341692
 30
0.0
 11
55.60739699999998
 21
-45.50799099999998
 31
0.0
  0
LINE
  5
5FF
  8
DETAIL
  6
CONTINUOUS
 62
     5
 10
55.26528199999998
 20
-44.925597
 30
0.0
 11
55.19342799999997
 21
-44.83457099999999
 31
0.0
  0
LINE
  5
600
  8
DETAIL
  6
CONTINUOUS
 62
     5
 10
55.19342799999997
 20
-44.83457099999999
 30
0.0
 11
55.16727099999999
 21
-44.733111
 31
0.0
  0
LINE
  5
601
  8
DETAIL
  6
CONTINUOUS
 62
     5
 10
55.60739399999999
 20
-37.112009
 30
0.0
 11
55.57904299999998
 21
-37.239305
 31
0.0
  0
LINE
  5
602
  8
DETAIL
  6
CONTINUOUS
 62
     5
 10
55.57904299999998
 20
-37.239305
 30
0.0
 11
55.50579
 21
-37.358533
 31
0.0
  0
LINE
  5
603
  8
DETAIL
  6
CONTINUOUS
 62
     5
 10
55.50579
 20
-37.358533
 30
0.0
 11
55.41290399999998
 21
-37.459221
 31
0.0
  0
LINE
  5
604
  8
DETAIL
  6
CONTINUOUS
 62
     5
 10
55.41290399999998
 20
-37.459221
 30
0.0
 11
55.31407299999998
 21
-37.537092
 31
0.0
  0
LINE
  5
605
  8
DETAIL
  6
CONTINUOUS
 62
     5
 10
55.31407299999998
 20
-37.537092
 30
0.0
 11
55.22665399999998
 21
-37.57100899999999
 31
0.0
  0
LINE
  5
606
  8
DETAIL
  6
CONTINUOUS
 62
     5
 10
55.60739399999999
 20
-37.112009
 30
0.0
 11
55.60739699999998
 21
-36.32799099999999
 31
0.0
  0
LINE
  5
607
  8
DETAIL
  6
CONTINUOUS
 62
     5
 10
55.26531299999998
 20
-35.745597
 30
0.0
 11
55.37774499999998
 21
-35.86316899999999
 31
0.0
  0
LINE
  5
608
  8
DETAIL
  6
CONTINUOUS
 62
     5
 10
55.37774499999998
 20
-35.86316899999999
 30
0.0
 11
55.48752599999999
 21
-36.004973
 31
0.0
  0
LINE
  5
609
  8
DETAIL
  6
CONTINUOUS
 62
     5
 10
55.48752599999999
 20
-36.004973
 30
0.0
 11
55.57321499999997
 21
-36.16169199999998
 31
0.0
  0
LINE
  5
60A
  8
DETAIL
  6
CONTINUOUS
 62
     5
 10
55.57321499999997
 20
-36.16169199999998
 30
0.0
 11
55.60739699999998
 21
-36.32799099999999
 31
0.0
  0
LINE
  5
60B
  8
DETAIL
  6
CONTINUOUS
 62
     5
 10
55.26528199999998
 20
-35.745597
 30
0.0
 11
55.19342799999997
 21
-35.65457099999999
 31
0.0
  0
LINE
  5
60C
  8
DETAIL
  6
CONTINUOUS
 62
     5
 10
55.19342799999997
 20
-35.65457099999999
 30
0.0
 11
55.16727099999999
 21
-35.553111
 31
0.0
  0
LINE
  5
60D
  8
DETAIL
  6
CONTINUOUS
 62
     5
 10
55.60739399999999
 20
-27.932009
 30
0.0
 11
55.57904299999998
 21
-28.059305
 31
0.0
  0
LINE
  5
60E
  8
DETAIL
  6
CONTINUOUS
 62
     5
 10
55.57904299999998
 20
-28.059305
 30
0.0
 11
55.50579
 21
-28.178533
 31
0.0
  0
LINE
  5
60F
  8
DETAIL
  6
CONTINUOUS
 62
     5
 10
55.50579
 20
-28.178533
 30
0.0
 11
55.41290399999998
 21
-28.279221
 31
0.0
  0
LINE
  5
610
  8
DETAIL
  6
CONTINUOUS
 62
     5
 10
55.41290399999998
 20
-28.279221
 30
0.0
 11
55.31407299999998
 21
-28.357092
 31
0.0
  0
LINE
  5
611
  8
DETAIL
  6
CONTINUOUS
 62
     5
 10
55.31407299999998
 20
-28.357092
 30
0.0
 11
55.22665399999998
 21
-28.391009
 31
0.0
  0
LINE
  5
612
  8
DETAIL
  6
CONTINUOUS
 62
     5
 10
55.60739399999999
 20
-27.932009
 30
0.0
 11
55.60739699999998
 21
-27.147991
 31
0.0
  0
LINE
  5
613
  8
DETAIL
  6
CONTINUOUS
 62
     5
 10
55.26531299999998
 20
-26.56559699999998
 30
0.0
 11
55.37774499999998
 21
-26.683169
 31
0.0
  0
LINE
  5
614
  8
DETAIL
  6
CONTINUOUS
 62
     5
 10
55.37774499999998
 20
-26.683169
 30
0.0
 11
55.48752599999999
 21
-26.82497299999999
 31
0.0
  0
LINE
  5
615
  8
DETAIL
  6
CONTINUOUS
 62
     5
 10
55.48752599999999
 20
-26.82497299999999
 30
0.0
 11
55.57321499999997
 21
-26.981692
 31
0.0
  0
LINE
  5
616
  8
DETAIL
  6
CONTINUOUS
 62
     5
 10
55.57321499999997
 20
-26.981692
 30
0.0
 11
55.60739699999998
 21
-27.147991
 31
0.0
  0
LINE
  5
617
  8
DETAIL
  6
CONTINUOUS
 62
     5
 10
55.26528199999998
 20
-26.56559699999998
 30
0.0
 11
55.19342799999997
 21
-26.474571
 31
0.0
  0
LINE
  5
618
  8
DETAIL
  6
CONTINUOUS
 62
     5
 10
55.19342799999997
 20
-26.474571
 30
0.0
 11
55.16727099999999
 21
-26.37311099999999
 31
0.0
  0
LINE
  5
619
  8
DETAIL
  6
CONTINUOUS
 62
     5
 10
55.60739399999999
 20
-18.752009
 30
0.0
 11
55.57904299999998
 21
-18.87930499999999
 31
0.0
  0
LINE
  5
61A
  8
DETAIL
  6
CONTINUOUS
 62
     5
 10
55.57904299999998
 20
-18.87930499999999
 30
0.0
 11
55.50579
 21
-18.998533
 31
0.0
  0
LINE
  5
61B
  8
DETAIL
  6
CONTINUOUS
 62
     5
 10
55.50579
 20
-18.998533
 30
0.0
 11
55.41290399999998
 21
-19.099221
 31
0.0
  0
LINE
  5
61C
  8
DETAIL
  6
CONTINUOUS
 62
     5
 10
55.41290399999998
 20
-19.099221
 30
0.0
 11
55.31407299999998
 21
-19.177092
 31
0.0
  0
LINE
  5
61D
  8
DETAIL
  6
CONTINUOUS
 62
     5
 10
55.31407299999998
 20
-19.177092
 30
0.0
 11
55.22665399999998
 21
-19.211009
 31
0.0
  0
LINE
  5
61E
  8
DETAIL
  6
CONTINUOUS
 62
     5
 10
55.60739399999999
 20
-18.752009
 30
0.0
 11
55.60739699999998
 21
-17.967991
 31
0.0
  0
LINE
  5
61F
  8
DETAIL
  6
CONTINUOUS
 62
     5
 10
55.26531299999998
 20
-17.385597
 30
0.0
 11
55.37774499999998
 21
-17.503169
 31
0.0
  0
LINE
  5
620
  8
DETAIL
  6
CONTINUOUS
 62
     5
 10
55.37774499999998
 20
-17.503169
 30
0.0
 11
55.48752599999999
 21
-17.644973
 31
0.0
  0
LINE
  5
621
  8
DETAIL
  6
CONTINUOUS
 62
     5
 10
55.48752599999999
 20
-17.644973
 30
0.0
 11
55.57321499999997
 21
-17.801692
 31
0.0
  0
LINE
  5
622
  8
DETAIL
  6
CONTINUOUS
 62
     5
 10
55.57321499999997
 20
-17.801692
 30
0.0
 11
55.60739699999998
 21
-17.967991
 31
0.0
  0
LINE
  5
623
  8
DETAIL
  6
CONTINUOUS
 62
     5
 10
55.26528199999998
 20
-17.385597
 30
0.0
 11
55.19342799999997
 21
-17.29457099999999
 31
0.0
  0
LINE
  5
624
  8
DETAIL
  6
CONTINUOUS
 62
     5
 10
55.19342799999997
 20
-17.29457099999999
 30
0.0
 11
55.16727099999999
 21
-17.19311099999999
 31
0.0
  0
LINE
  5
625
  8
DETAIL
  6
CONTINUOUS
 62
     5
 10
55.60739399999999
 20
-9.572009
 30
0.0
 11
55.57904299999998
 21
-9.699305
 31
0.0
  0
LINE
  5
626
  8
DETAIL
  6
CONTINUOUS
 62
     5
 10
55.57904299999998
 20
-9.699305
 30
0.0
 11
55.50579
 21
-9.818533
 31
0.0
  0
LINE
  5
627
  8
DETAIL
  6
CONTINUOUS
 62
     5
 10
55.50579
 20
-9.818533
 30
0.0
 11
55.41290399999998
 21
-9.919221
 31
0.0
  0
LINE
  5
628
  8
DETAIL
  6
CONTINUOUS
 62
     5
 10
55.41290399999998
 20
-9.919221
 30
0.0
 11
55.31407299999998
 21
-9.997092
 31
0.0
  0
LINE
  5
629
  8
DETAIL
  6
CONTINUOUS
 62
     5
 10
55.31407299999998
 20
-9.997092
 30
0.0
 11
55.22665399999998
 21
-10.03100899999999
 31
0.0
  0
LINE
  5
62A
  8
DETAIL
  6
CONTINUOUS
 62
     5
 10
55.60739399999999
 20
-9.572009
 30
0.0
 11
55.60739699999998
 21
-8.787991
 31
0.0
  0
LINE
  5
62B
  8
DETAIL
  6
CONTINUOUS
 62
     5
 10
55.26531299999998
 20
-8.205597
 30
0.0
 11
55.37774499999998
 21
-8.323169
 31
0.0
  0
LINE
  5
62C
  8
DETAIL
  6
CONTINUOUS
 62
     5
 10
55.37774499999998
 20
-8.323169
 30
0.0
 11
55.48752599999999
 21
-8.464972999999999
 31
0.0
  0
LINE
  5
62D
  8
DETAIL
  6
CONTINUOUS
 62
     5
 10
55.48752599999999
 20
-8.464972999999999
 30
0.0
 11
55.57321499999997
 21
-8.621691999999998
 31
0.0
  0
LINE
  5
62E
  8
DETAIL
  6
CONTINUOUS
 62
     5
 10
55.57321499999997
 20
-8.621691999999998
 30
0.0
 11
55.60739699999998
 21
-8.787991
 31
0.0
  0
LINE
  5
62F
  8
DETAIL
  6
CONTINUOUS
 62
     5
 10
55.26528199999998
 20
-8.205597
 30
0.0
 11
55.19342799999997
 21
-8.114571
 31
0.0
  0
LINE
  5
630
  8
DETAIL
  6
CONTINUOUS
 62
     5
 10
55.19342799999997
 20
-8.114571
 30
0.0
 11
55.16727099999999
 21
-8.013111
 31
0.0
  0
LINE
  5
631
  8
DETAIL
  6
CONTINUOUS
 62
     5
 10
55.60739399999999
 20
-0.392009
 30
0.0
 11
55.57904299999998
 21
-0.5193050000000002
 31
0.0
  0
LINE
  5
632
  8
DETAIL
  6
CONTINUOUS
 62
     5
 10
55.57904299999998
 20
-0.5193050000000002
 30
0.0
 11
55.50579
 21
-0.638533
 31
0.0
  0
LINE
  5
633
  8
DETAIL
  6
CONTINUOUS
 62
     5
 10
55.50579
 20
-0.638533
 30
0.0
 11
55.41290399999998
 21
-0.7392210000000002
 31
0.0
  0
LINE
  5
634
  8
DETAIL
  6
CONTINUOUS
 62
     5
 10
55.41290399999998
 20
-0.7392210000000002
 30
0.0
 11
55.31407299999998
 21
-0.817092
 31
0.0
  0
LINE
  5
635
  8
DETAIL
  6
CONTINUOUS
 62
     5
 10
55.31407299999998
 20
-0.817092
 30
0.0
 11
55.22665399999998
 21
-0.8510089999999998
 31
0.0
  0
LINE
  5
636
  8
DETAIL
  6
CONTINUOUS
 62
     5
 10
55.60739399999999
 20
-0.392009
 30
0.0
 11
55.60739699999998
 21
0.392009
 31
0.0
  0
LINE
  5
637
  8
DETAIL
  6
CONTINUOUS
 62
     5
 10
55.26531299999998
 20
0.974403
 30
0.0
 11
55.37774499999998
 21
0.8568309999999998
 31
0.0
  0
LINE
  5
638
  8
DETAIL
  6
CONTINUOUS
 62
     5
 10
55.37774499999998
 20
0.8568309999999998
 30
0.0
 11
55.48752599999999
 21
0.7150270000000001
 31
0.0
  0
LINE
  5
639
  8
DETAIL
  6
CONTINUOUS
 62
     5
 10
55.48752599999999
 20
0.7150270000000001
 30
0.0
 11
55.57321499999997
 21
0.5583080000000002
 31
0.0
  0
LINE
  5
63A
  8
DETAIL
  6
CONTINUOUS
 62
     5
 10
55.57321499999997
 20
0.5583080000000002
 30
0.0
 11
55.60739699999998
 21
0.392009
 31
0.0
  0
LINE
  5
63B
  8
DETAIL
  6
CONTINUOUS
 62
     5
 10
55.26528199999998
 20
0.974403
 30
0.0
 11
55.19342799999997
 21
1.065429
 31
0.0
  0
LINE
  5
63C
  8
DETAIL
  6
CONTINUOUS
 62
     5
 10
55.19342799999997
 20
1.065429
 30
0.0
 11
55.16727099999999
 21
1.166888999999998
 31
0.0
  0
LINE
  5
63D
  8
DETAIL
  6
CONTINUOUS
 62
     5
 10
55.60739399999999
 20
8.787991
 30
0.0
 11
55.57904299999998
 21
8.660695
 31
0.0
  0
LINE
  5
63E
  8
DETAIL
  6
CONTINUOUS
 62
     5
 10
55.57904299999998
 20
8.660695
 30
0.0
 11
55.50579
 21
8.541466999999999
 31
0.0
  0
LINE
  5
63F
  8
DETAIL
  6
CONTINUOUS
 62
     5
 10
55.50579
 20
8.541466999999999
 30
0.0
 11
55.41290399999998
 21
8.440779
 31
0.0
  0
LINE
  5
640
  8
DETAIL
  6
CONTINUOUS
 62
     5
 10
55.41290399999998
 20
8.440779
 30
0.0
 11
55.31407299999998
 21
8.362908
 31
0.0
  0
LINE
  5
641
  8
DETAIL
  6
CONTINUOUS
 62
     5
 10
55.31407299999998
 20
8.362908
 30
0.0
 11
55.22665399999998
 21
8.328991
 31
0.0
  0
LINE
  5
642
  8
DETAIL
  6
CONTINUOUS
 62
     5
 10
55.60739399999999
 20
8.787991
 30
0.0
 11
55.60739699999998
 21
9.572009
 31
0.0
  0
LINE
  5
643
  8
DETAIL
  6
CONTINUOUS
 62
     5
 10
55.26531299999998
 20
10.154403
 30
0.0
 11
55.37774499999998
 21
10.03683099999999
 31
0.0
  0
LINE
  5
644
  8
DETAIL
  6
CONTINUOUS
 62
     5
 10
55.37774499999998
 20
10.03683099999999
 30
0.0
 11
55.48752599999999
 21
9.895027
 31
0.0
  0
LINE
  5
645
  8
DETAIL
  6
CONTINUOUS
 62
     5
 10
55.48752599999999
 20
9.895027
 30
0.0
 11
55.57321499999997
 21
9.738307999999998
 31
0.0
  0
LINE
  5
646
  8
DETAIL
  6
CONTINUOUS
 62
     5
 10
55.57321499999997
 20
9.738307999999998
 30
0.0
 11
55.60739699999998
 21
9.572009
 31
0.0
  0
LINE
  5
647
  8
DETAIL
  6
CONTINUOUS
 62
     5
 10
55.26528199999998
 20
10.154403
 30
0.0
 11
55.19342799999997
 21
10.24542899999999
 31
0.0
  0
LINE
  5
648
  8
DETAIL
  6
CONTINUOUS
 62
     5
 10
55.19342799999997
 20
10.24542899999999
 30
0.0
 11
55.16727099999999
 21
10.34688899999999
 31
0.0
  0
LINE
  5
649
  8
DETAIL
  6
CONTINUOUS
 62
     5
 10
55.60739399999999
 20
17.967991
 30
0.0
 11
55.57904299999998
 21
17.840695
 31
0.0
  0
LINE
  5
64A
  8
DETAIL
  6
CONTINUOUS
 62
     5
 10
55.57904299999998
 20
17.840695
 30
0.0
 11
55.50579
 21
17.721467
 31
0.0
  0
LINE
  5
64B
  8
DETAIL
  6
CONTINUOUS
 62
     5
 10
55.50579
 20
17.721467
 30
0.0
 11
55.41290399999998
 21
17.62077899999999
 31
0.0
  0
LINE
  5
64C
  8
DETAIL
  6
CONTINUOUS
 62
     5
 10
55.41290399999998
 20
17.62077899999999
 30
0.0
 11
55.31407299999998
 21
17.54290799999998
 31
0.0
  0
LINE
  5
64D
  8
DETAIL
  6
CONTINUOUS
 62
     5
 10
55.31407299999998
 20
17.54290799999998
 30
0.0
 11
55.22665399999998
 21
17.508991
 31
0.0
  0
LINE
  5
64E
  8
DETAIL
  6
CONTINUOUS
 62
     5
 10
55.60739399999999
 20
17.967991
 30
0.0
 11
55.60739699999998
 21
18.752009
 31
0.0
  0
LINE
  5
64F
  8
DETAIL
  6
CONTINUOUS
 62
     5
 10
55.26531299999998
 20
19.334403
 30
0.0
 11
55.37774499999998
 21
19.216831
 31
0.0
  0
LINE
  5
650
  8
DETAIL
  6
CONTINUOUS
 62
     5
 10
55.37774499999998
 20
19.216831
 30
0.0
 11
55.48752599999999
 21
19.075027
 31
0.0
  0
LINE
  5
651
  8
DETAIL
  6
CONTINUOUS
 62
     5
 10
55.48752599999999
 20
19.075027
 30
0.0
 11
55.57321499999997
 21
18.918308
 31
0.0
  0
LINE
  5
652
  8
DETAIL
  6
CONTINUOUS
 62
     5
 10
55.57321499999997
 20
18.918308
 30
0.0
 11
55.60739699999998
 21
18.752009
 31
0.0
  0
LINE
  5
653
  8
DETAIL
  6
CONTINUOUS
 62
     5
 10
55.26528199999998
 20
19.334403
 30
0.0
 11
55.19342799999997
 21
19.425429
 31
0.0
  0
LINE
  5
654
  8
DETAIL
  6
CONTINUOUS
 62
     5
 10
55.19342799999997
 20
19.425429
 30
0.0
 11
55.16727099999999
 21
19.526889
 31
0.0
  0
LINE
  5
655
  8
DETAIL
  6
CONTINUOUS
 62
     5
 10
55.60739399999999
 20
27.147991
 30
0.0
 11
55.57904299999998
 21
27.020695
 31
0.0
  0
LINE
  5
656
  8
DETAIL
  6
CONTINUOUS
 62
     5
 10
55.57904299999998
 20
27.020695
 30
0.0
 11
55.50579
 21
26.90146699999999
 31
0.0
  0
LINE
  5
657
  8
DETAIL
  6
CONTINUOUS
 62
     5
 10
55.50579
 20
26.90146699999999
 30
0.0
 11
55.41290399999998
 21
26.800779
 31
0.0
  0
LINE
  5
658
  8
DETAIL
  6
CONTINUOUS
 62
     5
 10
55.60739399999999
 20
36.32799099999999
 30
0.0
 11
55.57904299999998
 21
36.200695
 31
0.0
  0
LINE
  5
659
  8
DETAIL
  6
CONTINUOUS
 62
     5
 10
55.57904299999998
 20
36.200695
 30
0.0
 11
55.50579
 21
36.08146699999998
 31
0.0
  0
LINE
  5
65A
  8
DETAIL
  6
CONTINUOUS
 62
     5
 10
55.50579
 20
36.08146699999998
 30
0.0
 11
55.41290399999998
 21
35.98077899999999
 31
0.0
  0
LINE
  5
65B
  8
DETAIL
  6
CONTINUOUS
 62
     5
 10
55.41290399999998
 20
35.98077899999999
 30
0.0
 11
55.31407299999998
 21
35.902908
 31
0.0
  0
LINE
  5
65C
  8
DETAIL
  6
CONTINUOUS
 62
     5
 10
55.31407299999998
 20
35.902908
 30
0.0
 11
55.22665399999998
 21
35.86899099999998
 31
0.0
  0
LINE
  5
65D
  8
DETAIL
  6
CONTINUOUS
 62
     5
 10
55.60739399999999
 20
36.32799099999999
 30
0.0
 11
55.60739699999998
 21
37.112009
 31
0.0
  0
LINE
  5
65E
  8
DETAIL
  6
CONTINUOUS
 62
     5
 10
55.26531299999998
 20
37.694403
 30
0.0
 11
55.37774499999998
 21
37.57683099999999
 31
0.0
  0
LINE
  5
65F
  8
DETAIL
  6
CONTINUOUS
 62
     5
 10
55.37774499999998
 20
37.57683099999999
 30
0.0
 11
55.48752599999999
 21
37.435027
 31
0.0
  0
LINE
  5
660
  8
DETAIL
  6
CONTINUOUS
 62
     5
 10
55.48752599999999
 20
37.435027
 30
0.0
 11
55.57321499999997
 21
37.278308
 31
0.0
  0
LINE
  5
661
  8
DETAIL
  6
CONTINUOUS
 62
     5
 10
-14.37323500000001
 20
-55.221792
 30
0.0
 11
-14.26719300000001
 21
-55.33741800000001
 31
0.0
  0
LINE
  5
662
  8
DETAIL
  6
CONTINUOUS
 62
     5
 10
-14.26719300000001
 20
-55.33741800000001
 30
0.0
 11
-14.129234
 21
-55.449507
 31
0.0
  0
LINE
  5
663
  8
DETAIL
  6
CONTINUOUS
 62
     5
 10
-14.129234
 20
-55.449507
 30
0.0
 11
-13.97418800000001
 21
-55.527797
 31
0.0
  0
LINE
  5
664
  8
DETAIL
  6
CONTINUOUS
 62
     5
 10
-13.97418800000001
 20
-55.527797
 30
0.0
 11
-13.61644400000001
 21
-55.538357
 31
0.0
  0
LINE
  5
665
  8
DETAIL
  6
CONTINUOUS
 62
     5
 10
-13.61644400000001
 20
-55.538357
 30
0.0
 11
-13.26262300000001
 21
-55.46672199999999
 31
0.0
  0
LINE
  5
666
  8
DETAIL
  6
CONTINUOUS
 62
     5
 10
-13.26262300000001
 20
-55.46672199999999
 30
0.0
 11
-13.11172
 21
-55.34995699999999
 31
0.0
  0
LINE
  5
667
  8
DETAIL
  6
CONTINUOUS
 62
     5
 10
-13.11172
 20
-55.34995699999999
 30
0.0
 11
-12.995481
 21
-55.226042
 31
0.0
  0
LINE
  5
668
  8
DETAIL
  6
CONTINUOUS
 62
     5
 10
-12.995481
 20
-55.226042
 30
0.0
 11
-12.94832900000001
 21
-55.134862
 31
0.0
  0
LINE
  5
669
  8
DETAIL
  6
CONTINUOUS
 62
     5
 10
-14.41712900000001
 20
-55.134862
 30
0.0
 11
-14.37323500000001
 21
-55.221792
 31
0.0
  0
LINE
  5
66A
  8
DETAIL
  6
CONTINUOUS
 62
     5
 10
55.57321499999997
 20
37.278308
 30
0.0
 11
55.60739699999998
 21
37.112009
 31
0.0
  0
LINE
  5
66B
  8
DETAIL
  6
CONTINUOUS
 62
     5
 10
55.26528199999998
 20
37.694403
 30
0.0
 11
55.19342799999997
 21
37.785429
 31
0.0
  0
LINE
  5
66C
  8
DETAIL
  6
CONTINUOUS
 62
     5
 10
-12.94832900000001
 20
55.08524300000001
 30
0.0
 11
-12.99742700000001
 21
55.178925
 31
0.0
  0
LINE
  5
66D
  8
DETAIL
  6
CONTINUOUS
 62
     5
 10
-12.99742700000001
 20
55.178925
 30
0.0
 11
-13.11824
 21
55.306284
 31
0.0
  0
LINE
  5
66E
  8
DETAIL
  6
CONTINUOUS
 62
     5
 10
-13.11824
 20
55.306284
 30
0.0
 11
-13.27624300000001
 21
55.42540999999999
 31
0.0
  0
LINE
  5
66F
  8
DETAIL
  6
CONTINUOUS
 62
     5
 10
-13.27624300000001
 20
55.42540999999999
 30
0.0
 11
-13.64882400000001
 21
55.49353299999999
 31
0.0
  0
LINE
  5
670
  8
DETAIL
  6
CONTINUOUS
 62
     5
 10
-13.64882400000001
 20
55.49353299999999
 30
0.0
 11
-14.05022900000001
 21
55.446901
 31
0.0
  0
LINE
  5
671
  8
DETAIL
  6
CONTINUOUS
 62
     5
 10
-14.23164800000001
 20
55.320149
 30
0.0
 11
-14.36752199999999
 21
55.179575
 31
0.0
  0
LINE
  5
672
  8
DETAIL
  6
CONTINUOUS
 62
     5
 10
-14.36752199999999
 20
55.179575
 30
0.0
 11
-14.41712900000001
 21
55.08524300000001
 31
0.0
  0
LINE
  5
673
  8
DETAIL
  6
CONTINUOUS
 62
     5
 10
-14.05022900000001
 20
55.446901
 30
0.0
 11
-14.23164800000001
 21
55.320149
 31
0.0
  0
LINE
  5
674
  8
DETAIL
  6
CONTINUOUS
 62
     5
 10
-54.99272900000001
 20
-44.733111
 30
0.0
 11
-54.99272900000001
 21
-37.57100899999999
 31
0.0
  0
LINE
  5
675
  8
DETAIL
  6
CONTINUOUS
 62
     5
 10
55.19342799999997
 20
37.785429
 30
0.0
 11
55.16727099999999
 21
37.88688899999999
 31
0.0
  0
LINE
  5
676
  8
DETAIL
  6
CONTINUOUS
 62
     5
 10
-54.99272900000001
 20
-17.19311099999999
 30
0.0
 11
-54.99272900000001
 21
-10.03100899999999
 31
0.0
  0
LINE
  5
677
  8
DETAIL
  6
CONTINUOUS
 62
     5
 10
55.41290399999998
 20
26.800779
 30
0.0
 11
55.31407299999998
 21
26.722908
 31
0.0
  0
LINE
  5
678
  8
DETAIL
  6
CONTINUOUS
 62
     5
 10
-55.43285500000001
 20
-45.50799099999998
 30
0.0
 11
-55.398561
 21
-45.34141199999999
 31
0.0
  0
LINE
  5
679
  8
DETAIL
  6
CONTINUOUS
 62
     5
 10
-55.398561
 20
-45.34141199999999
 30
0.0
 11
-55.31273600000002
 21
-45.184607
 31
0.0
  0
LINE
  5
67A
  8
DETAIL
  6
CONTINUOUS
 62
     5
 10
-55.31273600000002
 20
-45.184607
 30
0.0
 11
-55.20298100000002
 21
-45.042914
 31
0.0
  0
LINE
  5
67B
  8
DETAIL
  6
CONTINUOUS
 62
     5
 10
-55.20298100000002
 20
-45.042914
 30
0.0
 11
-55.09077100000001
 21
-44.925597
 31
0.0
  0
LINE
  5
67C
  8
DETAIL
  6
CONTINUOUS
 62
     5
 10
-55.01889799999999
 20
-44.834594
 30
0.0
 11
-55.090743
 21
-44.925597
 31
0.0
  0
LINE
  5
67D
  8
DETAIL
  6
CONTINUOUS
 62
     5
 10
-55.43285500000001
 20
-45.50799099999998
 30
0.0
 11
-55.43285200000001
 21
-46.29200899999999
 31
0.0
  0
LINE
  5
67E
  8
DETAIL
  6
CONTINUOUS
 62
     5
 10
-55.139661
 20
-46.717009
 30
0.0
 11
-55.23862200000002
 21
-46.638979
 31
0.0
  0
LINE
  5
67F
  8
DETAIL
  6
CONTINUOUS
 62
     5
 10
-55.23862200000002
 20
-46.638979
 30
0.0
 11
-55.33153400000003
 21
-46.538167
 31
0.0
  0
LINE
  5
680
  8
DETAIL
  6
CONTINUOUS
 62
     5
 10
-55.43285500000001
 20
-36.32799099999999
 30
0.0
 11
-55.398561
 21
-36.16141199999999
 31
0.0
  0
LINE
  5
681
  8
DETAIL
  6
CONTINUOUS
 62
     5
 10
-55.398561
 20
-36.16141199999999
 30
0.0
 11
-55.31273600000002
 21
-36.004607
 31
0.0
  0
LINE
  5
682
  8
DETAIL
  6
CONTINUOUS
 62
     5
 10
-55.31273600000002
 20
-36.004607
 30
0.0
 11
-55.20298100000002
 21
-35.86291400000001
 31
0.0
  0
LINE
  5
683
  8
DETAIL
  6
CONTINUOUS
 62
     5
 10
-55.20298100000002
 20
-35.86291400000001
 30
0.0
 11
-55.09077100000001
 21
-35.745597
 31
0.0
  0
LINE
  5
684
  8
DETAIL
  6
CONTINUOUS
 62
     5
 10
-55.01889799999999
 20
-35.65459400000001
 30
0.0
 11
-55.090743
 21
-35.745597
 31
0.0
  0
LINE
  5
685
  8
DETAIL
  6
CONTINUOUS
 62
     5
 10
-55.43285500000001
 20
-36.32799099999999
 30
0.0
 11
-55.43285200000001
 21
-37.112009
 31
0.0
  0
LINE
  5
686
  8
DETAIL
  6
CONTINUOUS
 62
     5
 10
-55.139661
 20
-37.537009
 30
0.0
 11
-55.23862200000002
 21
-37.458979
 31
0.0
  0
LINE
  5
687
  8
DETAIL
  6
CONTINUOUS
 62
     5
 10
-55.23862200000002
 20
-37.458979
 30
0.0
 11
-55.33153400000003
 21
-37.358167
 31
0.0
  0
LINE
  5
688
  8
DETAIL
  6
CONTINUOUS
 62
     5
 10
-55.33153400000003
 20
-37.358167
 30
0.0
 11
-55.40465900000002
 21
-37.23894099999998
 31
0.0
  0
LINE
  5
689
  8
DETAIL
  6
CONTINUOUS
 62
     5
 10
-55.40465900000002
 20
-37.23894099999998
 30
0.0
 11
-55.43285200000001
 21
-37.112009
 31
0.0
  0
LINE
  5
68A
  8
DETAIL
  6
CONTINUOUS
 62
     5
 10
-55.052112
 20
-37.57100899999999
 30
0.0
 11
-55.139661
 21
-37.537009
 31
0.0
  0
LINE
  5
68B
  8
DETAIL
  6
CONTINUOUS
 62
     5
 10
-54.99272900000001
 20
-35.553111
 30
0.0
 11
-55.01889799999999
 21
-35.65459400000001
 31
0.0
  0
LINE
  5
68C
  8
DETAIL
  6
CONTINUOUS
 62
     5
 10
-55.43285500000001
 20
-27.147991
 30
0.0
 11
-55.398561
 21
-26.981412
 31
0.0
  0
LINE
  5
68D
  8
DETAIL
  6
CONTINUOUS
 62
     5
 10
-55.398561
 20
-26.981412
 30
0.0
 11
-55.31273600000002
 21
-26.824607
 31
0.0
  0
LINE
  5
68E
  8
DETAIL
  6
CONTINUOUS
 62
     5
 10
-55.31273600000002
 20
-26.824607
 30
0.0
 11
-55.20298100000002
 21
-26.682914
 31
0.0
  0
LINE
  5
68F
  8
DETAIL
  6
CONTINUOUS
 62
     5
 10
-55.20298100000002
 20
-26.682914
 30
0.0
 11
-55.09077100000001
 21
-26.56559699999998
 31
0.0
  0
LINE
  5
690
  8
DETAIL
  6
CONTINUOUS
 62
     5
 10
-55.01889799999999
 20
-26.474594
 30
0.0
 11
-55.090743
 21
-26.56559699999998
 31
0.0
  0
LINE
  5
691
  8
DETAIL
  6
CONTINUOUS
 62
     5
 10
-55.43285500000001
 20
-27.147991
 30
0.0
 11
-55.43285200000001
 21
-27.932009
 31
0.0
  0
LINE
  5
692
  8
DETAIL
  6
CONTINUOUS
 62
     5
 10
-55.139661
 20
-28.357009
 30
0.0
 11
-55.23862200000002
 21
-28.27897899999999
 31
0.0
  0
LINE
  5
693
  8
DETAIL
  6
CONTINUOUS
 62
     5
 10
-55.23862200000002
 20
-28.27897899999999
 30
0.0
 11
-55.33153400000003
 21
-28.17816699999999
 31
0.0
  0
LINE
  5
694
  8
DETAIL
  6
CONTINUOUS
 62
     5
 10
-55.33153400000003
 20
-28.17816699999999
 30
0.0
 11
-55.40465900000002
 21
-28.05894099999999
 31
0.0
  0
LINE
  5
695
  8
DETAIL
  6
CONTINUOUS
 62
     5
 10
-55.40465900000002
 20
-28.05894099999999
 30
0.0
 11
-55.43285200000001
 21
-27.932009
 31
0.0
  0
LINE
  5
696
  8
DETAIL
  6
CONTINUOUS
 62
     5
 10
-55.052112
 20
-28.391009
 30
0.0
 11
-55.139661
 21
-28.357009
 31
0.0
  0
LINE
  5
697
  8
DETAIL
  6
CONTINUOUS
 62
     5
 10
-54.99272900000001
 20
-26.37311099999999
 30
0.0
 11
-55.01889799999999
 21
-26.474594
 31
0.0
  0
LINE
  5
698
  8
DETAIL
  6
CONTINUOUS
 62
     5
 10
-54.99272900000001
 20
-8.013111
 30
0.0
 11
-54.99272900000001
 21
-0.8510089999999998
 31
0.0
  0
LINE
  5
699
  8
DETAIL
  6
CONTINUOUS
 62
     5
 10
-55.43285500000001
 20
-17.967991
 30
0.0
 11
-55.398561
 21
-17.801412
 31
0.0
  0
LINE
  5
69A
  8
DETAIL
  6
CONTINUOUS
 62
     5
 10
-55.398561
 20
-17.801412
 30
0.0
 11
-55.31273600000002
 21
-17.644607
 31
0.0
  0
LINE
  5
69B
  8
DETAIL
  6
CONTINUOUS
 62
     5
 10
-55.31273600000002
 20
-17.644607
 30
0.0
 11
-55.20298100000002
 21
-17.502914
 31
0.0
  0
LINE
  5
69C
  8
DETAIL
  6
CONTINUOUS
 62
     5
 10
-55.20298100000002
 20
-17.502914
 30
0.0
 11
-55.09077100000001
 21
-17.385597
 31
0.0
  0
LINE
  5
69D
  8
DETAIL
  6
CONTINUOUS
 62
     5
 10
-55.01889799999999
 20
-17.294594
 30
0.0
 11
-55.090743
 21
-17.385597
 31
0.0
  0
LINE
  5
69E
  8
DETAIL
  6
CONTINUOUS
 62
     5
 10
-55.43285500000001
 20
-17.967991
 30
0.0
 11
-55.43285200000001
 21
-18.752009
 31
0.0
  0
LINE
  5
69F
  8
DETAIL
  6
CONTINUOUS
 62
     5
 10
-55.139661
 20
-19.17700899999999
 30
0.0
 11
-55.23862200000002
 21
-19.09897899999998
 31
0.0
  0
LINE
  5
6A0
  8
DETAIL
  6
CONTINUOUS
 62
     5
 10
-55.23862200000002
 20
-19.09897899999998
 30
0.0
 11
-55.33153400000003
 21
-18.99816699999999
 31
0.0
  0
LINE
  5
6A1
  8
DETAIL
  6
CONTINUOUS
 62
     5
 10
-55.33153400000003
 20
-18.99816699999999
 30
0.0
 11
-55.40465900000002
 21
-18.878941
 31
0.0
  0
LINE
  5
6A2
  8
DETAIL
  6
CONTINUOUS
 62
     5
 10
-55.40465900000002
 20
-18.878941
 30
0.0
 11
-55.43285200000001
 21
-18.752009
 31
0.0
  0
LINE
  5
6A3
  8
DETAIL
  6
CONTINUOUS
 62
     5
 10
-55.052112
 20
-19.211009
 30
0.0
 11
-55.139661
 21
-19.17700899999999
 31
0.0
  0
LINE
  5
6A4
  8
DETAIL
  6
CONTINUOUS
 62
     5
 10
-54.99272900000001
 20
-17.19311099999999
 30
0.0
 11
-55.01889799999999
 21
-17.294594
 31
0.0
  0
LINE
  5
6A5
  8
DETAIL
  6
CONTINUOUS
 62
     5
 10
-55.33153400000003
 20
-46.538167
 30
0.0
 11
-55.40465900000002
 21
-46.418941
 31
0.0
  0
LINE
  5
6A6
  8
DETAIL
  6
CONTINUOUS
 62
     5
 10
-55.40465900000002
 20
-46.418941
 30
0.0
 11
-55.43285200000001
 21
-46.29200899999999
 31
0.0
  0
LINE
  5
6A7
  8
DETAIL
  6
CONTINUOUS
 62
     5
 10
-55.052112
 20
-46.751009
 30
0.0
 11
-55.139661
 21
-46.717009
 31
0.0
  0
LINE
  5
6A8
  8
DETAIL
  6
CONTINUOUS
 62
     5
 10
-55.43285500000001
 20
-8.787991
 30
0.0
 11
-55.398561
 21
-8.621411999999998
 31
0.0
  0
LINE
  5
6A9
  8
DETAIL
  6
CONTINUOUS
 62
     5
 10
-55.398561
 20
-8.621411999999998
 30
0.0
 11
-55.31273600000002
 21
-8.464607
 31
0.0
  0
LINE
  5
6AA
  8
DETAIL
  6
CONTINUOUS
 62
     5
 10
-55.31273600000002
 20
-8.464607
 30
0.0
 11
-55.20298100000002
 21
-8.322914
 31
0.0
  0
LINE
  5
6AB
  8
DETAIL
  6
CONTINUOUS
 62
     5
 10
-55.20298100000002
 20
-8.322914
 30
0.0
 11
-55.09077100000001
 21
-8.205597
 31
0.0
  0
LINE
  5
6AC
  8
DETAIL
  6
CONTINUOUS
 62
     5
 10
-55.01889799999999
 20
-8.114594
 30
0.0
 11
-55.090743
 21
-8.205597
 31
0.0
  0
LINE
  5
6AD
  8
DETAIL
  6
CONTINUOUS
 62
     5
 10
-55.43285500000001
 20
-8.787991
 30
0.0
 11
-55.43285200000001
 21
-9.572009
 31
0.0
  0
LINE
  5
6AE
  8
DETAIL
  6
CONTINUOUS
 62
     5
 10
-55.139661
 20
-9.997009
 30
0.0
 11
-55.23862200000002
 21
-9.918979
 31
0.0
  0
LINE
  5
6AF
  8
DETAIL
  6
CONTINUOUS
 62
     5
 10
-55.23862200000002
 20
-9.918979
 30
0.0
 11
-55.33153400000003
 21
-9.818166999999997
 31
0.0
  0
LINE
  5
6B0
  8
DETAIL
  6
CONTINUOUS
 62
     5
 10
-55.33153400000003
 20
-9.818166999999997
 30
0.0
 11
-55.40465900000002
 21
-9.698941
 31
0.0
  0
LINE
  5
6B1
  8
DETAIL
  6
CONTINUOUS
 62
     5
 10
-55.40465900000002
 20
-9.698941
 30
0.0
 11
-55.43285200000001
 21
-9.572009
 31
0.0
  0
LINE
  5
6B2
  8
DETAIL
  6
CONTINUOUS
 62
     5
 10
-54.99272900000001
 20
10.34688899999999
 30
0.0
 11
-54.99272900000001
 21
17.508991
 31
0.0
  0
LINE
  5
6B3
  8
DETAIL
  6
CONTINUOUS
 62
     5
 10
-54.99272900000001
 20
-8.013111
 30
0.0
 11
-55.01889799999999
 21
-8.114594
 31
0.0
  0
LINE
  5
6B4
  8
DETAIL
  6
CONTINUOUS
 62
     5
 10
-55.052112
 20
-10.03100899999999
 30
0.0
 11
-55.139661
 21
-9.997009
 31
0.0
  0
LINE
  5
6B5
  8
DETAIL
  6
CONTINUOUS
 62
     5
 10
-54.99272900000001
 20
19.526889
 30
0.0
 11
-54.99272900000001
 21
26.68899099999999
 31
0.0
  0
LINE
  5
6B6
  8
DETAIL
  6
CONTINUOUS
 62
     5
 10
-54.99272900000001
 20
-35.553111
 30
0.0
 11
-54.99272900000001
 21
-28.391009
 31
0.0
  0
LINE
  5
6B7
  8
DETAIL
  6
CONTINUOUS
 62
     5
 10
55.31407299999998
 20
26.722908
 30
0.0
 11
55.22665399999998
 21
26.68899099999999
 31
0.0
  0
LINE
  5
6B8
  8
DETAIL
  6
CONTINUOUS
 62
     5
 10
-54.99272900000001
 20
28.706889
 30
0.0
 11
-54.99272900000001
 21
35.86899099999998
 31
0.0
  0
LINE
  5
6B9
  8
DETAIL
  6
CONTINUOUS
 62
     5
 10
55.60739399999999
 20
27.147991
 30
0.0
 11
55.60739699999998
 21
27.932009
 31
0.0
  0
LINE
  5
6BA
  8
DETAIL
  6
CONTINUOUS
 62
     5
 10
-54.99272900000001
 20
1.166888999999998
 30
0.0
 11
-54.99272900000001
 21
8.328991
 31
0.0
  0
LINE
  5
6BB
  8
DETAIL
  6
CONTINUOUS
 62
     5
 10
-55.43285500000001
 20
0.392009
 30
0.0
 11
-55.398561
 21
0.558588
 31
0.0
  0
LINE
  5
6BC
  8
DETAIL
  6
CONTINUOUS
 62
     5
 10
-55.398561
 20
0.558588
 30
0.0
 11
-55.31273600000002
 21
0.7153930000000001
 31
0.0
  0
LINE
  5
6BD
  8
DETAIL
  6
CONTINUOUS
 62
     5
 10
-55.31273600000002
 20
0.7153930000000001
 30
0.0
 11
-55.20298100000002
 21
0.8570859999999999
 31
0.0
  0
LINE
  5
6BE
  8
DETAIL
  6
CONTINUOUS
 62
     5
 10
-55.20298100000002
 20
0.8570859999999999
 30
0.0
 11
-55.09077100000001
 21
0.974403
 31
0.0
  0
LINE
  5
6BF
  8
DETAIL
  6
CONTINUOUS
 62
     5
 10
-55.01889799999999
 20
1.065405999999998
 30
0.0
 11
-55.090743
 21
0.974403
 31
0.0
  0
LINE
  5
6C0
  8
DETAIL
  6
CONTINUOUS
 62
     5
 10
-55.43285500000001
 20
0.392009
 30
0.0
 11
-55.43285200000001
 21
-0.392009
 31
0.0
  0
LINE
  5
6C1
  8
DETAIL
  6
CONTINUOUS
 62
     5
 10
-55.139661
 20
-0.817009
 30
0.0
 11
-55.23862200000002
 21
-0.738979
 31
0.0
  0
LINE
  5
6C2
  8
DETAIL
  6
CONTINUOUS
 62
     5
 10
-55.23862200000002
 20
-0.738979
 30
0.0
 11
-55.33153400000003
 21
-0.6381670000000002
 31
0.0
  0
LINE
  5
6C3
  8
DETAIL
  6
CONTINUOUS
 62
     5
 10
-55.33153400000003
 20
-0.6381670000000002
 30
0.0
 11
-55.40465900000002
 21
-0.518941
 31
0.0
  0
LINE
  5
6C4
  8
DETAIL
  6
CONTINUOUS
 62
     5
 10
-55.40465900000002
 20
-0.518941
 30
0.0
 11
-55.43285200000001
 21
-0.392009
 31
0.0
  0
LINE
  5
6C5
  8
DETAIL
  6
CONTINUOUS
 62
     5
 10
-55.052112
 20
-0.8510089999999998
 30
0.0
 11
-55.139661
 21
-0.817009
 31
0.0
  0
LINE
  5
6C6
  8
DETAIL
  6
CONTINUOUS
 62
     5
 10
-54.99272900000001
 20
1.166888999999998
 30
0.0
 11
-55.01889799999999
 21
1.065405999999998
 31
0.0
  0
LINE
  5
6C7
  8
DETAIL
  6
CONTINUOUS
 62
     5
 10
-54.99272900000001
 20
-44.733111
 30
0.0
 11
-55.01889799999999
 21
-44.834594
 31
0.0
  0
LINE
  5
6C8
  8
DETAIL
  6
CONTINUOUS
 62
     5
 10
-55.43285500000001
 20
9.572009
 30
0.0
 11
-55.398561
 21
9.738588
 31
0.0
  0
LINE
  5
6C9
  8
DETAIL
  6
CONTINUOUS
 62
     5
 10
-55.398561
 20
9.738588
 30
0.0
 11
-55.31273600000002
 21
9.895392999999999
 31
0.0
  0
LINE
  5
6CA
  8
DETAIL
  6
CONTINUOUS
 62
     5
 10
-55.31273600000002
 20
9.895392999999999
 30
0.0
 11
-55.20298100000002
 21
10.037086
 31
0.0
  0
LINE
  5
6CB
  8
DETAIL
  6
CONTINUOUS
 62
     5
 10
-55.20298100000002
 20
10.037086
 30
0.0
 11
-55.09077100000001
 21
10.154403
 31
0.0
  0
LINE
  5
6CC
  8
DETAIL
  6
CONTINUOUS
 62
     5
 10
-55.01889799999999
 20
10.24540599999999
 30
0.0
 11
-55.090743
 21
10.154403
 31
0.0
  0
LINE
  5
6CD
  8
DETAIL
  6
CONTINUOUS
 62
     5
 10
-55.43285500000001
 20
9.572009
 30
0.0
 11
-55.43285200000001
 21
8.787991
 31
0.0
  0
LINE
  5
6CE
  8
DETAIL
  6
CONTINUOUS
 62
     5
 10
-55.139661
 20
8.362991
 30
0.0
 11
-55.23862200000002
 21
8.441021
 31
0.0
  0
LINE
  5
6CF
  8
DETAIL
  6
CONTINUOUS
 62
     5
 10
-55.23862200000002
 20
8.441021
 30
0.0
 11
-55.33153400000003
 21
8.541833
 31
0.0
  0
LINE
  5
6D0
  8
DETAIL
  6
CONTINUOUS
 62
     5
 10
-54.99272900000001
 20
-26.37311099999999
 30
0.0
 11
-54.99272900000001
 21
-19.211009
 31
0.0
  0
LINE
  5
6D1
  8
DETAIL
  6
CONTINUOUS
 62
     5
 10
-55.43285500000001
 20
18.752009
 30
0.0
 11
-55.398561
 21
18.91858799999998
 31
0.0
  0
LINE
  5
6D2
  8
DETAIL
  6
CONTINUOUS
 62
     5
 10
-55.398561
 20
18.91858799999998
 30
0.0
 11
-55.31273600000002
 21
19.07539299999999
 31
0.0
  0
LINE
  5
6D3
  8
DETAIL
  6
CONTINUOUS
 62
     5
 10
-55.31273600000002
 20
19.07539299999999
 30
0.0
 11
-55.20298100000002
 21
19.21708599999999
 31
0.0
  0
LINE
  5
6D4
  8
DETAIL
  6
CONTINUOUS
 62
     5
 10
-55.20298100000002
 20
19.21708599999999
 30
0.0
 11
-55.09077100000001
 21
19.334403
 31
0.0
  0
LINE
  5
6D5
  8
DETAIL
  6
CONTINUOUS
 62
     5
 10
-55.01889799999999
 20
19.425406
 30
0.0
 11
-55.090743
 21
19.334403
 31
0.0
  0
LINE
  5
6D6
  8
DETAIL
  6
CONTINUOUS
 62
     5
 10
-55.43285500000001
 20
18.752009
 30
0.0
 11
-55.43285200000001
 21
17.967991
 31
0.0
  0
LINE
  5
6D7
  8
DETAIL
  6
CONTINUOUS
 62
     5
 10
-55.139661
 20
17.542991
 30
0.0
 11
-55.23862200000002
 21
17.62102099999999
 31
0.0
  0
LINE
  5
6D8
  8
DETAIL
  6
CONTINUOUS
 62
     5
 10
-55.23862200000002
 20
17.62102099999999
 30
0.0
 11
-55.33153400000003
 21
17.721833
 31
0.0
  0
LINE
  5
6D9
  8
DETAIL
  6
CONTINUOUS
 62
     5
 10
-55.33153400000003
 20
17.721833
 30
0.0
 11
-55.40465900000002
 21
17.841059
 31
0.0
  0
LINE
  5
6DA
  8
DETAIL
  6
CONTINUOUS
 62
     5
 10
-55.40465900000002
 20
17.841059
 30
0.0
 11
-55.43285200000001
 21
17.967991
 31
0.0
  0
LINE
  5
6DB
  8
DETAIL
  6
CONTINUOUS
 62
     5
 10
-55.052112
 20
17.508991
 30
0.0
 11
-55.139661
 21
17.542991
 31
0.0
  0
LINE
  5
6DC
  8
DETAIL
  6
CONTINUOUS
 62
     5
 10
-54.99272900000001
 20
19.526889
 30
0.0
 11
-55.01889799999999
 21
19.425406
 31
0.0
  0
LINE
  5
6DD
  8
DETAIL
  6
CONTINUOUS
 62
     5
 10
55.26531299999998
 20
28.514403
 30
0.0
 11
55.37774499999998
 21
28.396831
 31
0.0
  0
LINE
  5
6DE
  8
DETAIL
  6
CONTINUOUS
 62
     5
 10
-55.43285500000001
 20
27.932009
 30
0.0
 11
-55.398561
 21
28.098588
 31
0.0
  0
LINE
  5
6DF
  8
DETAIL
  6
CONTINUOUS
 62
     5
 10
-55.398561
 20
28.098588
 30
0.0
 11
-55.31273600000002
 21
28.25539299999999
 31
0.0
  0
LINE
  5
6E0
  8
DETAIL
  6
CONTINUOUS
 62
     5
 10
-55.31273600000002
 20
28.25539299999999
 30
0.0
 11
-55.20298100000002
 21
28.39708599999999
 31
0.0
  0
LINE
  5
6E1
  8
DETAIL
  6
CONTINUOUS
 62
     5
 10
-55.20298100000002
 20
28.39708599999999
 30
0.0
 11
-55.09077100000001
 21
28.514403
 31
0.0
  0
LINE
  5
6E2
  8
DETAIL
  6
CONTINUOUS
 62
     5
 10
-55.01889799999999
 20
28.605406
 30
0.0
 11
-55.090743
 21
28.514403
 31
0.0
  0
LINE
  5
6E3
  8
DETAIL
  6
CONTINUOUS
 62
     5
 10
-55.43285500000001
 20
27.932009
 30
0.0
 11
-55.43285200000001
 21
27.147991
 31
0.0
  0
LINE
  5
6E4
  8
DETAIL
  6
CONTINUOUS
 62
     5
 10
-55.139661
 20
26.722991
 30
0.0
 11
-55.23862200000002
 21
26.801021
 31
0.0
  0
LINE
  5
6E5
  8
DETAIL
  6
CONTINUOUS
 62
     5
 10
-55.23862200000002
 20
26.801021
 30
0.0
 11
-55.33153400000003
 21
26.901833
 31
0.0
  0
LINE
  5
6E6
  8
DETAIL
  6
CONTINUOUS
 62
     5
 10
-55.33153400000003
 20
26.901833
 30
0.0
 11
-55.40465900000002
 21
27.021059
 31
0.0
  0
LINE
  5
6E7
  8
DETAIL
  6
CONTINUOUS
 62
     5
 10
-55.40465900000002
 20
27.021059
 30
0.0
 11
-55.43285200000001
 21
27.147991
 31
0.0
  0
LINE
  5
6E8
  8
DETAIL
  6
CONTINUOUS
 62
     5
 10
-55.052112
 20
26.68899099999999
 30
0.0
 11
-55.139661
 21
26.722991
 31
0.0
  0
LINE
  5
6E9
  8
DETAIL
  6
CONTINUOUS
 62
     5
 10
-54.99272900000001
 20
28.706889
 30
0.0
 11
-55.01889799999999
 21
28.605406
 31
0.0
  0
LINE
  5
6EA
  8
DETAIL
  6
CONTINUOUS
 62
     5
 10
-55.33153400000003
 20
8.541833
 30
0.0
 11
-55.40465900000002
 21
8.661059
 31
0.0
  0
LINE
  5
6EB
  8
DETAIL
  6
CONTINUOUS
 62
     5
 10
-54.99272900000001
 20
37.88688899999999
 30
0.0
 11
-54.99272900000001
 21
45.048991
 31
0.0
  0
LINE
  5
6EC
  8
DETAIL
  6
CONTINUOUS
 62
     5
 10
-55.40465900000002
 20
8.661059
 30
0.0
 11
-55.43285200000001
 21
8.787991
 31
0.0
  0
LINE
  5
6ED
  8
DETAIL
  6
CONTINUOUS
 62
     5
 10
-55.052112
 20
8.328991
 30
0.0
 11
-55.139661
 21
8.362991
 31
0.0
  0
LINE
  5
6EE
  8
DETAIL
  6
CONTINUOUS
 62
     5
 10
-54.99272900000001
 20
10.34688899999999
 30
0.0
 11
-55.01889799999999
 21
10.24540599999999
 31
0.0
  0
LINE
  5
6EF
  8
DETAIL
  6
CONTINUOUS
 62
     5
 10
-55.43285500000001
 20
37.112009
 30
0.0
 11
-55.398561
 21
37.27858799999999
 31
0.0
  0
LINE
  5
6F0
  8
DETAIL
  6
CONTINUOUS
 62
     5
 10
-55.398561
 20
37.27858799999999
 30
0.0
 11
-55.31273600000002
 21
37.435393
 31
0.0
  0
LINE
  5
6F1
  8
DETAIL
  6
CONTINUOUS
 62
     5
 10
-55.31273600000002
 20
37.435393
 30
0.0
 11
-55.20298100000002
 21
37.577086
 31
0.0
  0
LINE
  5
6F2
  8
DETAIL
  6
CONTINUOUS
 62
     5
 10
-55.20298100000002
 20
37.577086
 30
0.0
 11
-55.09077100000001
 21
37.694403
 31
0.0
  0
LINE
  5
6F3
  8
DETAIL
  6
CONTINUOUS
 62
     5
 10
-54.99272900000001
 20
37.88688899999999
 30
0.0
 11
-55.01889799999999
 21
37.785406
 31
0.0
  0
LINE
  5
6F4
  8
DETAIL
  6
CONTINUOUS
 62
     5
 10
-55.01889799999999
 20
37.785406
 30
0.0
 11
-55.090743
 21
37.694403
 31
0.0
  0
LINE
  5
6F5
  8
DETAIL
  6
CONTINUOUS
 62
     5
 10
-55.43285500000001
 20
37.112009
 30
0.0
 11
-55.43285200000001
 21
36.32799099999999
 31
0.0
  0
LINE
  5
6F6
  8
DETAIL
  6
CONTINUOUS
 62
     5
 10
-55.139661
 20
35.902991
 30
0.0
 11
-55.23862200000002
 21
35.981021
 31
0.0
  0
LINE
  5
6F7
  8
DETAIL
  6
CONTINUOUS
 62
     5
 10
-55.23862200000002
 20
35.981021
 30
0.0
 11
-55.33153400000003
 21
36.081833
 31
0.0
  0
LINE
  5
6F8
  8
DETAIL
  6
CONTINUOUS
 62
     5
 10
-55.33153400000003
 20
36.081833
 30
0.0
 11
-55.40465900000002
 21
36.201059
 31
0.0
  0
LINE
  5
6F9
  8
DETAIL
  6
CONTINUOUS
 62
     5
 10
-55.40465900000002
 20
36.201059
 30
0.0
 11
-55.43285200000001
 21
36.32799099999999
 31
0.0
  0
LINE
  5
6FA
  8
DETAIL
  6
CONTINUOUS
 62
     5
 10
-55.052112
 20
35.86899099999998
 30
0.0
 11
-55.139661
 21
35.902991
 31
0.0
  0
LINE
  5
6FB
  8
DETAIL
  6
CONTINUOUS
 62
     5
 10
55.37774499999998
 20
28.396831
 30
0.0
 11
55.48752599999999
 21
28.25502699999999
 31
0.0
  0
LINE
  5
6FC
  8
DETAIL
  6
CONTINUOUS
 62
     5
 10
-14.41712900000001
 20
55.055191
 30
0.0
 11
-49.02572900000001
 21
55.055191
 31
0.0
  0
LINE
  5
6FD
  8
DETAIL
  6
CONTINUOUS
 62
     5
 10
55.48752599999999
 20
28.25502699999999
 30
0.0
 11
55.57321499999997
 21
28.098308
 31
0.0
  0
ARC
  5
6FE
  8
DETAIL
  6
CONTINUOUS
 62
     5
 10
-49.02572900000001
 20
-49.13780899999999
 30
0.0
 40
5.966999999999999
 50
180.0
 51
270.0
  0
ARC
  5
6FF
  8
DETAIL
  6
CONTINUOUS
 62
     5
 10
-49.02572900000001
 20
-49.13780899999999
 30
0.0
 40
5.507999999999999
 50
180.0
 51
270.0
  0
ARC
  5
700
  8
DETAIL
  6
CONTINUOUS
 62
     5
 10
49.20027099999999
 20
-49.13780899999999
 30
0.0
 40
5.507999999999999
 50
270.0
 51
0.0
  0
ARC
  5
701
  8
DETAIL
  6
CONTINUOUS
 62
     5
 10
49.20027099999999
 20
49.08819099999998
 30
0.0
 40
5.507999999999999
 50
0.0
 51
90.0
  0
ARC
  5
702
  8
DETAIL
  6
CONTINUOUS
 62
     5
 10
-49.02572900000001
 20
49.08819099999998
 30
0.0
 40
5.507999999999999
 50
90.0
 51
180.0
  0
LINE
  5
703
  8
DETAIL
  6
CONTINUOUS
 62
     5
 10
54.25922499999999
 20
52.251677
 30
0.0
 11
54.51505699999998
 21
51.800424
 31
0.0
  0
LINE
  5
704
  8
DETAIL
  6
CONTINUOUS
 62
     5
 10
53.93370399999998
 20
52.720826
 30
0.0
 11
54.25922499999999
 21
52.251677
 31
0.0
  0
LINE
  5
705
  8
DETAIL
  6
CONTINUOUS
 62
     5
 10
53.52268599999999
 20
53.20177799999999
 30
0.0
 11
53.93370399999998
 21
52.720826
 31
0.0
  0
LINE
  5
706
  8
DETAIL
  6
CONTINUOUS
 62
     5
 10
52.95769799999999
 20
53.718035
 30
0.0
 11
52.93082299999999
 21
53.744914
 31
0.0
  0
LINE
  5
707
  8
DETAIL
  6
CONTINUOUS
 62
     5
 10
53.01424699999999
 20
53.67690699999999
 30
0.0
 11
53.52268599999999
 21
53.20177799999999
 31
0.0
  0
LINE
  5
708
  8
DETAIL
  6
CONTINUOUS
 62
     5
 10
52.39305799999999
 20
54.128692
 30
0.0
 11
53.01424699999999
 21
53.67690699999999
 31
0.0
  0
LINE
  5
709
  8
DETAIL
  6
CONTINUOUS
 62
     5
 10
53.01424899999999
 20
-53.726525
 30
0.0
 11
52.39306099999999
 21
-54.178309
 31
0.0
  0
LINE
  5
70A
  8
DETAIL
  6
CONTINUOUS
 62
     5
 10
53.80983499999999
 20
-52.91538899999999
 30
0.0
 11
53.85754699999999
 21
-52.86767
 31
0.0
  0
LINE
  5
70B
  8
DETAIL
  6
CONTINUOUS
 62
     5
 10
53.52268799999999
 20
-53.25139499999998
 30
0.0
 11
53.01424899999999
 21
-53.726525
 31
0.0
  0
LINE
  5
70C
  8
DETAIL
  6
CONTINUOUS
 62
     5
 10
53.93370499999997
 20
-52.770443
 30
0.0
 11
53.52268799999999
 21
-53.25139499999998
 31
0.0
  0
LINE
  5
70D
  8
DETAIL
  6
CONTINUOUS
 62
     5
 10
54.86855199999999
 20
50.95205700000001
 30
0.0
 11
54.983027
 21
50.55822
 31
0.0
  0
LINE
  5
70E
  8
DETAIL
  6
CONTINUOUS
 62
     5
 10
54.71476999999999
 20
51.36753200000001
 30
0.0
 11
54.86855199999999
 21
50.95205700000001
 31
0.0
  0
LINE
  5
70F
  8
DETAIL
  6
CONTINUOUS
 62
     5
 10
54.51505699999998
 20
51.800424
 30
0.0
 11
54.71476999999999
 21
51.36753200000001
 31
0.0
  0
LINE
  5
710
  8
DETAIL
  6
CONTINUOUS
 62
     5
 10
55.19342799999997
 20
46.96542899999999
 30
0.0
 11
55.16727099999999
 21
47.066889
 31
0.0
  0
LINE
  5
711
  8
DETAIL
  6
CONTINUOUS
 62
     5
 10
55.26528199999998
 20
46.874403
 30
0.0
 11
55.19342799999997
 21
46.96542899999999
 31
0.0
  0
LINE
  5
712
  8
DETAIL
  6
CONTINUOUS
 62
     5
 10
55.57321499999997
 20
46.458308
 30
0.0
 11
55.60739699999998
 21
46.29200899999999
 31
0.0
  0
LINE
  5
713
  8
DETAIL
  6
CONTINUOUS
 62
     5
 10
55.48752599999999
 20
46.61502699999999
 30
0.0
 11
55.57321499999997
 21
46.458308
 31
0.0
  0
LINE
  5
714
  8
DETAIL
  6
CONTINUOUS
 62
     5
 10
55.37774499999998
 20
46.75683099999999
 30
0.0
 11
55.48752599999999
 21
46.61502699999999
 31
0.0
  0
LINE
  5
715
  8
DETAIL
  6
CONTINUOUS
 62
     5
 10
55.26531299999998
 20
46.874403
 30
0.0
 11
55.37774499999998
 21
46.75683099999999
 31
0.0
  0
LINE
  5
716
  8
DETAIL
  6
CONTINUOUS
 62
     5
 10
51.63873599999999
 20
-54.583781
 30
0.0
 11
50.73474999999998
 21
-54.90384
 31
0.0
  0
LINE
  5
717
  8
DETAIL
  6
CONTINUOUS
 62
     5
 10
52.39306099999999
 20
-54.178309
 30
0.0
 11
51.63873599999999
 21
-54.583781
 31
0.0
  0
LINE
  5
718
  8
DETAIL
  6
CONTINUOUS
 62
     5
 10
52.93082299999999
 20
-53.79453299999998
 30
0.0
 11
52.95769899999998
 21
-53.767653
 31
0.0
  0
LINE
  5
719
  8
DETAIL
  6
CONTINUOUS
 62
     5
 10
54.25922599999998
 20
-52.301295
 30
0.0
 11
53.93370499999997
 21
-52.770443
 31
0.0
  0
LINE
  5
71A
  8
DETAIL
  6
CONTINUOUS
 62
     5
 10
54.51505699999998
 20
-51.85004199999998
 30
0.0
 11
54.25922599999998
 21
-52.301295
 31
0.0
  0
LINE
  5
71B
  8
DETAIL
  6
CONTINUOUS
 62
     5
 10
54.71476999999999
 20
-51.41715
 30
0.0
 11
54.51505699999998
 21
-51.85004199999998
 31
0.0
  0
LINE
  5
71C
  8
DETAIL
  6
CONTINUOUS
 62
     5
 10
55.02006499999997
 20
-50.453398
 30
0.0
 11
55.02308799999999
 21
-50.42638400000001
 31
0.0
  0
LINE
  5
71D
  8
DETAIL
  6
CONTINUOUS
 62
     5
 10
55.02308799999999
 20
50.37676499999999
 30
0.0
 11
55.02006499999997
 21
50.403779
 31
0.0
  0
LINE
  5
71E
  8
DETAIL
  6
CONTINUOUS
 62
     5
 10
55.11745999999999
 20
49.855309
 30
0.0
 11
55.148839
 21
49.554885
 31
0.0
  0
LINE
  5
71F
  8
DETAIL
  6
CONTINUOUS
 62
     5
 10
55.06407299999999
 20
50.191122
 30
0.0
 11
55.11745999999999
 21
49.855309
 31
0.0
  0
LINE
  5
720
  8
DETAIL
  6
CONTINUOUS
 62
     5
 10
54.983027
 20
50.55822
 30
0.0
 11
55.06407299999999
 21
50.191122
 31
0.0
  0
LINE
  5
721
  8
DETAIL
  6
CONTINUOUS
 62
     5
 10
49.66696399999999
 20
55.03674
 30
0.0
 11
50.73474499999999
 21
54.85422299999999
 31
0.0
  0
LINE
  5
722
  8
DETAIL
  6
CONTINUOUS
 62
     5
 10
55.89119199999999
 20
49.96583600000001
 30
0.0
 11
55.921949
 21
49.627139
 31
0.0
  0
LINE
  5
723
  8
DETAIL
  6
CONTINUOUS
 62
     5
 10
55.83542699999999
 20
50.344893
 30
0.0
 11
55.89119199999999
 21
49.96583600000001
 31
0.0
  0
LINE
  5
724
  8
DETAIL
  6
CONTINUOUS
 62
     5
 10
55.74807099999999
 20
50.759854
 30
0.0
 11
55.83542699999999
 21
50.344893
 31
0.0
  0
LINE
  5
725
  8
DETAIL
  6
CONTINUOUS
 62
     5
 10
55.62237899999997
 20
51.205813
 30
0.0
 11
55.74807099999999
 21
50.759854
 31
0.0
  0
LINE
  5
726
  8
DETAIL
  6
CONTINUOUS
 62
     5
 10
55.45139399999999
 20
51.67729699999998
 30
0.0
 11
55.62237899999997
 21
51.205813
 31
0.0
  0
LINE
  5
727
  8
DETAIL
  6
CONTINUOUS
 62
     5
 10
55.22771699999998
 20
52.16878900000001
 30
0.0
 11
55.45139399999999
 21
51.67729699999998
 31
0.0
  0
LINE
  5
728
  8
DETAIL
  6
CONTINUOUS
 62
     5
 10
54.940039
 20
52.680687
 30
0.0
 11
55.22771699999998
 21
52.16878900000001
 31
0.0
  0
LINE
  5
729
  8
DETAIL
  6
CONTINUOUS
 62
     5
 10
54.572802
 20
53.2127
 30
0.0
 11
54.940039
 21
52.680687
 31
0.0
  0
LINE
  5
72A
  8
DETAIL
  6
CONTINUOUS
 62
     5
 10
54.10743299999999
 20
53.75839599999999
 30
0.0
 11
54.572802
 21
53.2127
 31
0.0
  0
LINE
  5
72B
  8
DETAIL
  6
CONTINUOUS
 62
     5
 10
53.53049599999999
 20
54.297047
 30
0.0
 11
54.10743299999999
 21
53.75839599999999
 31
0.0
  0
LINE
  5
72C
  8
DETAIL
  6
CONTINUOUS
 62
     5
 10
52.82601299999999
 20
54.807176
 30
0.0
 11
53.53049599999999
 21
54.297047
 31
0.0
  0
LINE
  5
72D
  8
DETAIL
  6
CONTINUOUS
 62
     5
 10
51.969955
 20
55.262744
 30
0.0
 11
52.82601299999999
 21
54.807176
 31
0.0
  0
LINE
  5
72E
  8
DETAIL
  6
CONTINUOUS
 62
     5
 10
50.94493599999998
 20
55.617725
 30
0.0
 11
51.969955
 21
55.262744
 31
0.0
  0
LINE
  5
72F
  8
DETAIL
  6
CONTINUOUS
 62
     5
 10
49.73921899999998
 20
55.809867
 30
0.0
 11
50.94493599999998
 21
55.617725
 31
0.0
  0
LINE
  5
730
  8
DETAIL
  6
CONTINUOUS
 62
     5
 10
61.64188799999999
 20
54.46767799999999
 30
0.0
 11
61.68742199999998
 21
53.76441299999999
 31
0.0
  0
LINE
  5
731
  8
DETAIL
  6
CONTINUOUS
 62
     5
 10
61.52213399999999
 20
55.22909300000001
 30
0.0
 11
61.64188799999999
 21
54.46767799999999
 31
0.0
  0
LINE
  5
732
  8
DETAIL
  6
CONTINUOUS
 62
     5
 10
61.30548299999999
 20
56.054473
 30
0.0
 11
61.52213399999999
 21
55.22909300000001
 31
0.0
  0
LINE
  5
733
  8
DETAIL
  6
CONTINUOUS
 62
     5
 10
60.96450499999997
 20
56.93431499999999
 30
0.0
 11
61.30548299999999
 21
56.054473
 31
0.0
  0
LINE
  5
734
  8
DETAIL
  6
CONTINUOUS
 62
     5
 10
60.47983799999999
 20
57.83406899999999
 30
0.0
 11
60.96450499999997
 21
56.93431499999999
 31
0.0
  0
LINE
  5
735
  8
DETAIL
  6
CONTINUOUS
 62
     5
 10
59.83605499999998
 20
58.72346199999999
 30
0.0
 11
60.47983799999999
 21
57.83406899999999
 31
0.0
  0
LINE
  5
736
  8
DETAIL
  6
CONTINUOUS
 62
     5
 10
59.03336399999998
 20
59.55333
 30
0.0
 11
59.83605499999998
 21
58.72346199999999
 31
0.0
  0
LINE
  5
737
  8
DETAIL
  6
CONTINUOUS
 62
     5
 10
58.19842799999998
 20
60.203637
 30
0.0
 11
59.03336399999998
 21
59.55333
 31
0.0
  0
LINE
  5
738
  8
DETAIL
  6
CONTINUOUS
 62
     5
 10
57.38015099999998
 20
60.689864
 30
0.0
 11
58.19842799999998
 21
60.203637
 31
0.0
  0
LINE
  5
739
  8
DETAIL
  6
CONTINUOUS
 62
     5
 10
56.58616199999999
 20
61.045878
 30
0.0
 11
57.38015099999998
 21
60.689864
 31
0.0
  0
LINE
  5
73A
  8
DETAIL
  6
CONTINUOUS
 62
     5
 10
55.83188999999998
 20
61.29260999999999
 30
0.0
 11
56.58616199999999
 21
61.045878
 31
0.0
  0
LINE
  5
73B
  8
DETAIL
  6
CONTINUOUS
 62
     5
 10
55.12885099999999
 20
61.450937
 30
0.0
 11
55.83188999999998
 21
61.29260999999999
 31
0.0
  0
LINE
  5
73C
  8
DETAIL
  6
CONTINUOUS
 62
     5
 10
54.47865099999998
 20
61.54016699999999
 30
0.0
 11
55.12885099999999
 21
61.450937
 31
0.0
  0
LINE
  5
73D
  8
DETAIL
  6
CONTINUOUS
 62
     5
 10
53.87649299999997
 20
61.575342
 30
0.0
 11
54.47865099999998
 21
61.54016699999999
 31
0.0
  0
LINE
  5
73E
  8
DETAIL
  6
CONTINUOUS
 62
     5
 10
53.72007199999999
 20
61.575796
 30
0.0
 11
53.87649299999997
 21
61.575342
 31
0.0
  0
LINE
  5
73F
  8
DETAIL
  6
CONTINUOUS
 62
     5
 10
-53.70195099999999
 20
61.575342
 30
0.0
 11
53.72007199999999
 21
61.575796
 31
0.0
  0
LINE
  5
740
  8
DETAIL
  6
CONTINUOUS
 62
     5
 10
-50.43315700000002
 20
54.875939
 30
0.0
 11
-49.49242200000001
 21
55.03674
 31
0.0
  0
LINE
  5
741
  8
DETAIL
  6
CONTINUOUS
 62
     5
 10
54.86855299999998
 20
-51.001675
 30
0.0
 11
54.71476999999999
 21
-51.41715
 31
0.0
  0
LINE
  5
742
  8
DETAIL
  6
CONTINUOUS
 62
     5
 10
54.983027
 20
-50.607838
 30
0.0
 11
54.86855299999998
 21
-51.001675
 31
0.0
  0
LINE
  5
743
  8
DETAIL
  6
CONTINUOUS
 62
     5
 10
55.06407299999999
 20
-50.24074099999999
 30
0.0
 11
54.983027
 21
-50.607838
 31
0.0
  0
LINE
  5
744
  8
DETAIL
  6
CONTINUOUS
 62
     5
 10
55.11745999999999
 20
-49.90492800000001
 30
0.0
 11
55.06407299999999
 21
-50.24074099999999
 31
0.0
  0
LINE
  5
745
  8
DETAIL
  6
CONTINUOUS
 62
     5
 10
55.148839
 20
-49.604504
 30
0.0
 11
55.11745999999999
 21
-49.90492800000001
 31
0.0
  0
LINE
  5
746
  8
DETAIL
  6
CONTINUOUS
 62
     5
 10
50.94494399999999
 20
-55.66734199999999
 30
0.0
 11
49.73921899999998
 21
-55.859486
 31
0.0
  0
LINE
  5
747
  8
DETAIL
  6
CONTINUOUS
 62
     5
 10
51.96995999999999
 20
-55.31235999999999
 30
0.0
 11
50.94494399999999
 21
-55.66734199999999
 31
0.0
  0
LINE
  5
748
  8
DETAIL
  6
CONTINUOUS
 62
     5
 10
52.82601699999999
 20
-54.85679199999999
 30
0.0
 11
51.96995999999999
 21
-55.31235999999999
 31
0.0
  0
LINE
  5
749
  8
DETAIL
  6
CONTINUOUS
 62
     5
 10
53.53049899999998
 20
-54.34666400000001
 30
0.0
 11
52.82601699999999
 21
-54.85679199999999
 31
0.0
  0
LINE
  5
74A
  8
DETAIL
  6
CONTINUOUS
 62
     5
 10
54.10743399999998
 20
-53.808012
 30
0.0
 11
53.53049899999998
 21
-54.34666400000001
 31
0.0
  0
LINE
  5
74B
  8
DETAIL
  6
CONTINUOUS
 62
     5
 10
54.57280399999998
 20
-53.26231599999999
 30
0.0
 11
54.10743399999998
 21
-53.808012
 31
0.0
  0
LINE
  5
74C
  8
DETAIL
  6
CONTINUOUS
 62
     5
 10
54.94003999999997
 20
-52.73030399999999
 30
0.0
 11
54.57280399999998
 21
-53.26231599999999
 31
0.0
  0
LINE
  5
74D
  8
DETAIL
  6
CONTINUOUS
 62
     5
 10
55.22771799999997
 20
-52.218407
 30
0.0
 11
54.94003999999997
 21
-52.73030399999999
 31
0.0
  0
LINE
  5
74E
  8
DETAIL
  6
CONTINUOUS
 62
     5
 10
55.45139499999998
 20
-51.72691499999999
 30
0.0
 11
55.22771799999997
 21
-52.218407
 31
0.0
  0
LINE
  5
74F
  8
DETAIL
  6
CONTINUOUS
 62
     5
 10
55.62237899999997
 20
-51.255431
 30
0.0
 11
55.45139499999998
 21
-51.72691499999999
 31
0.0
  0
LINE
  5
750
  8
DETAIL
  6
CONTINUOUS
 62
     5
 10
55.74807099999999
 20
-50.809472
 30
0.0
 11
55.62237899999997
 21
-51.255431
 31
0.0
  0
LINE
  5
751
  8
DETAIL
  6
CONTINUOUS
 62
     5
 10
55.83542699999999
 20
-50.394511
 30
0.0
 11
55.74807099999999
 21
-50.809472
 31
0.0
  0
LINE
  5
752
  8
DETAIL
  6
CONTINUOUS
 62
     5
 10
55.89119199999999
 20
-50.01545499999998
 30
0.0
 11
55.83542699999999
 21
-50.394511
 31
0.0
  0
LINE
  5
753
  8
DETAIL
  6
CONTINUOUS
 62
     5
 10
55.921949
 20
-49.676758
 30
0.0
 11
55.89119199999999
 21
-50.01545499999998
 31
0.0
  0
LINE
  5
754
  8
DETAIL
  6
CONTINUOUS
 62
     5
 10
54.47517799999998
 20
-61.590118
 30
0.0
 11
53.87649299999997
 21
-61.624961
 31
0.0
  0
LINE
  5
755
  8
DETAIL
  6
CONTINUOUS
 62
     5
 10
55.12127599999999
 20
-61.50190699999999
 30
0.0
 11
54.47517799999998
 21
-61.590118
 31
0.0
  0
LINE
  5
756
  8
DETAIL
  6
CONTINUOUS
 62
     5
 10
55.81986999999999
 20
-61.34549699999999
 30
0.0
 11
55.12127599999999
 21
-61.50190699999999
 31
0.0
  0
LINE
  5
757
  8
DETAIL
  6
CONTINUOUS
 62
     5
 10
56.56980699999999
 20
-61.10175
 30
0.0
 11
55.81986999999999
 21
-61.34549699999999
 31
0.0
  0
LINE
  5
758
  8
DETAIL
  6
CONTINUOUS
 62
     5
 10
57.36113099999999
 20
-60.749271
 30
0.0
 11
56.56980699999999
 21
-61.10175
 31
0.0
  0
LINE
  5
759
  8
DETAIL
  6
CONTINUOUS
 62
     5
 10
58.18247099999999
 20
-60.26404
 30
0.0
 11
57.36113099999999
 21
-60.749271
 31
0.0
  0
LINE
  5
75A
  8
DETAIL
  6
CONTINUOUS
 62
     5
 10
59.03018099999998
 20
-59.605786
 30
0.0
 11
58.18247099999999
 21
-60.26404
 31
0.0
  0
LINE
  5
75B
  8
DETAIL
  6
CONTINUOUS
 62
     5
 10
59.850423
 20
-58.75580600000001
 30
0.0
 11
59.03018099999998
 21
-59.605786
 31
0.0
  0
LINE
  5
75C
  8
DETAIL
  6
CONTINUOUS
 62
     5
 10
60.49681699999999
 20
-57.85636499999999
 30
0.0
 11
59.850423
 21
-58.75580600000001
 31
0.0
  0
LINE
  5
75D
  8
DETAIL
  6
CONTINUOUS
 62
     5
 10
60.97597799999998
 20
-56.958778
 30
0.0
 11
60.49681699999999
 21
-57.85636499999999
 31
0.0
  0
LINE
  5
75E
  8
DETAIL
  6
CONTINUOUS
 62
     5
 10
61.31058099999998
 20
-56.088126
 30
0.0
 11
60.97597799999998
 21
-56.958778
 31
0.0
  0
LINE
  5
75F
  8
DETAIL
  6
CONTINUOUS
 62
     5
 10
61.52389299999999
 20
-55.27016500000001
 30
0.0
 11
61.31058099999998
 21
-56.088126
 31
0.0
  0
LINE
  5
760
  8
DETAIL
  6
CONTINUOUS
 62
     5
 10
61.64232099999999
 20
-54.51331299999999
 30
0.0
 11
61.52389299999999
 21
-55.27016500000001
 31
0.0
  0
LINE
  5
761
  8
DETAIL
  6
CONTINUOUS
 62
     5
 10
61.68742199999998
 20
-53.814032
 30
0.0
 11
61.64232099999999
 21
-54.51331299999999
 31
0.0
  0
LINE
  5
762
  8
DETAIL
  6
CONTINUOUS
 62
     5
 10
61.68787599999999
 20
-53.65761
 30
0.0
 11
61.68742199999998
 21
-53.814032
 31
0.0
  0
LINE
  5
763
  8
DETAIL
  6
CONTINUOUS
 62
     5
 10
61.68742199999998
 20
53.76441299999999
 30
0.0
 11
61.68787599999999
 21
-53.65761
 31
0.0
  0
LINE
  5
764
  8
DETAIL
  6
CONTINUOUS
 62
     5
 10
49.47067899999999
 20
55.825867
 30
0.0
 11
49.73921899999998
 21
55.80986899999999
 31
0.0
  0
LINE
  5
765
  8
DETAIL
  6
CONTINUOUS
 62
     5
 10
49.20027299999999
 20
55.83125299999999
 30
0.0
 11
49.47067899999999
 21
55.825867
 31
0.0
  0
LINE
  5
766
  8
DETAIL
  6
CONTINUOUS
 62
     5
 10
49.43432999999999
 20
55.05055099999999
 30
0.0
 11
49.66696599999999
 21
55.03675900000001
 31
0.0
  0
LINE
  5
767
  8
DETAIL
  6
CONTINUOUS
 62
     5
 10
49.20027099999999
 20
55.05519
 30
0.0
 11
49.43432999999999
 21
55.05055099999999
 31
0.0
  0
LINE
  5
768
  8
DETAIL
  6
CONTINUOUS
 62
     5
 10
-49.02573100000001
 20
55.83125299999999
 30
0.0
 11
49.20027299999999
 21
55.83125299999999
 31
0.0
  0
LINE
  5
769
  8
DETAIL
  6
CONTINUOUS
 62
     5
 10
13.12287099999999
 20
55.055191
 30
0.0
 11
-12.94832900000001
 21
55.055191
 31
0.0
  0
LINE
  5
76A
  8
DETAIL
  6
CONTINUOUS
 62
     5
 10
49.20027099999999
 20
55.055191
 30
0.0
 11
14.59167099999999
 21
55.055191
 31
0.0
  0
LINE
  5
76B
  8
DETAIL
  6
CONTINUOUS
 62
     5
 10
-14.41712900000001
 20
54.59619100000001
 30
0.0
 11
-49.02572900000001
 21
54.59619100000001
 31
0.0
  0
LINE
  5
76C
  8
DETAIL
  6
CONTINUOUS
 62
     5
 10
13.12287099999999
 20
54.59619100000001
 30
0.0
 11
-12.94832900000001
 21
54.59619100000001
 31
0.0
  0
LINE
  5
76D
  8
DETAIL
  6
CONTINUOUS
 62
     5
 10
49.20027099999999
 20
54.59619100000001
 30
0.0
 11
14.59167099999999
 21
54.59619100000001
 31
0.0
  0
LINE
  5
76E
  8
DETAIL
  6
CONTINUOUS
 62
     5
 10
-49.259787
 20
55.05055099999999
 30
0.0
 11
-49.02572900000001
 21
55.05519
 31
0.0
  0
LINE
  5
76F
  8
DETAIL
  6
CONTINUOUS
 62
     5
 10
-49.49242400000001
 20
55.03675900000001
 30
0.0
 11
-49.259787
 21
55.05055099999999
 31
0.0
  0
LINE
  5
770
  8
DETAIL
  6
CONTINUOUS
 62
     5
 10
-49.29613500000001
 20
55.825867
 30
0.0
 11
-49.02573100000001
 21
55.83125299999999
 31
0.0
  0
LINE
  5
771
  8
DETAIL
  6
CONTINUOUS
 62
     5
 10
-49.564677
 20
55.80986899999999
 30
0.0
 11
-49.29613500000001
 21
55.825867
 31
0.0
  0
LINE
  5
772
  8
DETAIL
  6
CONTINUOUS
 62
     5
 10
55.93794899999999
 20
-49.408177
 30
0.0
 11
55.921949
 21
-49.676758
 31
0.0
  0
LINE
  5
773
  8
DETAIL
  6
CONTINUOUS
 62
     5
 10
55.94333399999999
 20
-49.13781199999998
 30
0.0
 11
55.93794899999999
 21
-49.408177
 31
0.0
  0
LINE
  5
774
  8
DETAIL
  6
CONTINUOUS
 62
     5
 10
55.16263199999999
 20
-49.371834
 30
0.0
 11
55.14883799999998
 21
-49.604504
 31
0.0
  0
LINE
  5
775
  8
DETAIL
  6
CONTINUOUS
 62
     5
 10
55.16727099999999
 20
-49.13780899999999
 30
0.0
 11
55.16263199999999
 21
-49.371834
 31
0.0
  0
LINE
  5
776
  8
DETAIL
  6
CONTINUOUS
 62
     5
 10
55.94333399999999
 20
49.088193
 30
0.0
 11
55.94333399999999
 21
-49.13781199999998
 31
0.0
  0
LINE
  5
777
  8
DETAIL
  6
CONTINUOUS
 62
     5
 10
55.60739399999999
 20
45.50799099999998
 30
0.0
 11
55.60739699999998
 21
46.29200899999999
 31
0.0
  0
LINE
  5
778
  8
DETAIL
  6
CONTINUOUS
 62
     5
 10
55.16727099999999
 20
45.048991
 30
0.0
 11
55.16727099999999
 21
37.88688899999999
 31
0.0
  0
LINE
  5
779
  8
DETAIL
  6
CONTINUOUS
 62
     5
 10
55.16727099999999
 20
49.08819099999998
 30
0.0
 11
55.16727099999999
 21
47.066889
 31
0.0
  0
LINE
  5
77A
  8
DETAIL
  6
CONTINUOUS
 62
     5
 10
54.70827099999999
 20
47.343496
 30
0.0
 11
54.70827099999999
 21
49.08819099999998
 31
0.0
  0
LINE
  5
77B
  8
DETAIL
  6
CONTINUOUS
 62
     5
 10
54.70827099999999
 20
38.163496
 30
0.0
 11
54.70827099999999
 21
45.048991
 31
0.0
  0
LINE
  5
77C
  8
DETAIL
  6
CONTINUOUS
 62
     5
 10
54.70827099999999
 20
28.98349599999999
 30
0.0
 11
54.70827099999999
 21
35.86899099999998
 31
0.0
  0
LINE
  5
77D
  8
DETAIL
  6
CONTINUOUS
 62
     5
 10
54.70827099999999
 20
19.803496
 30
0.0
 11
54.70827099999999
 21
26.68899099999999
 31
0.0
  0
LINE
  5
77E
  8
DETAIL
  6
CONTINUOUS
 62
     5
 10
54.70827099999999
 20
10.62349599999999
 30
0.0
 11
54.70827099999999
 21
17.508991
 31
0.0
  0
LINE
  5
77F
  8
DETAIL
  6
CONTINUOUS
 62
     5
 10
54.70827099999999
 20
1.443495999999998
 30
0.0
 11
54.70827099999999
 21
8.328991
 31
0.0
  0
LINE
  5
780
  8
DETAIL
  6
CONTINUOUS
 62
     5
 10
54.70827099999999
 20
-7.736503999999998
 30
0.0
 11
54.70827099999999
 21
-0.8510089999999998
 31
0.0
  0
LINE
  5
781
  8
DETAIL
  6
CONTINUOUS
 62
     5
 10
54.70827099999999
 20
-16.916504
 30
0.0
 11
54.70827099999999
 21
-10.03100899999999
 31
0.0
  0
LINE
  5
782
  8
DETAIL
  6
CONTINUOUS
 62
     5
 10
54.70827099999999
 20
-26.096504
 30
0.0
 11
54.70827099999999
 21
-19.211009
 31
0.0
  0
LINE
  5
783
  8
DETAIL
  6
CONTINUOUS
 62
     5
 10
54.70827099999999
 20
-35.27650399999998
 30
0.0
 11
54.70827099999999
 21
-28.391009
 31
0.0
  0
LINE
  5
784
  8
DETAIL
  6
CONTINUOUS
 62
     5
 10
54.70827099999999
 20
-44.45650399999999
 30
0.0
 11
54.70827099999999
 21
-37.57100899999999
 31
0.0
  0
LINE
  5
785
  8
DETAIL
  6
CONTINUOUS
 62
     5
 10
54.70827099999999
 20
-49.13780899999999
 30
0.0
 11
54.70827099999999
 21
-46.751009
 31
0.0
  0
LINE
  5
786
  8
DETAIL
  6
CONTINUOUS
 62
     5
 10
55.16263199999999
 20
49.322209
 30
0.0
 11
55.16727099999999
 21
49.08819099999998
 31
0.0
  0
LINE
  5
787
  8
DETAIL
  6
CONTINUOUS
 62
     5
 10
55.14883799999998
 20
49.554885
 30
0.0
 11
55.16263199999999
 21
49.322209
 31
0.0
  0
LINE
  5
788
  8
DETAIL
  6
CONTINUOUS
 62
     5
 10
55.93794899999999
 20
49.358551
 30
0.0
 11
55.94333399999999
 21
49.088193
 31
0.0
  0
LINE
  5
789
  8
DETAIL
  6
CONTINUOUS
 62
     5
 10
55.921949
 20
49.627139
 30
0.0
 11
55.93794899999999
 21
49.358551
 31
0.0
  0
LINE
  5
78A
  8
DETAIL
  6
CONTINUOUS
 62
     5
 10
13.17247799999999
 20
55.179575
 30
0.0
 11
13.12287099999999
 21
55.08524300000001
 31
0.0
  0
LINE
  5
78B
  8
DETAIL
  6
CONTINUOUS
 62
     5
 10
13.30835199999999
 20
55.320149
 30
0.0
 11
13.17247799999999
 21
55.179575
 31
0.0
  0
LINE
  5
78C
  8
DETAIL
  6
CONTINUOUS
 62
     5
 10
13.48977099999999
 20
55.446901
 30
0.0
 11
13.30835199999999
 21
55.320149
 31
0.0
  0
LINE
  5
78D
  8
DETAIL
  6
CONTINUOUS
 62
     5
 10
13.89117599999997
 20
55.49353299999999
 30
0.0
 11
13.48977099999999
 21
55.446901
 31
0.0
  0
LINE
  5
78E
  8
DETAIL
  6
CONTINUOUS
 62
     5
 10
14.26375699999997
 20
55.42540999999999
 30
0.0
 11
13.89117599999997
 21
55.49353299999999
 31
0.0
  0
LINE
  5
78F
  8
DETAIL
  6
CONTINUOUS
 62
     5
 10
14.42175999999999
 20
55.306284
 30
0.0
 11
14.26375699999997
 21
55.42540999999999
 31
0.0
  0
LINE
  5
790
  8
DETAIL
  6
CONTINUOUS
 62
     5
 10
14.54257299999999
 20
55.178925
 30
0.0
 11
14.42175999999999
 21
55.306284
 31
0.0
  0
LINE
  5
791
  8
DETAIL
  6
CONTINUOUS
 62
     5
 10
14.20193499999999
 20
45.361289
 30
0.0
 11
13.85727099999999
 21
45.50799099999998
 31
0.0
  0
LINE
  5
792
  8
DETAIL
  6
CONTINUOUS
 62
     5
 10
14.34050499999998
 20
45.23686699999998
 30
0.0
 11
14.20193499999999
 21
45.361289
 31
0.0
  0
LINE
  5
793
  8
DETAIL
  6
CONTINUOUS
 62
     5
 10
14.45437199999999
 20
45.138312
 30
0.0
 11
14.34050499999998
 21
45.23686699999998
 31
0.0
  0
LINE
  5
794
  8
DETAIL
  6
CONTINUOUS
 62
     5
 10
14.53775699999998
 20
45.07278499999999
 30
0.0
 11
14.45437199999999
 21
45.138312
 31
0.0
  0
LINE
  5
795
  8
DETAIL
  6
CONTINUOUS
 62
     5
 10
14.58396699999999
 20
45.048991
 30
0.0
 11
14.53775699999998
 21
45.07278499999999
 31
0.0
  0
LINE
  5
796
  8
DETAIL
  6
CONTINUOUS
 62
     5
 10
14.59167099999999
 20
48.199637
 30
0.0
 11
54.70827099999999
 21
48.199637
 31
0.0
  0
LINE
  5
797
  8
DETAIL
  6
CONTINUOUS
 62
     5
 10
-12.94832900000001
 20
48.199637
 30
0.0
 11
13.12287099999999
 21
48.199637
 31
0.0
  0
LINE
  5
798
  8
DETAIL
  6
CONTINUOUS
 62
     5
 10
-54.53372900000002
 20
48.199637
 30
0.0
 11
-14.41712900000001
 21
48.199637
 31
0.0
  0
LINE
  5
799
  8
DETAIL
  6
CONTINUOUS
 62
     5
 10
-54.53372900000002
 20
47.343496
 30
0.0
 11
-54.99272900000001
 21
47.343496
 31
0.0
  0
LINE
  5
79A
  8
DETAIL
  6
CONTINUOUS
 62
     5
 10
55.16727099999999
 20
47.343496
 30
0.0
 11
54.70827099999999
 21
47.343496
 31
0.0
  0
LINE
  5
79B
  8
DETAIL
  6
CONTINUOUS
 62
     5
 10
-14.38696400000001
 20
46.874403
 30
0.0
 11
-55.09077100000001
 21
46.874403
 31
0.0
  0
LINE
  5
79C
  8
DETAIL
  6
CONTINUOUS
 62
     5
 10
13.15303599999999
 20
46.874403
 30
0.0
 11
-12.978493
 21
46.874403
 31
0.0
  0
LINE
  5
79D
  8
DETAIL
  6
CONTINUOUS
 62
     5
 10
55.26531299999998
 20
46.874403
 30
0.0
 11
14.56150699999999
 21
46.874403
 31
0.0
  0
LINE
  5
79E
  8
DETAIL
  6
CONTINUOUS
 62
     5
 10
55.60739699999998
 20
46.29200899999999
 30
0.0
 11
-55.43285500000001
 21
46.29200899999999
 31
0.0
  0
LINE
  5
79F
  8
DETAIL
  6
CONTINUOUS
 62
     5
 10
55.60739399999999
 20
45.50799099999998
 30
0.0
 11
-55.43285200000001
 21
45.50799099999998
 31
0.0
  0
LINE
  5
7A0
  8
DETAIL
  6
CONTINUOUS
 62
     5
 10
14.59167099999999
 20
55.08524300000001
 30
0.0
 11
14.54257299999999
 21
55.178925
 31
0.0
  0
LINE
  5
7A1
  8
DETAIL
  6
CONTINUOUS
 62
     5
 10
13.15303599999999
 20
46.874403
 30
0.0
 11
13.23133699999999
 21
46.77835
 31
0.0
  0
LINE
  5
7A2
  8
DETAIL
  6
CONTINUOUS
 62
     5
 10
13.49923499999999
 20
46.48077599999999
 30
0.0
 11
13.85727099999999
 21
46.29200899999999
 31
0.0
  0
LINE
  5
7A3
  8
DETAIL
  6
CONTINUOUS
 62
     5
 10
13.34945199999999
 20
46.644847
 30
0.0
 11
13.49923499999999
 21
46.48077599999999
 31
0.0
  0
LINE
  5
7A4
  8
DETAIL
  6
CONTINUOUS
 62
     5
 10
13.23133699999999
 20
46.77835
 30
0.0
 11
13.34945199999999
 21
46.644847
 31
0.0
  0
LINE
  5
7A5
  8
DETAIL
  6
CONTINUOUS
 62
     5
 10
14.20193499999999
 20
36.181289
 30
0.0
 11
13.85727099999999
 21
36.32799099999999
 31
0.0
  0
LINE
  5
7A6
  8
DETAIL
  6
CONTINUOUS
 62
     5
 10
14.34050499999998
 20
36.05686699999999
 30
0.0
 11
14.20193499999999
 21
36.181289
 31
0.0
  0
LINE
  5
7A7
  8
DETAIL
  6
CONTINUOUS
 62
     5
 10
14.45437199999999
 20
35.958312
 30
0.0
 11
14.34050499999998
 21
36.05686699999999
 31
0.0
  0
LINE
  5
7A8
  8
DETAIL
  6
CONTINUOUS
 62
     5
 10
14.53775699999998
 20
35.89278499999998
 30
0.0
 11
14.45437199999999
 21
35.958312
 31
0.0
  0
LINE
  5
7A9
  8
DETAIL
  6
CONTINUOUS
 62
     5
 10
14.58396699999999
 20
35.86899099999998
 30
0.0
 11
14.53775699999998
 21
35.89278499999998
 31
0.0
  0
LINE
  5
7AA
  8
DETAIL
  6
CONTINUOUS
 62
     5
 10
-14.40942500000001
 20
45.048991
 30
0.0
 11
-55.052112
 21
45.048991
 31
0.0
  0
LINE
  5
7AB
  8
DETAIL
  6
CONTINUOUS
 62
     5
 10
13.13057499999999
 20
45.048991
 30
0.0
 11
-12.95603300000001
 21
45.048991
 31
0.0
  0
LINE
  5
7AC
  8
DETAIL
  6
CONTINUOUS
 62
     5
 10
55.22665399999998
 20
45.048991
 30
0.0
 11
14.58396699999999
 21
45.048991
 31
0.0
  0
LINE
  5
7AD
  8
DETAIL
  6
CONTINUOUS
 62
     5
 10
14.59167099999999
 20
39.019637
 30
0.0
 11
54.70827099999999
 21
39.019637
 31
0.0
  0
LINE
  5
7AE
  8
DETAIL
  6
CONTINUOUS
 62
     5
 10
-12.94832900000001
 20
39.019637
 30
0.0
 11
13.12287099999999
 21
39.019637
 31
0.0
  0
LINE
  5
7AF
  8
DETAIL
  6
CONTINUOUS
 62
     5
 10
-54.53372900000002
 20
39.019637
 30
0.0
 11
-14.41712900000001
 21
39.019637
 31
0.0
  0
LINE
  5
7B0
  8
DETAIL
  6
CONTINUOUS
 62
     5
 10
54.70827099999999
 20
38.163496
 30
0.0
 11
55.16727099999999
 21
38.163496
 31
0.0
  0
LINE
  5
7B1
  8
DETAIL
  6
CONTINUOUS
 62
     5
 10
-54.99272900000001
 20
38.163496
 30
0.0
 11
-54.53372900000002
 21
38.163496
 31
0.0
  0
LINE
  5
7B2
  8
DETAIL
  6
CONTINUOUS
 62
     5
 10
13.17555299999999
 20
-46.728075
 30
0.0
 11
13.13057499999999
 21
-46.751009
 31
0.0
  0
LINE
  5
7B3
  8
DETAIL
  6
CONTINUOUS
 62
     5
 10
13.25799899999999
 20
-46.663502
 30
0.0
 11
13.17555299999999
 21
-46.728075
 31
0.0
  0
LINE
  5
7B4
  8
DETAIL
  6
CONTINUOUS
 62
     5
 10
13.37206199999999
 20
-46.56488099999999
 30
0.0
 11
13.25799899999999
 21
-46.663502
 31
0.0
  0
LINE
  5
7B5
  8
DETAIL
  6
CONTINUOUS
 62
     5
 10
13.51269399999999
 20
-46.438632
 30
0.0
 11
13.37206199999999
 21
-46.56488099999999
 31
0.0
  0
LINE
  5
7B6
  8
DETAIL
  6
CONTINUOUS
 62
     5
 10
13.85727099999999
 20
-46.29200899999999
 30
0.0
 11
13.51269399999999
 21
-46.438632
 31
0.0
  0
LINE
  5
7B7
  8
DETAIL
  6
CONTINUOUS
 62
     5
 10
14.48193999999999
 20
-45.023122
 30
0.0
 11
14.56150699999999
 21
-44.925597
 31
0.0
  0
LINE
  5
7B8
  8
DETAIL
  6
CONTINUOUS
 62
     5
 10
14.36327899999999
 20
-45.157161
 30
0.0
 11
14.48193999999999
 21
-45.023122
 31
0.0
  0
LINE
  5
7B9
  8
DETAIL
  6
CONTINUOUS
 62
     5
 10
14.21500499999999
 20
-45.319552
 30
0.0
 11
14.36327899999999
 21
-45.157161
 31
0.0
  0
LINE
  5
7BA
  8
DETAIL
  6
CONTINUOUS
 62
     5
 10
13.85727099999999
 20
-45.50799099999998
 30
0.0
 11
14.21500499999999
 21
-45.319552
 31
0.0
  0
LINE
  5
7BB
  8
DETAIL
  6
CONTINUOUS
 62
     5
 10
55.31407299999998
 20
45.082908
 30
0.0
 11
55.22665399999998
 21
45.048991
 31
0.0
  0
LINE
  5
7BC
  8
DETAIL
  6
CONTINUOUS
 62
     5
 10
55.41290399999998
 20
45.16077899999999
 30
0.0
 11
55.31407299999998
 21
45.082908
 31
0.0
  0
LINE
  5
7BD
  8
DETAIL
  6
CONTINUOUS
 62
     5
 10
55.50579
 20
45.26146699999999
 30
0.0
 11
55.41290399999998
 21
45.16077899999999
 31
0.0
  0
LINE
  5
7BE
  8
DETAIL
  6
CONTINUOUS
 62
     5
 10
55.57904299999998
 20
45.380695
 30
0.0
 11
55.50579
 21
45.26146699999999
 31
0.0
  0
LINE
  5
7BF
  8
DETAIL
  6
CONTINUOUS
 62
     5
 10
55.60739399999999
 20
45.50799099999998
 30
0.0
 11
55.57904299999998
 21
45.380695
 31
0.0
  0
LINE
  5
7C0
  8
DETAIL
  6
CONTINUOUS
 62
     5
 10
13.13087999999999
 20
46.91459499999999
 30
0.0
 11
13.12287099999999
 21
46.95823299999999
 31
0.0
  0
LINE
  5
7C1
  8
DETAIL
  6
CONTINUOUS
 62
     5
 10
13.15303599999999
 20
46.874403
 30
0.0
 11
13.13087999999999
 21
46.91459499999999
 31
0.0
  0
LINE
  5
7C2
  8
DETAIL
  6
CONTINUOUS
 62
     5
 10
13.15303599999999
 20
37.694403
 30
0.0
 11
13.23133699999999
 21
37.59835
 31
0.0
  0
LINE
  5
7C3
  8
DETAIL
  6
CONTINUOUS
 62
     5
 10
13.49923499999999
 20
37.30077599999999
 30
0.0
 11
13.85727099999999
 21
37.112009
 31
0.0
  0
LINE
  5
7C4
  8
DETAIL
  6
CONTINUOUS
 62
     5
 10
13.34945199999999
 20
37.46484699999999
 30
0.0
 11
13.49923499999999
 21
37.30077599999999
 31
0.0
  0
LINE
  5
7C5
  8
DETAIL
  6
CONTINUOUS
 62
     5
 10
13.23133699999999
 20
37.59835
 30
0.0
 11
13.34945199999999
 21
37.46484699999999
 31
0.0
  0
LINE
  5
7C6
  8
DETAIL
  6
CONTINUOUS
 62
     5
 10
-13.33877500000001
 20
45.361932
 30
0.0
 11
-13.68272900000001
 21
45.50799099999998
 31
0.0
  0
LINE
  5
7C7
  8
DETAIL
  6
CONTINUOUS
 62
     5
 10
-13.19798500000001
 20
45.23552999999998
 30
0.0
 11
-13.33877500000001
 21
45.361932
 31
0.0
  0
LINE
  5
7C8
  8
DETAIL
  6
CONTINUOUS
 62
     5
 10
-13.083729
 20
45.136726
 30
0.0
 11
-13.19798500000001
 21
45.23552999999998
 31
0.0
  0
LINE
  5
7C9
  8
DETAIL
  6
CONTINUOUS
 62
     5
 10
-13.00142800000001
 20
45.07221499999999
 30
0.0
 11
-13.083729
 21
45.136726
 31
0.0
  0
LINE
  5
7CA
  8
DETAIL
  6
CONTINUOUS
 62
     5
 10
-12.95603300000001
 20
45.048991
 30
0.0
 11
-13.00142800000001
 21
45.07221499999999
 31
0.0
  0
LINE
  5
7CB
  8
DETAIL
  6
CONTINUOUS
 62
     5
 10
-14.38696400000001
 20
37.694403
 30
0.0
 11
-55.090743
 21
37.694403
 31
0.0
  0
LINE
  5
7CC
  8
DETAIL
  6
CONTINUOUS
 62
     5
 10
13.15303599999999
 20
37.694403
 30
0.0
 11
-12.978493
 21
37.694403
 31
0.0
  0
LINE
  5
7CD
  8
DETAIL
  6
CONTINUOUS
 62
     5
 10
55.26528199999998
 20
37.694403
 30
0.0
 11
14.56150699999999
 21
37.694403
 31
0.0
  0
LINE
  5
7CE
  8
DETAIL
  6
CONTINUOUS
 62
     5
 10
55.60739699999998
 20
37.112009
 30
0.0
 11
-55.43285500000001
 21
37.112009
 31
0.0
  0
LINE
  5
7CF
  8
DETAIL
  6
CONTINUOUS
 62
     5
 10
55.60739399999999
 20
36.32799099999999
 30
0.0
 11
-55.43285200000001
 21
36.32799099999999
 31
0.0
  0
LINE
  5
7D0
  8
DETAIL
  6
CONTINUOUS
 62
     5
 10
-14.40942500000001
 20
35.86899099999998
 30
0.0
 11
-55.052112
 21
35.86899099999998
 31
0.0
  0
LINE
  5
7D1
  8
DETAIL
  6
CONTINUOUS
 62
     5
 10
13.13057499999999
 20
35.86899099999998
 30
0.0
 11
-12.95603300000001
 21
35.86899099999998
 31
0.0
  0
LINE
  5
7D2
  8
DETAIL
  6
CONTINUOUS
 62
     5
 10
55.22665399999998
 20
35.86899099999998
 30
0.0
 11
14.58396699999999
 21
35.86899099999998
 31
0.0
  0
LINE
  5
7D3
  8
DETAIL
  6
CONTINUOUS
 62
     5
 10
13.17555299999999
 20
-37.548075
 30
0.0
 11
13.13057499999999
 21
-37.57100899999999
 31
0.0
  0
LINE
  5
7D4
  8
DETAIL
  6
CONTINUOUS
 62
     5
 10
13.25799899999999
 20
-37.483502
 30
0.0
 11
13.17555299999999
 21
-37.548075
 31
0.0
  0
LINE
  5
7D5
  8
DETAIL
  6
CONTINUOUS
 62
     5
 10
13.37206199999999
 20
-37.384881
 30
0.0
 11
13.25799899999999
 21
-37.483502
 31
0.0
  0
LINE
  5
7D6
  8
DETAIL
  6
CONTINUOUS
 62
     5
 10
13.51269399999999
 20
-37.258632
 30
0.0
 11
13.37206199999999
 21
-37.384881
 31
0.0
  0
LINE
  5
7D7
  8
DETAIL
  6
CONTINUOUS
 62
     5
 10
13.85727099999999
 20
-37.112009
 30
0.0
 11
13.51269399999999
 21
-37.258632
 31
0.0
  0
LINE
  5
7D8
  8
DETAIL
  6
CONTINUOUS
 62
     5
 10
14.48193999999999
 20
-35.84312199999999
 30
0.0
 11
14.56150699999999
 21
-35.745597
 31
0.0
  0
LINE
  5
7D9
  8
DETAIL
  6
CONTINUOUS
 62
     5
 10
14.36327899999999
 20
-35.97716099999999
 30
0.0
 11
14.48193999999999
 21
-35.84312199999999
 31
0.0
  0
LINE
  5
7DA
  8
DETAIL
  6
CONTINUOUS
 62
     5
 10
14.21500499999999
 20
-36.139552
 30
0.0
 11
14.36327899999999
 21
-35.97716099999999
 31
0.0
  0
LINE
  5
7DB
  8
DETAIL
  6
CONTINUOUS
 62
     5
 10
13.85727099999999
 20
-36.32799099999999
 30
0.0
 11
14.21500499999999
 21
-36.139552
 31
0.0
  0
LINE
  5
7DC
  8
DETAIL
  6
CONTINUOUS
 62
     5
 10
13.13087999999999
 20
37.73459499999999
 30
0.0
 11
13.12287099999999
 21
37.778233
 31
0.0
  0
LINE
  5
7DD
  8
DETAIL
  6
CONTINUOUS
 62
     5
 10
13.15303599999999
 20
37.694403
 30
0.0
 11
13.13087999999999
 21
37.73459499999999
 31
0.0
  0
LINE
  5
7DE
  8
DETAIL
  6
CONTINUOUS
 62
     5
 10
13.13087999999999
 20
28.554595
 30
0.0
 11
13.12287099999999
 21
28.598233
 31
0.0
  0
LINE
  5
7DF
  8
DETAIL
  6
CONTINUOUS
 62
     5
 10
13.15303599999999
 20
28.514403
 30
0.0
 11
13.13087999999999
 21
28.554595
 31
0.0
  0
LINE
  5
7E0
  8
DETAIL
  6
CONTINUOUS
 62
     5
 10
13.15303599999999
 20
28.514403
 30
0.0
 11
13.23133699999999
 21
28.41835
 31
0.0
  0
LINE
  5
7E1
  8
DETAIL
  6
CONTINUOUS
 62
     5
 10
13.49923499999999
 20
28.120776
 30
0.0
 11
13.85727099999999
 21
27.932009
 31
0.0
  0
LINE
  5
7E2
  8
DETAIL
  6
CONTINUOUS
 62
     5
 10
13.34945199999999
 20
28.28484699999999
 30
0.0
 11
13.49923499999999
 21
28.120776
 31
0.0
  0
LINE
  5
7E3
  8
DETAIL
  6
CONTINUOUS
 62
     5
 10
13.23133699999999
 20
28.41835
 30
0.0
 11
13.34945199999999
 21
28.28484699999999
 31
0.0
  0
LINE
  5
7E4
  8
DETAIL
  6
CONTINUOUS
 62
     5
 10
14.20193499999999
 20
27.001289
 30
0.0
 11
13.85727099999999
 21
27.147991
 31
0.0
  0
LINE
  5
7E5
  8
DETAIL
  6
CONTINUOUS
 62
     5
 10
14.34050499999998
 20
26.87686699999999
 30
0.0
 11
14.20193499999999
 21
27.001289
 31
0.0
  0
LINE
  5
7E6
  8
DETAIL
  6
CONTINUOUS
 62
     5
 10
14.45437199999999
 20
26.77831199999999
 30
0.0
 11
14.34050499999998
 21
26.87686699999999
 31
0.0
  0
LINE
  5
7E7
  8
DETAIL
  6
CONTINUOUS
 62
     5
 10
14.53775699999998
 20
26.71278499999999
 30
0.0
 11
14.45437199999999
 21
26.77831199999999
 31
0.0
  0
LINE
  5
7E8
  8
DETAIL
  6
CONTINUOUS
 62
     5
 10
14.58396699999999
 20
26.68899099999999
 30
0.0
 11
14.53775699999998
 21
26.71278499999999
 31
0.0
  0
LINE
  5
7E9
  8
DETAIL
  6
CONTINUOUS
 62
     5
 10
-13.33877500000001
 20
36.181932
 30
0.0
 11
-13.68272900000001
 21
36.32799099999999
 31
0.0
  0
LINE
  5
7EA
  8
DETAIL
  6
CONTINUOUS
 62
     5
 10
-13.19798500000001
 20
36.05553
 30
0.0
 11
-13.33877500000001
 21
36.181932
 31
0.0
  0
LINE
  5
7EB
  8
DETAIL
  6
CONTINUOUS
 62
     5
 10
-13.083729
 20
35.95672600000001
 30
0.0
 11
-13.19798500000001
 21
36.05553
 31
0.0
  0
LINE
  5
7EC
  8
DETAIL
  6
CONTINUOUS
 62
     5
 10
-13.00142800000001
 20
35.892215
 30
0.0
 11
-13.083729
 21
35.95672600000001
 31
0.0
  0
LINE
  5
7ED
  8
DETAIL
  6
CONTINUOUS
 62
     5
 10
-12.95603300000001
 20
35.86899099999998
 30
0.0
 11
-13.00142800000001
 21
35.892215
 31
0.0
  0
LINE
  5
7EE
  8
DETAIL
  6
CONTINUOUS
 62
     5
 10
14.59167099999999
 20
29.839637
 30
0.0
 11
54.70827099999999
 21
29.839637
 31
0.0
  0
LINE
  5
7EF
  8
DETAIL
  6
CONTINUOUS
 62
     5
 10
-12.94832900000001
 20
29.839637
 30
0.0
 11
13.12287099999999
 21
29.839637
 31
0.0
  0
LINE
  5
7F0
  8
DETAIL
  6
CONTINUOUS
 62
     5
 10
-54.53372900000002
 20
29.839637
 30
0.0
 11
-14.41712900000001
 21
29.839637
 31
0.0
  0
LINE
  5
7F1
  8
DETAIL
  6
CONTINUOUS
 62
     5
 10
54.70827099999999
 20
28.98349599999999
 30
0.0
 11
55.16727099999999
 21
28.98349599999999
 31
0.0
  0
LINE
  5
7F2
  8
DETAIL
  6
CONTINUOUS
 62
     5
 10
-54.99272900000001
 20
28.98349599999999
 30
0.0
 11
-54.53372900000002
 21
28.98349599999999
 31
0.0
  0
LINE
  5
7F3
  8
DETAIL
  6
CONTINUOUS
 62
     5
 10
-14.38696400000001
 20
28.514403
 30
0.0
 11
-55.090743
 21
28.514403
 31
0.0
  0
LINE
  5
7F4
  8
DETAIL
  6
CONTINUOUS
 62
     5
 10
13.15303599999999
 20
28.514403
 30
0.0
 11
-12.978493
 21
28.514403
 31
0.0
  0
LINE
  5
7F5
  8
DETAIL
  6
CONTINUOUS
 62
     5
 10
55.26528199999998
 20
28.514403
 30
0.0
 11
14.56150699999999
 21
28.514403
 31
0.0
  0
LINE
  5
7F6
  8
DETAIL
  6
CONTINUOUS
 62
     5
 10
55.60739699999998
 20
27.932009
 30
0.0
 11
-55.43285500000001
 21
27.932009
 31
0.0
  0
LINE
  5
7F7
  8
DETAIL
  6
CONTINUOUS
 62
     5
 10
55.60739399999999
 20
27.147991
 30
0.0
 11
-55.43285200000001
 21
27.147991
 31
0.0
  0
LINE
  5
7F8
  8
DETAIL
  6
CONTINUOUS
 62
     5
 10
-14.40942500000001
 20
26.68899099999999
 30
0.0
 11
-55.052112
 21
26.68899099999999
 31
0.0
  0
LINE
  5
7F9
  8
DETAIL
  6
CONTINUOUS
 62
     5
 10
13.13057499999999
 20
26.68899099999999
 30
0.0
 11
-12.95603300000001
 21
26.68899099999999
 31
0.0
  0
LINE
  5
7FA
  8
DETAIL
  6
CONTINUOUS
 62
     5
 10
55.22665399999998
 20
26.68899099999999
 30
0.0
 11
14.58396699999999
 21
26.68899099999999
 31
0.0
  0
LINE
  5
7FB
  8
DETAIL
  6
CONTINUOUS
 62
     5
 10
13.17555299999999
 20
-28.368075
 30
0.0
 11
13.13057499999999
 21
-28.391009
 31
0.0
  0
LINE
  5
7FC
  8
DETAIL
  6
CONTINUOUS
 62
     5
 10
13.25799899999999
 20
-28.303502
 30
0.0
 11
13.17555299999999
 21
-28.368075
 31
0.0
  0
LINE
  5
7FD
  8
DETAIL
  6
CONTINUOUS
 62
     5
 10
13.37206199999999
 20
-28.204881
 30
0.0
 11
13.25799899999999
 21
-28.303502
 31
0.0
  0
LINE
  5
7FE
  8
DETAIL
  6
CONTINUOUS
 62
     5
 10
13.51269399999999
 20
-28.07863199999999
 30
0.0
 11
13.37206199999999
 21
-28.204881
 31
0.0
  0
LINE
  5
7FF
  8
DETAIL
  6
CONTINUOUS
 62
     5
 10
13.85727099999999
 20
-27.932009
 30
0.0
 11
13.51269399999999
 21
-28.07863199999999
 31
0.0
  0
LINE
  5
800
  8
DETAIL
  6
CONTINUOUS
 62
     5
 10
-14.363215
 20
-46.727215
 30
0.0
 11
-14.40942500000001
 21
-46.751009
 31
0.0
  0
LINE
  5
801
  8
DETAIL
  6
CONTINUOUS
 62
     5
 10
-14.27983000000001
 20
-46.661688
 30
0.0
 11
-14.363215
 21
-46.727215
 31
0.0
  0
LINE
  5
802
  8
DETAIL
  6
CONTINUOUS
 62
     5
 10
-14.165963
 20
-46.56313299999999
 30
0.0
 11
-14.27983000000001
 21
-46.661688
 31
0.0
  0
LINE
  5
803
  8
DETAIL
  6
CONTINUOUS
 62
     5
 10
-14.02739300000001
 20
-46.438711
 30
0.0
 11
-14.165963
 21
-46.56313299999999
 31
0.0
  0
LINE
  5
804
  8
DETAIL
  6
CONTINUOUS
 62
     5
 10
-13.68272900000001
 20
-46.29200899999999
 30
0.0
 11
-14.02739300000001
 21
-46.438711
 31
0.0
  0
LINE
  5
805
  8
DETAIL
  6
CONTINUOUS
 62
     5
 10
13.17555299999999
 20
-19.188075
 30
0.0
 11
13.13057499999999
 21
-19.211009
 31
0.0
  0
LINE
  5
806
  8
DETAIL
  6
CONTINUOUS
 62
     5
 10
13.25799899999999
 20
-19.12350199999999
 30
0.0
 11
13.17555299999999
 21
-19.188075
 31
0.0
  0
LINE
  5
807
  8
DETAIL
  6
CONTINUOUS
 62
     5
 10
13.37206199999999
 20
-19.024881
 30
0.0
 11
13.25799899999999
 21
-19.12350199999999
 31
0.0
  0
LINE
  5
808
  8
DETAIL
  6
CONTINUOUS
 62
     5
 10
13.51269399999999
 20
-18.89863199999998
 30
0.0
 11
13.37206199999999
 21
-19.024881
 31
0.0
  0
LINE
  5
809
  8
DETAIL
  6
CONTINUOUS
 62
     5
 10
13.85727099999999
 20
-18.752009
 30
0.0
 11
13.51269399999999
 21
-18.89863199999998
 31
0.0
  0
LINE
  5
80A
  8
DETAIL
  6
CONTINUOUS
 62
     5
 10
14.48193999999999
 20
-26.663122
 30
0.0
 11
14.56150699999999
 21
-26.56559699999998
 31
0.0
  0
LINE
  5
80B
  8
DETAIL
  6
CONTINUOUS
 62
     5
 10
14.36327899999999
 20
-26.797161
 30
0.0
 11
14.48193999999999
 21
-26.663122
 31
0.0
  0
LINE
  5
80C
  8
DETAIL
  6
CONTINUOUS
 62
     5
 10
14.21500499999999
 20
-26.959552
 30
0.0
 11
14.36327899999999
 21
-26.797161
 31
0.0
  0
LINE
  5
80D
  8
DETAIL
  6
CONTINUOUS
 62
     5
 10
13.85727099999999
 20
-27.147991
 30
0.0
 11
14.21500499999999
 21
-26.959552
 31
0.0
  0
LINE
  5
80E
  8
DETAIL
  6
CONTINUOUS
 62
     5
 10
13.13087999999999
 20
19.374595
 30
0.0
 11
13.12287099999999
 21
19.41823299999998
 31
0.0
  0
LINE
  5
80F
  8
DETAIL
  6
CONTINUOUS
 62
     5
 10
13.15303599999999
 20
19.334403
 30
0.0
 11
13.13087999999999
 21
19.374595
 31
0.0
  0
LINE
  5
810
  8
DETAIL
  6
CONTINUOUS
 62
     5
 10
13.13087999999999
 20
10.19459499999999
 30
0.0
 11
13.12287099999999
 21
10.23823299999999
 31
0.0
  0
LINE
  5
811
  8
DETAIL
  6
CONTINUOUS
 62
     5
 10
13.15303599999999
 20
10.154403
 30
0.0
 11
13.13087999999999
 21
10.19459499999999
 31
0.0
  0
LINE
  5
812
  8
DETAIL
  6
CONTINUOUS
 62
     5
 10
13.15303599999999
 20
19.334403
 30
0.0
 11
13.23133699999999
 21
19.23835
 31
0.0
  0
LINE
  5
813
  8
DETAIL
  6
CONTINUOUS
 62
     5
 10
13.15303599999999
 20
10.154403
 30
0.0
 11
13.23133699999999
 21
10.05835
 31
0.0
  0
LINE
  5
814
  8
DETAIL
  6
CONTINUOUS
 62
     5
 10
-14.38696400000001
 20
46.874403
 30
0.0
 11
-14.30744500000001
 21
46.776933
 31
0.0
  0
LINE
  5
815
  8
DETAIL
  6
CONTINUOUS
 62
     5
 10
13.49923499999999
 20
18.940776
 30
0.0
 11
13.85727099999999
 21
18.752009
 31
0.0
  0
LINE
  5
816
  8
DETAIL
  6
CONTINUOUS
 62
     5
 10
13.34945199999999
 20
19.10484699999998
 30
0.0
 11
13.49923499999999
 21
18.940776
 31
0.0
  0
LINE
  5
817
  8
DETAIL
  6
CONTINUOUS
 62
     5
 10
13.23133699999999
 20
19.23835
 30
0.0
 11
13.34945199999999
 21
19.10484699999998
 31
0.0
  0
LINE
  5
818
  8
DETAIL
  6
CONTINUOUS
 62
     5
 10
13.49923499999999
 20
9.760775999999998
 30
0.0
 11
13.85727099999999
 21
9.572009
 31
0.0
  0
LINE
  5
819
  8
DETAIL
  6
CONTINUOUS
 62
     5
 10
13.34945199999999
 20
9.924847
 30
0.0
 11
13.49923499999999
 21
9.760775999999998
 31
0.0
  0
LINE
  5
81A
  8
DETAIL
  6
CONTINUOUS
 62
     5
 10
13.23133699999999
 20
10.05835
 30
0.0
 11
13.34945199999999
 21
9.924847
 31
0.0
  0
LINE
  5
81B
  8
DETAIL
  6
CONTINUOUS
 62
     5
 10
-14.04053100000001
 20
46.480524
 30
0.0
 11
-13.68272900000001
 21
46.29200899999999
 31
0.0
  0
LINE
  5
81C
  8
DETAIL
  6
CONTINUOUS
 62
     5
 10
-14.188759
 20
46.642864
 30
0.0
 11
-14.04053100000001
 21
46.480524
 31
0.0
  0
LINE
  5
81D
  8
DETAIL
  6
CONTINUOUS
 62
     5
 10
-14.30744500000001
 20
46.776933
 30
0.0
 11
-14.188759
 21
46.642864
 31
0.0
  0
LINE
  5
81E
  8
DETAIL
  6
CONTINUOUS
 62
     5
 10
14.20193499999999
 20
17.821289
 30
0.0
 11
13.85727099999999
 21
17.967991
 31
0.0
  0
LINE
  5
81F
  8
DETAIL
  6
CONTINUOUS
 62
     5
 10
14.34050499999998
 20
17.696867
 30
0.0
 11
14.20193499999999
 21
17.821289
 31
0.0
  0
LINE
  5
820
  8
DETAIL
  6
CONTINUOUS
 62
     5
 10
14.45437199999999
 20
17.59831199999998
 30
0.0
 11
14.34050499999998
 21
17.696867
 31
0.0
  0
LINE
  5
821
  8
DETAIL
  6
CONTINUOUS
 62
     5
 10
14.53775699999998
 20
17.532785
 30
0.0
 11
14.45437199999999
 21
17.59831199999998
 31
0.0
  0
LINE
  5
822
  8
DETAIL
  6
CONTINUOUS
 62
     5
 10
14.58396699999999
 20
17.508991
 30
0.0
 11
14.53775699999998
 21
17.532785
 31
0.0
  0
LINE
  5
823
  8
DETAIL
  6
CONTINUOUS
 62
     5
 10
-13.33877500000001
 20
27.001932
 30
0.0
 11
-13.68272900000001
 21
27.147991
 31
0.0
  0
LINE
  5
824
  8
DETAIL
  6
CONTINUOUS
 62
     5
 10
-13.19798500000001
 20
26.87552999999999
 30
0.0
 11
-13.33877500000001
 21
27.001932
 31
0.0
  0
LINE
  5
825
  8
DETAIL
  6
CONTINUOUS
 62
     5
 10
-13.083729
 20
26.776726
 30
0.0
 11
-13.19798500000001
 21
26.87552999999999
 31
0.0
  0
LINE
  5
826
  8
DETAIL
  6
CONTINUOUS
 62
     5
 10
-13.00142800000001
 20
26.712215
 30
0.0
 11
-13.083729
 21
26.776726
 31
0.0
  0
LINE
  5
827
  8
DETAIL
  6
CONTINUOUS
 62
     5
 10
-12.95603300000001
 20
26.68899099999999
 30
0.0
 11
-13.00142800000001
 21
26.712215
 31
0.0
  0
LINE
  5
828
  8
DETAIL
  6
CONTINUOUS
 62
     5
 10
-55.052112
 20
45.048991
 30
0.0
 11
-55.139661
 21
45.082991
 31
0.0
  0
LINE
  5
829
  8
DETAIL
  6
CONTINUOUS
 62
     5
 10
14.59167099999999
 20
20.659637
 30
0.0
 11
54.70827099999999
 21
20.659637
 31
0.0
  0
LINE
  5
82A
  8
DETAIL
  6
CONTINUOUS
 62
     5
 10
-12.94832900000001
 20
20.659637
 30
0.0
 11
13.12287099999999
 21
20.659637
 31
0.0
  0
LINE
  5
82B
  8
DETAIL
  6
CONTINUOUS
 62
     5
 10
-54.53372900000002
 20
20.659637
 30
0.0
 11
-14.41712900000001
 21
20.659637
 31
0.0
  0
LINE
  5
82C
  8
DETAIL
  6
CONTINUOUS
 62
     5
 10
54.70827099999999
 20
19.803496
 30
0.0
 11
55.16727099999999
 21
19.803496
 31
0.0
  0
LINE
  5
82D
  8
DETAIL
  6
CONTINUOUS
 62
     5
 10
-54.99272900000001
 20
19.803496
 30
0.0
 11
-54.53372900000002
 21
19.803496
 31
0.0
  0
LINE
  5
82E
  8
DETAIL
  6
CONTINUOUS
 62
     5
 10
-14.38696400000001
 20
19.334403
 30
0.0
 11
-55.090743
 21
19.334403
 31
0.0
  0
LINE
  5
82F
  8
DETAIL
  6
CONTINUOUS
 62
     5
 10
13.15303599999999
 20
19.334403
 30
0.0
 11
-12.978493
 21
19.334403
 31
0.0
  0
LINE
  5
830
  8
DETAIL
  6
CONTINUOUS
 62
     5
 10
55.26528199999998
 20
19.334403
 30
0.0
 11
14.56150699999999
 21
19.334403
 31
0.0
  0
LINE
  5
831
  8
DETAIL
  6
CONTINUOUS
 62
     5
 10
55.60739699999998
 20
18.752009
 30
0.0
 11
-55.43285500000001
 21
18.752009
 31
0.0
  0
LINE
  5
832
  8
DETAIL
  6
CONTINUOUS
 62
     5
 10
55.60739399999999
 20
17.967991
 30
0.0
 11
-55.43285200000001
 21
17.967991
 31
0.0
  0
LINE
  5
833
  8
DETAIL
  6
CONTINUOUS
 62
     5
 10
-14.40942500000001
 20
17.508991
 30
0.0
 11
-55.052112
 21
17.508991
 31
0.0
  0
LINE
  5
834
  8
DETAIL
  6
CONTINUOUS
 62
     5
 10
13.13057499999999
 20
17.508991
 30
0.0
 11
-12.95603300000001
 21
17.508991
 31
0.0
  0
LINE
  5
835
  8
DETAIL
  6
CONTINUOUS
 62
     5
 10
55.22665399999998
 20
17.508991
 30
0.0
 11
14.58396699999999
 21
17.508991
 31
0.0
  0
LINE
  5
836
  8
DETAIL
  6
CONTINUOUS
 62
     5
 10
-14.363215
 20
-37.547215
 30
0.0
 11
-14.40942500000001
 21
-37.57100899999999
 31
0.0
  0
LINE
  5
837
  8
DETAIL
  6
CONTINUOUS
 62
     5
 10
-14.27983000000001
 20
-37.481688
 30
0.0
 11
-14.363215
 21
-37.547215
 31
0.0
  0
LINE
  5
838
  8
DETAIL
  6
CONTINUOUS
 62
     5
 10
-14.165963
 20
-37.383133
 30
0.0
 11
-14.27983000000001
 21
-37.481688
 31
0.0
  0
LINE
  5
839
  8
DETAIL
  6
CONTINUOUS
 62
     5
 10
-14.02739300000001
 20
-37.25871099999999
 30
0.0
 11
-14.165963
 21
-37.383133
 31
0.0
  0
LINE
  5
83A
  8
DETAIL
  6
CONTINUOUS
 62
     5
 10
-13.68272900000001
 20
-37.112009
 30
0.0
 11
-14.02739300000001
 21
-37.25871099999999
 31
0.0
  0
LINE
  5
83B
  8
DETAIL
  6
CONTINUOUS
 62
     5
 10
13.17555299999999
 20
-10.008075
 30
0.0
 11
13.13057499999999
 21
-10.03100899999999
 31
0.0
  0
LINE
  5
83C
  8
DETAIL
  6
CONTINUOUS
 62
     5
 10
13.25799899999999
 20
-9.943502
 30
0.0
 11
13.17555299999999
 21
-10.008075
 31
0.0
  0
LINE
  5
83D
  8
DETAIL
  6
CONTINUOUS
 62
     5
 10
13.37206199999999
 20
-9.844881
 30
0.0
 11
13.25799899999999
 21
-9.943502
 31
0.0
  0
LINE
  5
83E
  8
DETAIL
  6
CONTINUOUS
 62
     5
 10
13.51269399999999
 20
-9.718632
 30
0.0
 11
13.37206199999999
 21
-9.844881
 31
0.0
  0
LINE
  5
83F
  8
DETAIL
  6
CONTINUOUS
 62
     5
 10
13.85727099999999
 20
-9.572009
 30
0.0
 11
13.51269399999999
 21
-9.718632
 31
0.0
  0
LINE
  5
840
  8
DETAIL
  6
CONTINUOUS
 62
     5
 10
14.48193999999999
 20
-17.483122
 30
0.0
 11
14.56150699999999
 21
-17.385597
 31
0.0
  0
LINE
  5
841
  8
DETAIL
  6
CONTINUOUS
 62
     5
 10
14.36327899999999
 20
-17.617161
 30
0.0
 11
14.48193999999999
 21
-17.483122
 31
0.0
  0
LINE
  5
842
  8
DETAIL
  6
CONTINUOUS
 62
     5
 10
14.21500499999999
 20
-17.779552
 30
0.0
 11
14.36327899999999
 21
-17.617161
 31
0.0
  0
LINE
  5
843
  8
DETAIL
  6
CONTINUOUS
 62
     5
 10
13.85727099999999
 20
-17.967991
 30
0.0
 11
14.21500499999999
 21
-17.779552
 31
0.0
  0
LINE
  5
844
  8
DETAIL
  6
CONTINUOUS
 62
     5
 10
-13.056815
 20
-45.02167299999999
 30
0.0
 11
-12.978493
 21
-44.925597
 31
0.0
  0
LINE
  5
845
  8
DETAIL
  6
CONTINUOUS
 62
     5
 10
-13.174944
 20
-45.15519199999999
 30
0.0
 11
-13.056815
 21
-45.02167299999999
 31
0.0
  0
LINE
  5
846
  8
DETAIL
  6
CONTINUOUS
 62
     5
 10
-13.32473100000001
 20
-45.31926399999999
 30
0.0
 11
-13.174944
 21
-45.15519199999999
 31
0.0
  0
LINE
  5
847
  8
DETAIL
  6
CONTINUOUS
 62
     5
 10
-13.68272900000001
 20
-45.50799099999998
 30
0.0
 11
-13.32473100000001
 21
-45.31926399999999
 31
0.0
  0
LINE
  5
848
  8
DETAIL
  6
CONTINUOUS
 62
     5
 10
14.48193999999999
 20
-8.303122
 30
0.0
 11
14.56150699999999
 21
-8.205597
 31
0.0
  0
LINE
  5
849
  8
DETAIL
  6
CONTINUOUS
 62
     5
 10
14.36327899999999
 20
-8.437160999999996
 30
0.0
 11
14.48193999999999
 21
-8.303122
 31
0.0
  0
LINE
  5
84A
  8
DETAIL
  6
CONTINUOUS
 62
     5
 10
14.21500499999999
 20
-8.599552
 30
0.0
 11
14.36327899999999
 21
-8.437160999999996
 31
0.0
  0
LINE
  5
84B
  8
DETAIL
  6
CONTINUOUS
 62
     5
 10
13.85727099999999
 20
-8.787991
 30
0.0
 11
14.21500499999999
 21
-8.599552
 31
0.0
  0
LINE
  5
84C
  8
DETAIL
  6
CONTINUOUS
 62
     5
 10
14.58366299999999
 20
-44.885404
 30
0.0
 11
14.56150699999999
 21
-44.925597
 31
0.0
  0
LINE
  5
84D
  8
DETAIL
  6
CONTINUOUS
 62
     5
 10
14.59167099999999
 20
-44.84176699999999
 30
0.0
 11
14.58366299999999
 21
-44.885404
 31
0.0
  0
LINE
  5
84E
  8
DETAIL
  6
CONTINUOUS
 62
     5
 10
14.58366299999999
 20
-35.70540399999998
 30
0.0
 11
14.56150699999999
 21
-35.745597
 31
0.0
  0
LINE
  5
84F
  8
DETAIL
  6
CONTINUOUS
 62
     5
 10
14.59167099999999
 20
-35.66176699999999
 30
0.0
 11
14.58366299999999
 21
-35.70540399999998
 31
0.0
  0
LINE
  5
850
  8
DETAIL
  6
CONTINUOUS
 62
     5
 10
14.58366299999999
 20
-26.52540399999999
 30
0.0
 11
14.56150699999999
 21
-26.56559699999998
 31
0.0
  0
LINE
  5
851
  8
DETAIL
  6
CONTINUOUS
 62
     5
 10
14.59167099999999
 20
-26.481767
 30
0.0
 11
14.58366299999999
 21
-26.52540399999999
 31
0.0
  0
LINE
  5
852
  8
DETAIL
  6
CONTINUOUS
 62
     5
 10
14.58366299999999
 20
-17.345404
 30
0.0
 11
14.56150699999999
 21
-17.385597
 31
0.0
  0
LINE
  5
853
  8
DETAIL
  6
CONTINUOUS
 62
     5
 10
14.59167099999999
 20
-17.301767
 30
0.0
 11
14.58366299999999
 21
-17.345404
 31
0.0
  0
LINE
  5
854
  8
DETAIL
  6
CONTINUOUS
 62
     5
 10
13.13087999999999
 20
1.014594999999999
 30
0.0
 11
13.12287099999999
 21
1.058232999999999
 31
0.0
  0
LINE
  5
855
  8
DETAIL
  6
CONTINUOUS
 62
     5
 10
13.15303599999999
 20
0.974403
 30
0.0
 11
13.13087999999999
 21
1.014594999999999
 31
0.0
  0
LINE
  5
856
  8
DETAIL
  6
CONTINUOUS
 62
     5
 10
13.15303599999999
 20
0.974403
 30
0.0
 11
13.23133699999999
 21
0.87835
 31
0.0
  0
LINE
  5
857
  8
DETAIL
  6
CONTINUOUS
 62
     5
 10
-14.38696400000001
 20
37.694403
 30
0.0
 11
-14.30744500000001
 21
37.596933
 31
0.0
  0
LINE
  5
858
  8
DETAIL
  6
CONTINUOUS
 62
     5
 10
13.49923499999999
 20
0.5807760000000001
 30
0.0
 11
13.85727099999999
 21
0.392009
 31
0.0
  0
LINE
  5
859
  8
DETAIL
  6
CONTINUOUS
 62
     5
 10
13.34945199999999
 20
0.7448470000000001
 30
0.0
 11
13.49923499999999
 21
0.5807760000000001
 31
0.0
  0
LINE
  5
85A
  8
DETAIL
  6
CONTINUOUS
 62
     5
 10
13.23133699999999
 20
0.87835
 30
0.0
 11
13.34945199999999
 21
0.7448470000000001
 31
0.0
  0
LINE
  5
85B
  8
DETAIL
  6
CONTINUOUS
 62
     5
 10
-14.04053100000001
 20
37.30052399999999
 30
0.0
 11
-13.68272900000001
 21
37.112009
 31
0.0
  0
LINE
  5
85C
  8
DETAIL
  6
CONTINUOUS
 62
     5
 10
-14.188759
 20
37.462864
 30
0.0
 11
-14.04053100000001
 21
37.30052399999999
 31
0.0
  0
LINE
  5
85D
  8
DETAIL
  6
CONTINUOUS
 62
     5
 10
-14.30744500000001
 20
37.596933
 30
0.0
 11
-14.188759
 21
37.462864
 31
0.0
  0
LINE
  5
85E
  8
DETAIL
  6
CONTINUOUS
 62
     5
 10
14.20193499999999
 20
8.641289
 30
0.0
 11
13.85727099999999
 21
8.787991
 31
0.0
  0
LINE
  5
85F
  8
DETAIL
  6
CONTINUOUS
 62
     5
 10
14.34050499999998
 20
8.516866999999998
 30
0.0
 11
14.20193499999999
 21
8.641289
 31
0.0
  0
LINE
  5
860
  8
DETAIL
  6
CONTINUOUS
 62
     5
 10
14.45437199999999
 20
8.418312
 30
0.0
 11
14.34050499999998
 21
8.516866999999998
 31
0.0
  0
LINE
  5
861
  8
DETAIL
  6
CONTINUOUS
 62
     5
 10
14.53775699999998
 20
8.352785
 30
0.0
 11
14.45437199999999
 21
8.418312
 31
0.0
  0
LINE
  5
862
  8
DETAIL
  6
CONTINUOUS
 62
     5
 10
14.58396699999999
 20
8.328991
 30
0.0
 11
14.53775699999998
 21
8.352785
 31
0.0
  0
LINE
  5
863
  8
DETAIL
  6
CONTINUOUS
 62
     5
 10
-13.33877500000001
 20
17.821932
 30
0.0
 11
-13.68272900000001
 21
17.967991
 31
0.0
  0
LINE
  5
864
  8
DETAIL
  6
CONTINUOUS
 62
     5
 10
-13.19798500000001
 20
17.69552999999999
 30
0.0
 11
-13.33877500000001
 21
17.821932
 31
0.0
  0
LINE
  5
865
  8
DETAIL
  6
CONTINUOUS
 62
     5
 10
-13.083729
 20
17.596726
 30
0.0
 11
-13.19798500000001
 21
17.69552999999999
 31
0.0
  0
LINE
  5
866
  8
DETAIL
  6
CONTINUOUS
 62
     5
 10
-13.00142800000001
 20
17.532215
 30
0.0
 11
-13.083729
 21
17.596726
 31
0.0
  0
LINE
  5
867
  8
DETAIL
  6
CONTINUOUS
 62
     5
 10
-12.95603300000001
 20
17.508991
 30
0.0
 11
-13.00142800000001
 21
17.532215
 31
0.0
  0
LINE
  5
868
  8
DETAIL
  6
CONTINUOUS
 62
     5
 10
14.59167099999999
 20
11.479637
 30
0.0
 11
54.70827099999999
 21
11.479637
 31
0.0
  0
LINE
  5
869
  8
DETAIL
  6
CONTINUOUS
 62
     5
 10
-12.94832900000001
 20
11.479637
 30
0.0
 11
13.12287099999999
 21
11.479637
 31
0.0
  0
LINE
  5
86A
  8
DETAIL
  6
CONTINUOUS
 62
     5
 10
-54.53372900000002
 20
11.479637
 30
0.0
 11
-14.41712900000001
 21
11.479637
 31
0.0
  0
LINE
  5
86B
  8
DETAIL
  6
CONTINUOUS
 62
     5
 10
54.70827099999999
 20
10.62349599999999
 30
0.0
 11
55.16727099999999
 21
10.62349599999999
 31
0.0
  0
LINE
  5
86C
  8
DETAIL
  6
CONTINUOUS
 62
     5
 10
-54.99272900000001
 20
10.62349599999999
 30
0.0
 11
-54.53372900000002
 21
10.62349599999999
 31
0.0
  0
LINE
  5
86D
  8
DETAIL
  6
CONTINUOUS
 62
     5
 10
-14.38696400000001
 20
10.154403
 30
0.0
 11
-55.090743
 21
10.154403
 31
0.0
  0
LINE
  5
86E
  8
DETAIL
  6
CONTINUOUS
 62
     5
 10
13.15303599999999
 20
10.154403
 30
0.0
 11
-12.978493
 21
10.154403
 31
0.0
  0
LINE
  5
86F
  8
DETAIL
  6
CONTINUOUS
 62
     5
 10
55.26528199999998
 20
10.154403
 30
0.0
 11
14.56150699999999
 21
10.154403
 31
0.0
  0
LINE
  5
870
  8
DETAIL
  6
CONTINUOUS
 62
     5
 10
55.60739699999998
 20
9.572009
 30
0.0
 11
-55.43285500000001
 21
9.572009
 31
0.0
  0
LINE
  5
871
  8
DETAIL
  6
CONTINUOUS
 62
     5
 10
55.60739399999999
 20
8.787991
 30
0.0
 11
-55.43285200000001
 21
8.787991
 31
0.0
  0
LINE
  5
872
  8
DETAIL
  6
CONTINUOUS
 62
     5
 10
-14.40942500000001
 20
8.328991
 30
0.0
 11
-55.052112
 21
8.328991
 31
0.0
  0
LINE
  5
873
  8
DETAIL
  6
CONTINUOUS
 62
     5
 10
13.13057499999999
 20
8.328991
 30
0.0
 11
-12.95603300000001
 21
8.328991
 31
0.0
  0
LINE
  5
874
  8
DETAIL
  6
CONTINUOUS
 62
     5
 10
55.22665399999998
 20
8.328991
 30
0.0
 11
14.58396699999999
 21
8.328991
 31
0.0
  0
LINE
  5
875
  8
DETAIL
  6
CONTINUOUS
 62
     5
 10
-14.363215
 20
-28.367215
 30
0.0
 11
-14.40942500000001
 21
-28.391009
 31
0.0
  0
LINE
  5
876
  8
DETAIL
  6
CONTINUOUS
 62
     5
 10
-14.27983000000001
 20
-28.301688
 30
0.0
 11
-14.363215
 21
-28.367215
 31
0.0
  0
LINE
  5
877
  8
DETAIL
  6
CONTINUOUS
 62
     5
 10
-14.165963
 20
-28.203133
 30
0.0
 11
-14.27983000000001
 21
-28.301688
 31
0.0
  0
LINE
  5
878
  8
DETAIL
  6
CONTINUOUS
 62
     5
 10
-14.02739300000001
 20
-28.07871099999999
 30
0.0
 11
-14.165963
 21
-28.203133
 31
0.0
  0
LINE
  5
879
  8
DETAIL
  6
CONTINUOUS
 62
     5
 10
-13.68272900000001
 20
-27.932009
 30
0.0
 11
-14.02739300000001
 21
-28.07871099999999
 31
0.0
  0
LINE
  5
87A
  8
DETAIL
  6
CONTINUOUS
 62
     5
 10
13.17555299999999
 20
-0.8280749999999999
 30
0.0
 11
13.13057499999999
 21
-0.8510089999999998
 31
0.0
  0
LINE
  5
87B
  8
DETAIL
  6
CONTINUOUS
 62
     5
 10
13.25799899999999
 20
-0.763502
 30
0.0
 11
13.17555299999999
 21
-0.8280749999999999
 31
0.0
  0
LINE
  5
87C
  8
DETAIL
  6
CONTINUOUS
 62
     5
 10
13.37206199999999
 20
-0.664881
 30
0.0
 11
13.25799899999999
 21
-0.763502
 31
0.0
  0
LINE
  5
87D
  8
DETAIL
  6
CONTINUOUS
 62
     5
 10
13.51269399999999
 20
-0.538632
 30
0.0
 11
13.37206199999999
 21
-0.664881
 31
0.0
  0
LINE
  5
87E
  8
DETAIL
  6
CONTINUOUS
 62
     5
 10
13.85727099999999
 20
-0.392009
 30
0.0
 11
13.51269399999999
 21
-0.538632
 31
0.0
  0
LINE
  5
87F
  8
DETAIL
  6
CONTINUOUS
 62
     5
 10
-13.056815
 20
-35.841673
 30
0.0
 11
-12.978493
 21
-35.745597
 31
0.0
  0
LINE
  5
880
  8
DETAIL
  6
CONTINUOUS
 62
     5
 10
-13.174944
 20
-35.975192
 30
0.0
 11
-13.056815
 21
-35.841673
 31
0.0
  0
LINE
  5
881
  8
DETAIL
  6
CONTINUOUS
 62
     5
 10
-13.32473100000001
 20
-36.13926399999999
 30
0.0
 11
-13.174944
 21
-35.975192
 31
0.0
  0
LINE
  5
882
  8
DETAIL
  6
CONTINUOUS
 62
     5
 10
-13.68272900000001
 20
-36.32799099999999
 30
0.0
 11
-13.32473100000001
 21
-36.13926399999999
 31
0.0
  0
LINE
  5
883
  8
DETAIL
  6
CONTINUOUS
 62
     5
 10
14.48193999999999
 20
0.8768779999999999
 30
0.0
 11
14.56150699999999
 21
0.974403
 31
0.0
  0
LINE
  5
884
  8
DETAIL
  6
CONTINUOUS
 62
     5
 10
14.36327899999999
 20
0.7428390000000002
 30
0.0
 11
14.48193999999999
 21
0.8768779999999999
 31
0.0
  0
LINE
  5
885
  8
DETAIL
  6
CONTINUOUS
 62
     5
 10
14.21500499999999
 20
0.580448
 30
0.0
 11
14.36327899999999
 21
0.7428390000000002
 31
0.0
  0
LINE
  5
886
  8
DETAIL
  6
CONTINUOUS
 62
     5
 10
13.85727099999999
 20
0.392009
 30
0.0
 11
14.21500499999999
 21
0.580448
 31
0.0
  0
LINE
  5
887
  8
DETAIL
  6
CONTINUOUS
 62
     5
 10
-12.95633800000001
 20
-44.885405
 30
0.0
 11
-12.94832900000001
 21
-44.84176699999999
 31
0.0
  0
LINE
  5
888
  8
DETAIL
  6
CONTINUOUS
 62
     5
 10
-12.978493
 20
-44.925597
 30
0.0
 11
-12.95633800000001
 21
-44.885405
 31
0.0
  0
LINE
  5
889
  8
DETAIL
  6
CONTINUOUS
 62
     5
 10
14.58366299999999
 20
-8.165404
 30
0.0
 11
14.56150699999999
 21
-8.205597
 31
0.0
  0
LINE
  5
88A
  8
DETAIL
  6
CONTINUOUS
 62
     5
 10
14.59167099999999
 20
-8.121767
 30
0.0
 11
14.58366299999999
 21
-8.165404
 31
0.0
  0
LINE
  5
88B
  8
DETAIL
  6
CONTINUOUS
 62
     5
 10
14.58366299999999
 20
1.014595999999998
 30
0.0
 11
14.56150699999999
 21
0.974403
 31
0.0
  0
LINE
  5
88C
  8
DETAIL
  6
CONTINUOUS
 62
     5
 10
14.59167099999999
 20
1.058232999999999
 30
0.0
 11
14.58366299999999
 21
1.014595999999998
 31
0.0
  0
LINE
  5
88D
  8
DETAIL
  6
CONTINUOUS
 62
     5
 10
14.58366299999999
 20
10.194596
 30
0.0
 11
14.56150699999999
 21
10.154403
 31
0.0
  0
LINE
  5
88E
  8
DETAIL
  6
CONTINUOUS
 62
     5
 10
14.59167099999999
 20
10.23823299999999
 30
0.0
 11
14.58366299999999
 21
10.194596
 31
0.0
  0
LINE
  5
88F
  8
DETAIL
  6
CONTINUOUS
 62
     5
 10
14.58366299999999
 20
19.374596
 30
0.0
 11
14.56150699999999
 21
19.334403
 31
0.0
  0
LINE
  5
890
  8
DETAIL
  6
CONTINUOUS
 62
     5
 10
14.59167099999999
 20
19.41823299999998
 30
0.0
 11
14.58366299999999
 21
19.374596
 31
0.0
  0
LINE
  5
891
  8
DETAIL
  6
CONTINUOUS
 62
     5
 10
14.58366299999999
 20
28.554596
 30
0.0
 11
14.56150699999999
 21
28.514403
 31
0.0
  0
LINE
  5
892
  8
DETAIL
  6
CONTINUOUS
 62
     5
 10
14.59167099999999
 20
28.598233
 30
0.0
 11
14.58366299999999
 21
28.554596
 31
0.0
  0
LINE
  5
893
  8
DETAIL
  6
CONTINUOUS
 62
     5
 10
14.59167099999999
 20
46.95823299999999
 30
0.0
 11
14.59167099999999
 21
55.08524300000001
 31
0.0
  0
LINE
  5
894
  8
DETAIL
  6
CONTINUOUS
 62
     5
 10
14.59167099999999
 20
37.778233
 30
0.0
 11
14.59167099999999
 21
45.048991
 31
0.0
  0
LINE
  5
895
  8
DETAIL
  6
CONTINUOUS
 62
     5
 10
14.59167099999999
 20
28.598233
 30
0.0
 11
14.59167099999999
 21
35.86899099999998
 31
0.0
  0
LINE
  5
896
  8
DETAIL
  6
CONTINUOUS
 62
     5
 10
14.59167099999999
 20
19.41823299999998
 30
0.0
 11
14.59167099999999
 21
26.68899099999999
 31
0.0
  0
LINE
  5
897
  8
DETAIL
  6
CONTINUOUS
 62
     5
 10
14.59167099999999
 20
10.23823299999999
 30
0.0
 11
14.59167099999999
 21
17.508991
 31
0.0
  0
LINE
  5
898
  8
DETAIL
  6
CONTINUOUS
 62
     5
 10
14.59167099999999
 20
1.058232999999999
 30
0.0
 11
14.59167099999999
 21
8.328991
 31
0.0
  0
LINE
  5
899
  8
DETAIL
  6
CONTINUOUS
 62
     5
 10
14.59167099999999
 20
-8.121767
 30
0.0
 11
14.59167099999999
 21
-0.8510089999999998
 31
0.0
  0
LINE
  5
89A
  8
DETAIL
  6
CONTINUOUS
 62
     5
 10
14.59167099999999
 20
-17.301767
 30
0.0
 11
14.59167099999999
 21
-10.03100899999999
 31
0.0
  0
LINE
  5
89B
  8
DETAIL
  6
CONTINUOUS
 62
     5
 10
14.59167099999999
 20
-26.481767
 30
0.0
 11
14.59167099999999
 21
-19.211009
 31
0.0
  0
LINE
  5
89C
  8
DETAIL
  6
CONTINUOUS
 62
     5
 10
14.59167099999999
 20
-35.66176699999999
 30
0.0
 11
14.59167099999999
 21
-28.391009
 31
0.0
  0
LINE
  5
89D
  8
DETAIL
  6
CONTINUOUS
 62
     5
 10
14.59167099999999
 20
-44.84176699999999
 30
0.0
 11
14.59167099999999
 21
-37.57100899999999
 31
0.0
  0
LINE
  5
89E
  8
DETAIL
  6
CONTINUOUS
 62
     5
 10
14.59167099999999
 20
-55.134862
 30
0.0
 11
14.59167099999999
 21
-46.751009
 31
0.0
  0
LINE
  5
89F
  8
DETAIL
  6
CONTINUOUS
 62
     5
 10
13.12287099999999
 20
46.95823299999999
 30
0.0
 11
13.12287099999999
 21
55.08524300000001
 31
0.0
  0
LINE
  5
8A0
  8
DETAIL
  6
CONTINUOUS
 62
     5
 10
13.12287099999999
 20
37.778233
 30
0.0
 11
13.12287099999999
 21
45.048991
 31
0.0
  0
LINE
  5
8A1
  8
DETAIL
  6
CONTINUOUS
 62
     5
 10
13.12287099999999
 20
28.598233
 30
0.0
 11
13.12287099999999
 21
35.86899099999998
 31
0.0
  0
LINE
  5
8A2
  8
DETAIL
  6
CONTINUOUS
 62
     5
 10
13.12287099999999
 20
19.41823299999998
 30
0.0
 11
13.12287099999999
 21
26.68899099999999
 31
0.0
  0
LINE
  5
8A3
  8
DETAIL
  6
CONTINUOUS
 62
     5
 10
13.12287099999999
 20
10.23823299999999
 30
0.0
 11
13.12287099999999
 21
17.508991
 31
0.0
  0
LINE
  5
8A4
  8
DETAIL
  6
CONTINUOUS
 62
     5
 10
13.12287099999999
 20
1.058232999999999
 30
0.0
 11
13.12287099999999
 21
8.328991
 31
0.0
  0
LINE
  5
8A5
  8
DETAIL
  6
CONTINUOUS
 62
     5
 10
13.12287099999999
 20
-8.121767
 30
0.0
 11
13.12287099999999
 21
-0.8510089999999998
 31
0.0
  0
LINE
  5
8A6
  8
DETAIL
  6
CONTINUOUS
 62
     5
 10
13.12287099999999
 20
-17.301767
 30
0.0
 11
13.12287099999999
 21
-10.03100899999999
 31
0.0
  0
LINE
  5
8A7
  8
DETAIL
  6
CONTINUOUS
 62
     5
 10
13.12287099999999
 20
-26.481767
 30
0.0
 11
13.12287099999999
 21
-19.211009
 31
0.0
  0
LINE
  5
8A8
  8
DETAIL
  6
CONTINUOUS
 62
     5
 10
13.12287099999999
 20
-35.66176699999999
 30
0.0
 11
13.12287099999999
 21
-28.391009
 31
0.0
  0
LINE
  5
8A9
  8
DETAIL
  6
CONTINUOUS
 62
     5
 10
13.12287099999999
 20
-44.84176699999999
 30
0.0
 11
13.12287099999999
 21
-37.57100899999999
 31
0.0
  0
LINE
  5
8AA
  8
DETAIL
  6
CONTINUOUS
 62
     5
 10
13.12287099999999
 20
-55.134862
 30
0.0
 11
13.12287099999999
 21
-46.751009
 31
0.0
  0
LINE
  5
8AB
  8
DETAIL
  6
CONTINUOUS
 62
     5
 10
13.13087999999999
 20
-8.165405
 30
0.0
 11
13.12287099999999
 21
-8.121767
 31
0.0
  0
LINE
  5
8AC
  8
DETAIL
  6
CONTINUOUS
 62
     5
 10
13.15303599999999
 20
-8.205597
 30
0.0
 11
13.13087999999999
 21
-8.165405
 31
0.0
  0
LINE
  5
8AD
  8
DETAIL
  6
CONTINUOUS
 62
     5
 10
13.13087999999999
 20
-17.345405
 30
0.0
 11
13.12287099999999
 21
-17.301767
 31
0.0
  0
LINE
  5
8AE
  8
DETAIL
  6
CONTINUOUS
 62
     5
 10
13.15303599999999
 20
-17.385597
 30
0.0
 11
13.13087999999999
 21
-17.345405
 31
0.0
  0
LINE
  5
8AF
  8
DETAIL
  6
CONTINUOUS
 62
     5
 10
13.15303599999999
 20
-8.205597
 30
0.0
 11
13.23133699999999
 21
-8.30165
 31
0.0
  0
LINE
  5
8B0
  8
DETAIL
  6
CONTINUOUS
 62
     5
 10
-14.38696400000001
 20
28.514403
 30
0.0
 11
-14.30744500000001
 21
28.416933
 31
0.0
  0
LINE
  5
8B1
  8
DETAIL
  6
CONTINUOUS
 62
     5
 10
-14.38696400000001
 20
19.334403
 30
0.0
 11
-14.30744500000001
 21
19.23693299999999
 31
0.0
  0
LINE
  5
8B2
  8
DETAIL
  6
CONTINUOUS
 62
     5
 10
13.49923499999999
 20
-8.599224000000001
 30
0.0
 11
13.85727099999999
 21
-8.787991
 31
0.0
  0
LINE
  5
8B3
  8
DETAIL
  6
CONTINUOUS
 62
     5
 10
13.34945199999999
 20
-8.435152999999996
 30
0.0
 11
13.49923499999999
 21
-8.599224000000001
 31
0.0
  0
LINE
  5
8B4
  8
DETAIL
  6
CONTINUOUS
 62
     5
 10
13.23133699999999
 20
-8.30165
 30
0.0
 11
13.34945199999999
 21
-8.435152999999996
 31
0.0
  0
LINE
  5
8B5
  8
DETAIL
  6
CONTINUOUS
 62
     5
 10
-14.04053100000001
 20
28.120524
 30
0.0
 11
-13.68272900000001
 21
27.932009
 31
0.0
  0
LINE
  5
8B6
  8
DETAIL
  6
CONTINUOUS
 62
     5
 10
-14.188759
 20
28.282864
 30
0.0
 11
-14.04053100000001
 21
28.120524
 31
0.0
  0
LINE
  5
8B7
  8
DETAIL
  6
CONTINUOUS
 62
     5
 10
-14.30744500000001
 20
28.416933
 30
0.0
 11
-14.188759
 21
28.282864
 31
0.0
  0
LINE
  5
8B8
  8
DETAIL
  6
CONTINUOUS
 62
     5
 10
-14.04053100000001
 20
18.94052399999998
 30
0.0
 11
-13.68272900000001
 21
18.752009
 31
0.0
  0
LINE
  5
8B9
  8
DETAIL
  6
CONTINUOUS
 62
     5
 10
-14.188759
 20
19.102864
 30
0.0
 11
-14.04053100000001
 21
18.94052399999998
 31
0.0
  0
LINE
  5
8BA
  8
DETAIL
  6
CONTINUOUS
 62
     5
 10
-14.30744500000001
 20
19.23693299999999
 30
0.0
 11
-14.188759
 21
19.102864
 31
0.0
  0
LINE
  5
8BB
  8
DETAIL
  6
CONTINUOUS
 62
     5
 10
-55.40465900000002
 20
45.381059
 30
0.0
 11
-55.43285200000001
 21
45.50799099999998
 31
0.0
  0
LINE
  5
8BC
  8
DETAIL
  6
CONTINUOUS
 62
     5
 10
-55.33153400000003
 20
45.261833
 30
0.0
 11
-55.40465900000002
 21
45.381059
 31
0.0
  0
LINE
  5
8BD
  8
DETAIL
  6
CONTINUOUS
 62
     5
 10
-55.23862200000002
 20
45.161021
 30
0.0
 11
-55.33153400000003
 21
45.261833
 31
0.0
  0
LINE
  5
8BE
  8
DETAIL
  6
CONTINUOUS
 62
     5
 10
-55.139661
 20
45.082991
 30
0.0
 11
-55.23862200000002
 21
45.161021
 31
0.0
  0
LINE
  5
8BF
  8
DETAIL
  6
CONTINUOUS
 62
     5
 10
14.20193499999999
 20
-0.538711
 30
0.0
 11
13.85727099999999
 21
-0.392009
 31
0.0
  0
LINE
  5
8C0
  8
DETAIL
  6
CONTINUOUS
 62
     5
 10
14.34050499999998
 20
-0.6631330000000001
 30
0.0
 11
14.20193499999999
 21
-0.538711
 31
0.0
  0
LINE
  5
8C1
  8
DETAIL
  6
CONTINUOUS
 62
     5
 10
14.45437199999999
 20
-0.761688
 30
0.0
 11
14.34050499999998
 21
-0.6631330000000001
 31
0.0
  0
LINE
  5
8C2
  8
DETAIL
  6
CONTINUOUS
 62
     5
 10
14.53775699999998
 20
-0.8272149999999999
 30
0.0
 11
14.45437199999999
 21
-0.761688
 31
0.0
  0
LINE
  5
8C3
  8
DETAIL
  6
CONTINUOUS
 62
     5
 10
14.58396699999999
 20
-0.8510089999999998
 30
0.0
 11
14.53775699999998
 21
-0.8272149999999999
 31
0.0
  0
LINE
  5
8C4
  8
DETAIL
  6
CONTINUOUS
 62
     5
 10
-13.33877500000001
 20
8.641932
 30
0.0
 11
-13.68272900000001
 21
8.787991
 31
0.0
  0
LINE
  5
8C5
  8
DETAIL
  6
CONTINUOUS
 62
     5
 10
-13.19798500000001
 20
8.51553
 30
0.0
 11
-13.33877500000001
 21
8.641932
 31
0.0
  0
LINE
  5
8C6
  8
DETAIL
  6
CONTINUOUS
 62
     5
 10
-13.083729
 20
8.416726
 30
0.0
 11
-13.19798500000001
 21
8.51553
 31
0.0
  0
LINE
  5
8C7
  8
DETAIL
  6
CONTINUOUS
 62
     5
 10
-13.00142800000001
 20
8.352215
 30
0.0
 11
-13.083729
 21
8.416726
 31
0.0
  0
LINE
  5
8C8
  8
DETAIL
  6
CONTINUOUS
 62
     5
 10
-12.95603300000001
 20
8.328991
 30
0.0
 11
-13.00142800000001
 21
8.352215
 31
0.0
  0
LINE
  5
8C9
  8
DETAIL
  6
CONTINUOUS
 62
     5
 10
14.59167099999999
 20
2.299636999999998
 30
0.0
 11
54.70827099999999
 21
2.299636999999998
 31
0.0
  0
LINE
  5
8CA
  8
DETAIL
  6
CONTINUOUS
 62
     5
 10
-12.94832900000001
 20
2.299636999999998
 30
0.0
 11
13.12287099999999
 21
2.299636999999998
 31
0.0
  0
LINE
  5
8CB
  8
DETAIL
  6
CONTINUOUS
 62
     5
 10
-54.53372900000002
 20
2.299636999999998
 30
0.0
 11
-14.41712900000001
 21
2.299636999999998
 31
0.0
  0
LINE
  5
8CC
  8
DETAIL
  6
CONTINUOUS
 62
     5
 10
54.70827099999999
 20
1.443495999999998
 30
0.0
 11
55.16727099999999
 21
1.443495999999998
 31
0.0
  0
LINE
  5
8CD
  8
DETAIL
  6
CONTINUOUS
 62
     5
 10
-54.99272900000001
 20
1.443495999999998
 30
0.0
 11
-54.53372900000002
 21
1.443495999999998
 31
0.0
  0
LINE
  5
8CE
  8
DETAIL
  6
CONTINUOUS
 62
     5
 10
-14.38696400000001
 20
0.974403
 30
0.0
 11
-55.09077100000001
 21
0.974403
 31
0.0
  0
LINE
  5
8CF
  8
DETAIL
  6
CONTINUOUS
 62
     5
 10
13.15303599999999
 20
0.974403
 30
0.0
 11
-12.978493
 21
0.974403
 31
0.0
  0
LINE
  5
8D0
  8
DETAIL
  6
CONTINUOUS
 62
     5
 10
55.26531299999998
 20
0.974403
 30
0.0
 11
14.56150699999999
 21
0.974403
 31
0.0
  0
LINE
  5
8D1
  8
DETAIL
  6
CONTINUOUS
 62
     5
 10
-14.363215
 20
-19.187215
 30
0.0
 11
-14.40942500000001
 21
-19.211009
 31
0.0
  0
LINE
  5
8D2
  8
DETAIL
  6
CONTINUOUS
 62
     5
 10
-14.27983000000001
 20
-19.12168799999999
 30
0.0
 11
-14.363215
 21
-19.187215
 31
0.0
  0
LINE
  5
8D3
  8
DETAIL
  6
CONTINUOUS
 62
     5
 10
-14.165963
 20
-19.02313299999999
 30
0.0
 11
-14.27983000000001
 21
-19.12168799999999
 31
0.0
  0
LINE
  5
8D4
  8
DETAIL
  6
CONTINUOUS
 62
     5
 10
-14.02739300000001
 20
-18.89871099999999
 30
0.0
 11
-14.165963
 21
-19.02313299999999
 31
0.0
  0
LINE
  5
8D5
  8
DETAIL
  6
CONTINUOUS
 62
     5
 10
-13.68272900000001
 20
-18.752009
 30
0.0
 11
-14.02739300000001
 21
-18.89871099999999
 31
0.0
  0
LINE
  5
8D6
  8
DETAIL
  6
CONTINUOUS
 62
     5
 10
13.17555299999999
 20
8.351924999999998
 30
0.0
 11
13.13057499999999
 21
8.328991
 31
0.0
  0
LINE
  5
8D7
  8
DETAIL
  6
CONTINUOUS
 62
     5
 10
13.25799899999999
 20
8.416497999999997
 30
0.0
 11
13.17555299999999
 21
8.351924999999998
 31
0.0
  0
LINE
  5
8D8
  8
DETAIL
  6
CONTINUOUS
 62
     5
 10
13.37206199999999
 20
8.515119
 30
0.0
 11
13.25799899999999
 21
8.416497999999997
 31
0.0
  0
LINE
  5
8D9
  8
DETAIL
  6
CONTINUOUS
 62
     5
 10
13.51269399999999
 20
8.641367999999998
 30
0.0
 11
13.37206199999999
 21
8.515119
 31
0.0
  0
LINE
  5
8DA
  8
DETAIL
  6
CONTINUOUS
 62
     5
 10
13.85727099999999
 20
8.787991
 30
0.0
 11
13.51269399999999
 21
8.641367999999998
 31
0.0
  0
LINE
  5
8DB
  8
DETAIL
  6
CONTINUOUS
 62
     5
 10
-13.056815
 20
-26.66167299999999
 30
0.0
 11
-12.978493
 21
-26.56559699999998
 31
0.0
  0
LINE
  5
8DC
  8
DETAIL
  6
CONTINUOUS
 62
     5
 10
-13.174944
 20
-26.795192
 30
0.0
 11
-13.056815
 21
-26.66167299999999
 31
0.0
  0
LINE
  5
8DD
  8
DETAIL
  6
CONTINUOUS
 62
     5
 10
-13.32473100000001
 20
-26.959264
 30
0.0
 11
-13.174944
 21
-26.795192
 31
0.0
  0
LINE
  5
8DE
  8
DETAIL
  6
CONTINUOUS
 62
     5
 10
-13.68272900000001
 20
-27.147991
 30
0.0
 11
-13.32473100000001
 21
-26.959264
 31
0.0
  0
LINE
  5
8DF
  8
DETAIL
  6
CONTINUOUS
 62
     5
 10
14.48193999999999
 20
10.056878
 30
0.0
 11
14.56150699999999
 21
10.154403
 31
0.0
  0
LINE
  5
8E0
  8
DETAIL
  6
CONTINUOUS
 62
     5
 10
14.36327899999999
 20
9.922839
 30
0.0
 11
14.48193999999999
 21
10.056878
 31
0.0
  0
LINE
  5
8E1
  8
DETAIL
  6
CONTINUOUS
 62
     5
 10
14.21500499999999
 20
9.760448
 30
0.0
 11
14.36327899999999
 21
9.922839
 31
0.0
  0
LINE
  5
8E2
  8
DETAIL
  6
CONTINUOUS
 62
     5
 10
13.85727099999999
 20
9.572009
 30
0.0
 11
14.21500499999999
 21
9.760448
 31
0.0
  0
LINE
  5
8E3
  8
DETAIL
  6
CONTINUOUS
 62
     5
 10
-13.056815
 20
-17.481673
 30
0.0
 11
-12.978493
 21
-17.385597
 31
0.0
  0
LINE
  5
8E4
  8
DETAIL
  6
CONTINUOUS
 62
     5
 10
-13.174944
 20
-17.615192
 30
0.0
 11
-13.056815
 21
-17.481673
 31
0.0
  0
LINE
  5
8E5
  8
DETAIL
  6
CONTINUOUS
 62
     5
 10
-13.32473100000001
 20
-17.779264
 30
0.0
 11
-13.174944
 21
-17.615192
 31
0.0
  0
LINE
  5
8E6
  8
DETAIL
  6
CONTINUOUS
 62
     5
 10
-13.68272900000001
 20
-17.967991
 30
0.0
 11
-13.32473100000001
 21
-17.779264
 31
0.0
  0
LINE
  5
8E7
  8
DETAIL
  6
CONTINUOUS
 62
     5
 10
-12.95633800000001
 20
-35.70540499999999
 30
0.0
 11
-12.94832900000001
 21
-35.66176699999999
 31
0.0
  0
LINE
  5
8E8
  8
DETAIL
  6
CONTINUOUS
 62
     5
 10
-12.978493
 20
-35.745597
 30
0.0
 11
-12.95633800000001
 21
-35.70540499999999
 31
0.0
  0
LINE
  5
8E9
  8
DETAIL
  6
CONTINUOUS
 62
     5
 10
-12.95633800000001
 20
-26.525405
 30
0.0
 11
-12.94832900000001
 21
-26.481767
 31
0.0
  0
LINE
  5
8EA
  8
DETAIL
  6
CONTINUOUS
 62
     5
 10
-12.978493
 20
-26.56559699999998
 30
0.0
 11
-12.95633800000001
 21
-26.525405
 31
0.0
  0
LINE
  5
8EB
  8
DETAIL
  6
CONTINUOUS
 62
     5
 10
14.58366299999999
 20
37.734596
 30
0.0
 11
14.56150699999999
 21
37.694403
 31
0.0
  0
LINE
  5
8EC
  8
DETAIL
  6
CONTINUOUS
 62
     5
 10
14.59167099999999
 20
37.778233
 30
0.0
 11
14.58366299999999
 21
37.734596
 31
0.0
  0
LINE
  5
8ED
  8
DETAIL
  6
CONTINUOUS
 62
     5
 10
14.58366299999999
 20
46.914596
 30
0.0
 11
14.56150699999999
 21
46.874403
 31
0.0
  0
LINE
  5
8EE
  8
DETAIL
  6
CONTINUOUS
 62
     5
 10
14.59167099999999
 20
46.95823299999999
 30
0.0
 11
14.58366299999999
 21
46.914596
 31
0.0
  0
LINE
  5
8EF
  8
DETAIL
  6
CONTINUOUS
 62
     5
 10
-14.40912100000001
 20
46.914596
 30
0.0
 11
-14.38696400000001
 21
46.874403
 31
0.0
  0
LINE
  5
8F0
  8
DETAIL
  6
CONTINUOUS
 62
     5
 10
-14.41712900000001
 20
46.95823299999999
 30
0.0
 11
-14.40912100000001
 21
46.914596
 31
0.0
  0
LINE
  5
8F1
  8
DETAIL
  6
CONTINUOUS
 62
     5
 10
13.13087999999999
 20
-26.525405
 30
0.0
 11
13.12287099999999
 21
-26.481767
 31
0.0
  0
LINE
  5
8F2
  8
DETAIL
  6
CONTINUOUS
 62
     5
 10
13.15303599999999
 20
-26.56559699999998
 30
0.0
 11
13.13087999999999
 21
-26.525405
 31
0.0
  0
LINE
  5
8F3
  8
DETAIL
  6
CONTINUOUS
 62
     5
 10
13.13087999999999
 20
-35.70540499999999
 30
0.0
 11
13.12287099999999
 21
-35.66176699999999
 31
0.0
  0
LINE
  5
8F4
  8
DETAIL
  6
CONTINUOUS
 62
     5
 10
13.15303599999999
 20
-35.745597
 30
0.0
 11
13.13087999999999
 21
-35.70540499999999
 31
0.0
  0
LINE
  5
8F5
  8
DETAIL
  6
CONTINUOUS
 62
     5
 10
13.15303599999999
 20
-17.385597
 30
0.0
 11
13.23133699999999
 21
-17.48165
 31
0.0
  0
LINE
  5
8F6
  8
DETAIL
  6
CONTINUOUS
 62
     5
 10
-14.38696400000001
 20
10.154403
 30
0.0
 11
-14.30744500000001
 21
10.056933
 31
0.0
  0
LINE
  5
8F7
  8
DETAIL
  6
CONTINUOUS
 62
     5
 10
13.49923499999999
 20
-17.779224
 30
0.0
 11
13.85727099999999
 21
-17.967991
 31
0.0
  0
LINE
  5
8F8
  8
DETAIL
  6
CONTINUOUS
 62
     5
 10
13.34945199999999
 20
-17.615153
 30
0.0
 11
13.49923499999999
 21
-17.779224
 31
0.0
  0
LINE
  5
8F9
  8
DETAIL
  6
CONTINUOUS
 62
     5
 10
13.23133699999999
 20
-17.48165
 30
0.0
 11
13.34945199999999
 21
-17.615153
 31
0.0
  0
LINE
  5
8FA
  8
DETAIL
  6
CONTINUOUS
 62
     5
 10
-14.04053100000001
 20
9.760524
 30
0.0
 11
-13.68272900000001
 21
9.572009
 31
0.0
  0
LINE
  5
8FB
  8
DETAIL
  6
CONTINUOUS
 62
     5
 10
-14.188759
 20
9.922864
 30
0.0
 11
-14.04053100000001
 21
9.760524
 31
0.0
  0
LINE
  5
8FC
  8
DETAIL
  6
CONTINUOUS
 62
     5
 10
-14.30744500000001
 20
10.056933
 30
0.0
 11
-14.188759
 21
9.922864
 31
0.0
  0
LINE
  5
8FD
  8
DETAIL
  6
CONTINUOUS
 62
     5
 10
14.20193499999999
 20
-9.718711
 30
0.0
 11
13.85727099999999
 21
-9.572009
 31
0.0
  0
LINE
  5
8FE
  8
DETAIL
  6
CONTINUOUS
 62
     5
 10
14.34050499999998
 20
-9.843132999999998
 30
0.0
 11
14.20193499999999
 21
-9.718711
 31
0.0
  0
LINE
  5
8FF
  8
DETAIL
  6
CONTINUOUS
 62
     5
 10
14.45437199999999
 20
-9.941688
 30
0.0
 11
14.34050499999998
 21
-9.843132999999998
 31
0.0
  0
LINE
  5
900
  8
DETAIL
  6
CONTINUOUS
 62
     5
 10
14.53775699999998
 20
-10.00721499999998
 30
0.0
 11
14.45437199999999
 21
-9.941688
 31
0.0
  0
LINE
  5
901
  8
DETAIL
  6
CONTINUOUS
 62
     5
 10
14.58396699999999
 20
-10.03100899999999
 30
0.0
 11
14.53775699999998
 21
-10.00721499999998
 31
0.0
  0
LINE
  5
902
  8
DETAIL
  6
CONTINUOUS
 62
     5
 10
55.60739699999998
 20
0.392009
 30
0.0
 11
-55.43285500000001
 21
0.392009
 31
0.0
  0
LINE
  5
903
  8
DETAIL
  6
CONTINUOUS
 62
     5
 10
55.57321499999997
 20
28.098308
 30
0.0
 11
55.60739699999998
 21
27.932009
 31
0.0
  0
LINE
  5
904
  8
DETAIL
  6
CONTINUOUS
 62
     5
 10
55.26528199999998
 20
28.514403
 30
0.0
 11
55.19342799999997
 21
28.605429
 31
0.0
  0
LINE
  5
905
  8
DETAIL
  6
CONTINUOUS
 62
     5
 10
55.60739399999999
 20
-0.392009
 30
0.0
 11
-55.43285200000001
 21
-0.392009
 31
0.0
  0
LINE
  5
906
  8
DETAIL
  6
CONTINUOUS
 62
     5
 10
-14.40942500000001
 20
-0.8510089999999998
 30
0.0
 11
-55.052112
 21
-0.8510089999999998
 31
0.0
  0
LINE
  5
907
  8
DETAIL
  6
CONTINUOUS
 62
     5
 10
13.13057499999999
 20
-0.8510089999999998
 30
0.0
 11
-12.95603300000001
 21
-0.8510089999999998
 31
0.0
  0
LINE
  5
908
  8
DETAIL
  6
CONTINUOUS
 62
     5
 10
55.22665399999998
 20
-0.8510089999999998
 30
0.0
 11
14.58396699999999
 21
-0.8510089999999998
 31
0.0
  0
LINE
  5
909
  8
DETAIL
  6
CONTINUOUS
 62
     5
 10
-14.363215
 20
-10.00721499999998
 30
0.0
 11
-14.40942500000001
 21
-10.03100899999999
 31
0.0
  0
LINE
  5
90A
  8
DETAIL
  6
CONTINUOUS
 62
     5
 10
-14.27983000000001
 20
-9.941688
 30
0.0
 11
-14.363215
 21
-10.00721499999998
 31
0.0
  0
LINE
  5
90B
  8
DETAIL
  6
CONTINUOUS
 62
     5
 10
-14.165963
 20
-9.843132999999998
 30
0.0
 11
-14.27983000000001
 21
-9.941688
 31
0.0
  0
LINE
  5
90C
  8
DETAIL
  6
CONTINUOUS
 62
     5
 10
-14.02739300000001
 20
-9.718711
 30
0.0
 11
-14.165963
 21
-9.843132999999998
 31
0.0
  0
LINE
  5
90D
  8
DETAIL
  6
CONTINUOUS
 62
     5
 10
-13.68272900000001
 20
-9.572009
 30
0.0
 11
-14.02739300000001
 21
-9.718711
 31
0.0
  0
LINE
  5
90E
  8
DETAIL
  6
CONTINUOUS
 62
     5
 10
13.17555299999999
 20
17.531925
 30
0.0
 11
13.13057499999999
 21
17.508991
 31
0.0
  0
LINE
  5
90F
  8
DETAIL
  6
CONTINUOUS
 62
     5
 10
13.25799899999999
 20
17.596498
 30
0.0
 11
13.17555299999999
 21
17.531925
 31
0.0
  0
LINE
  5
910
  8
DETAIL
  6
CONTINUOUS
 62
     5
 10
13.37206199999999
 20
17.69511899999999
 30
0.0
 11
13.25799899999999
 21
17.596498
 31
0.0
  0
LINE
  5
911
  8
DETAIL
  6
CONTINUOUS
 62
     5
 10
13.51269399999999
 20
17.82136799999999
 30
0.0
 11
13.37206199999999
 21
17.69511899999999
 31
0.0
  0
LINE
  5
912
  8
DETAIL
  6
CONTINUOUS
 62
     5
 10
13.85727099999999
 20
17.967991
 30
0.0
 11
13.51269399999999
 21
17.82136799999999
 31
0.0
  0
LINE
  5
913
  8
DETAIL
  6
CONTINUOUS
 62
     5
 10
14.48193999999999
 20
19.236878
 30
0.0
 11
14.56150699999999
 21
19.334403
 31
0.0
  0
LINE
  5
914
  8
DETAIL
  6
CONTINUOUS
 62
     5
 10
14.36327899999999
 20
19.10283899999999
 30
0.0
 11
14.48193999999999
 21
19.236878
 31
0.0
  0
LINE
  5
915
  8
DETAIL
  6
CONTINUOUS
 62
     5
 10
14.21500499999999
 20
18.94044799999998
 30
0.0
 11
14.36327899999999
 21
19.10283899999999
 31
0.0
  0
LINE
  5
916
  8
DETAIL
  6
CONTINUOUS
 62
     5
 10
13.85727099999999
 20
18.752009
 30
0.0
 11
14.21500499999999
 21
18.94044799999998
 31
0.0
  0
LINE
  5
917
  8
DETAIL
  6
CONTINUOUS
 62
     5
 10
-13.056815
 20
-8.301673
 30
0.0
 11
-12.978493
 21
-8.205597
 31
0.0
  0
LINE
  5
918
  8
DETAIL
  6
CONTINUOUS
 62
     5
 10
-13.174944
 20
-8.435192
 30
0.0
 11
-13.056815
 21
-8.301673
 31
0.0
  0
LINE
  5
919
  8
DETAIL
  6
CONTINUOUS
 62
     5
 10
-13.32473100000001
 20
-8.599264
 30
0.0
 11
-13.174944
 21
-8.435192
 31
0.0
  0
LINE
  5
91A
  8
DETAIL
  6
CONTINUOUS
 62
     5
 10
-13.68272900000001
 20
-8.787991
 30
0.0
 11
-13.32473100000001
 21
-8.599264
 31
0.0
  0
LINE
  5
91B
  8
DETAIL
  6
CONTINUOUS
 62
     5
 10
-12.95633800000001
 20
-17.345405
 30
0.0
 11
-12.94832900000001
 21
-17.301767
 31
0.0
  0
LINE
  5
91C
  8
DETAIL
  6
CONTINUOUS
 62
     5
 10
-12.978493
 20
-17.385597
 30
0.0
 11
-12.95633800000001
 21
-17.345405
 31
0.0
  0
LINE
  5
91D
  8
DETAIL
  6
CONTINUOUS
 62
     5
 10
-14.41712900000001
 20
-55.10480900000001
 30
0.0
 11
-49.02572900000001
 21
-55.10480900000001
 31
0.0
  0
LINE
  5
91E
  8
DETAIL
  6
CONTINUOUS
 62
     5
 10
-14.40912100000001
 20
37.734596
 30
0.0
 11
-14.38696400000001
 21
37.694403
 31
0.0
  0
LINE
  5
91F
  8
DETAIL
  6
CONTINUOUS
 62
     5
 10
-14.41712900000001
 20
37.778233
 30
0.0
 11
-14.40912100000001
 21
37.734596
 31
0.0
  0
LINE
  5
920
  8
DETAIL
  6
CONTINUOUS
 62
     5
 10
-14.40912100000001
 20
28.554596
 30
0.0
 11
-14.38696400000001
 21
28.514403
 31
0.0
  0
LINE
  5
921
  8
DETAIL
  6
CONTINUOUS
 62
     5
 10
-14.41712900000001
 20
28.598233
 30
0.0
 11
-14.40912100000001
 21
28.554596
 31
0.0
  0
LINE
  5
922
  8
DETAIL
  6
CONTINUOUS
 62
     5
 10
-14.40912100000001
 20
19.374596
 30
0.0
 11
-14.38696400000001
 21
19.334403
 31
0.0
  0
LINE
  5
923
  8
DETAIL
  6
CONTINUOUS
 62
     5
 10
-14.41712900000001
 20
19.41823299999998
 30
0.0
 11
-14.40912100000001
 21
19.374596
 31
0.0
  0
LINE
  5
924
  8
DETAIL
  6
CONTINUOUS
 62
     5
 10
-14.40912100000001
 20
10.194596
 30
0.0
 11
-14.38696400000001
 21
10.154403
 31
0.0
  0
LINE
  5
925
  8
DETAIL
  6
CONTINUOUS
 62
     5
 10
-14.41712900000001
 20
10.23823299999999
 30
0.0
 11
-14.40912100000001
 21
10.194596
 31
0.0
  0
LINE
  5
926
  8
DETAIL
  6
CONTINUOUS
 62
     5
 10
13.12287099999999
 20
-55.134862
 30
0.0
 11
13.16676499999999
 21
-55.221792
 31
0.0
  0
LINE
  5
927
  8
DETAIL
  6
CONTINUOUS
 62
     5
 10
13.13087999999999
 20
-44.885405
 30
0.0
 11
13.12287099999999
 21
-44.84176699999999
 31
0.0
  0
LINE
  5
928
  8
DETAIL
  6
CONTINUOUS
 62
     5
 10
13.15303599999999
 20
-44.925597
 30
0.0
 11
13.13087999999999
 21
-44.885405
 31
0.0
  0
LINE
  5
929
  8
DETAIL
  6
CONTINUOUS
 62
     5
 10
55.19342799999997
 20
28.605429
 30
0.0
 11
55.16727099999999
 21
28.706889
 31
0.0
  0
LINE
  5
92A
  8
DETAIL
  6
CONTINUOUS
 62
     5
 10
13.15303599999999
 20
-26.56559699999998
 30
0.0
 11
13.23133699999999
 21
-26.66165
 31
0.0
  0
LINE
  5
92B
  8
DETAIL
  6
CONTINUOUS
 62
     5
 10
13.15303599999999
 20
-35.745597
 30
0.0
 11
13.23133699999999
 21
-35.84165
 31
0.0
  0
LINE
  5
92C
  8
DETAIL
  6
CONTINUOUS
 62
     5
 10
-14.38696400000001
 20
0.974403
 30
0.0
 11
-14.30744500000001
 21
0.876933
 31
0.0
  0
LINE
  5
92D
  8
DETAIL
  6
CONTINUOUS
 62
     5
 10
13.49923499999999
 20
-26.959224
 30
0.0
 11
13.85727099999999
 21
-27.147991
 31
0.0
  0
LINE
  5
92E
  8
DETAIL
  6
CONTINUOUS
 62
     5
 10
13.34945199999999
 20
-26.795153
 30
0.0
 11
13.49923499999999
 21
-26.959224
 31
0.0
  0
LINE
  5
92F
  8
DETAIL
  6
CONTINUOUS
 62
     5
 10
13.23133699999999
 20
-26.66165
 30
0.0
 11
13.34945199999999
 21
-26.795153
 31
0.0
  0
LINE
  5
930
  8
DETAIL
  6
CONTINUOUS
 62
     5
 10
-14.04053100000001
 20
0.580524
 30
0.0
 11
-13.68272900000001
 21
0.392009
 31
0.0
  0
LINE
  5
931
  8
DETAIL
  6
CONTINUOUS
 62
     5
 10
-14.188759
 20
0.7428640000000001
 30
0.0
 11
-14.04053100000001
 21
0.580524
 31
0.0
  0
LINE
  5
932
  8
DETAIL
  6
CONTINUOUS
 62
     5
 10
-14.30744500000001
 20
0.876933
 30
0.0
 11
-14.188759
 21
0.7428640000000001
 31
0.0
  0
LINE
  5
933
  8
DETAIL
  6
CONTINUOUS
 62
     5
 10
14.20193499999999
 20
-18.89871099999999
 30
0.0
 11
13.85727099999999
 21
-18.752009
 31
0.0
  0
LINE
  5
934
  8
DETAIL
  6
CONTINUOUS
 62
     5
 10
14.34050499999998
 20
-19.02313299999999
 30
0.0
 11
14.20193499999999
 21
-18.89871099999999
 31
0.0
  0
LINE
  5
935
  8
DETAIL
  6
CONTINUOUS
 62
     5
 10
14.45437199999999
 20
-19.12168799999999
 30
0.0
 11
14.34050499999998
 21
-19.02313299999999
 31
0.0
  0
LINE
  5
936
  8
DETAIL
  6
CONTINUOUS
 62
     5
 10
14.53775699999998
 20
-19.187215
 30
0.0
 11
14.45437199999999
 21
-19.12168799999999
 31
0.0
  0
LINE
  5
937
  8
DETAIL
  6
CONTINUOUS
 62
     5
 10
14.58396699999999
 20
-19.211009
 30
0.0
 11
14.53775699999998
 21
-19.187215
 31
0.0
  0
LINE
  5
938
  8
DETAIL
  6
CONTINUOUS
 62
     5
 10
-13.33877500000001
 20
-0.538068
 30
0.0
 11
-13.68272900000001
 21
-0.392009
 31
0.0
  0
LINE
  5
939
  8
DETAIL
  6
CONTINUOUS
 62
     5
 10
-13.19798500000001
 20
-0.6644700000000002
 30
0.0
 11
-13.33877500000001
 21
-0.538068
 31
0.0
  0
LINE
  5
93A
  8
DETAIL
  6
CONTINUOUS
 62
     5
 10
-13.083729
 20
-0.763274
 30
0.0
 11
-13.19798500000001
 21
-0.6644700000000002
 31
0.0
  0
LINE
  5
93B
  8
DETAIL
  6
CONTINUOUS
 62
     5
 10
-13.00142800000001
 20
-0.827785
 30
0.0
 11
-13.083729
 21
-0.763274
 31
0.0
  0
LINE
  5
93C
  8
DETAIL
  6
CONTINUOUS
 62
     5
 10
-12.95603300000001
 20
-0.8510089999999998
 30
0.0
 11
-13.00142800000001
 21
-0.827785
 31
0.0
  0
LINE
  5
93D
  8
DETAIL
  6
CONTINUOUS
 62
     5
 10
14.59167099999999
 20
-6.880363
 30
0.0
 11
54.70827099999999
 21
-6.880363
 31
0.0
  0
LINE
  5
93E
  8
DETAIL
  6
CONTINUOUS
 62
     5
 10
-12.94832900000001
 20
-6.880363
 30
0.0
 11
13.12287099999999
 21
-6.880363
 31
0.0
  0
LINE
  5
93F
  8
DETAIL
  6
CONTINUOUS
 62
     5
 10
-54.53372900000002
 20
-6.880363
 30
0.0
 11
-14.41712900000001
 21
-6.880363
 31
0.0
  0
LINE
  5
940
  8
DETAIL
  6
CONTINUOUS
 62
     5
 10
54.70827099999999
 20
-7.736503999999998
 30
0.0
 11
55.16727099999999
 21
-7.736503999999998
 31
0.0
  0
LINE
  5
941
  8
DETAIL
  6
CONTINUOUS
 62
     5
 10
-54.99272900000001
 20
-7.736503999999998
 30
0.0
 11
-54.53372900000002
 21
-7.736503999999998
 31
0.0
  0
LINE
  5
942
  8
DETAIL
  6
CONTINUOUS
 62
     5
 10
-14.38696400000001
 20
-8.205597
 30
0.0
 11
-55.090743
 21
-8.205597
 31
0.0
  0
LINE
  5
943
  8
DETAIL
  6
CONTINUOUS
 62
     5
 10
13.15303599999999
 20
-8.205597
 30
0.0
 11
-12.978493
 21
-8.205597
 31
0.0
  0
LINE
  5
944
  8
DETAIL
  6
CONTINUOUS
 62
     5
 10
55.26528199999998
 20
-8.205597
 30
0.0
 11
14.56150699999999
 21
-8.205597
 31
0.0
  0
LINE
  5
945
  8
DETAIL
  6
CONTINUOUS
 62
     5
 10
55.60739699999998
 20
-8.787991
 30
0.0
 11
-55.43285500000001
 21
-8.787991
 31
0.0
  0
LINE
  5
946
  8
DETAIL
  6
CONTINUOUS
 62
     5
 10
55.60739399999999
 20
-9.572009
 30
0.0
 11
-55.43285200000001
 21
-9.572009
 31
0.0
  0
LINE
  5
947
  8
DETAIL
  6
CONTINUOUS
 62
     5
 10
-14.40942500000001
 20
-10.03100899999999
 30
0.0
 11
-55.052112
 21
-10.03100899999999
 31
0.0
  0
LINE
  5
948
  8
DETAIL
  6
CONTINUOUS
 62
     5
 10
13.13057499999999
 20
-10.03100899999999
 30
0.0
 11
-12.95603300000001
 21
-10.03100899999999
 31
0.0
  0
LINE
  5
949
  8
DETAIL
  6
CONTINUOUS
 62
     5
 10
55.22665399999998
 20
-10.03100899999999
 30
0.0
 11
14.58396699999999
 21
-10.03100899999999
 31
0.0
  0
LINE
  5
94A
  8
DETAIL
  6
CONTINUOUS
 62
     5
 10
-14.363215
 20
-0.8272149999999999
 30
0.0
 11
-14.40942500000001
 21
-0.8510089999999998
 31
0.0
  0
LINE
  5
94B
  8
DETAIL
  6
CONTINUOUS
 62
     5
 10
-14.27983000000001
 20
-0.761688
 30
0.0
 11
-14.363215
 21
-0.8272149999999999
 31
0.0
  0
LINE
  5
94C
  8
DETAIL
  6
CONTINUOUS
 62
     5
 10
-14.165963
 20
-0.6631330000000001
 30
0.0
 11
-14.27983000000001
 21
-0.761688
 31
0.0
  0
LINE
  5
94D
  8
DETAIL
  6
CONTINUOUS
 62
     5
 10
-14.02739300000001
 20
-0.538711
 30
0.0
 11
-14.165963
 21
-0.6631330000000001
 31
0.0
  0
LINE
  5
94E
  8
DETAIL
  6
CONTINUOUS
 62
     5
 10
-13.68272900000001
 20
-0.392009
 30
0.0
 11
-14.02739300000001
 21
-0.538711
 31
0.0
  0
LINE
  5
94F
  8
DETAIL
  6
CONTINUOUS
 62
     5
 10
13.17555299999999
 20
26.711925
 30
0.0
 11
13.13057499999999
 21
26.68899099999999
 31
0.0
  0
LINE
  5
950
  8
DETAIL
  6
CONTINUOUS
 62
     5
 10
13.25799899999999
 20
26.77649799999999
 30
0.0
 11
13.17555299999999
 21
26.711925
 31
0.0
  0
LINE
  5
951
  8
DETAIL
  6
CONTINUOUS
 62
     5
 10
13.37206199999999
 20
26.875119
 30
0.0
 11
13.25799899999999
 21
26.77649799999999
 31
0.0
  0
LINE
  5
952
  8
DETAIL
  6
CONTINUOUS
 62
     5
 10
13.51269399999999
 20
27.001368
 30
0.0
 11
13.37206199999999
 21
26.875119
 31
0.0
  0
LINE
  5
953
  8
DETAIL
  6
CONTINUOUS
 62
     5
 10
13.85727099999999
 20
27.147991
 30
0.0
 11
13.51269399999999
 21
27.001368
 31
0.0
  0
LINE
  5
954
  8
DETAIL
  6
CONTINUOUS
 62
     5
 10
14.48193999999999
 20
28.416878
 30
0.0
 11
14.56150699999999
 21
28.514403
 31
0.0
  0
LINE
  5
955
  8
DETAIL
  6
CONTINUOUS
 62
     5
 10
14.36327899999999
 20
28.282839
 30
0.0
 11
14.48193999999999
 21
28.416878
 31
0.0
  0
LINE
  5
956
  8
DETAIL
  6
CONTINUOUS
 62
     5
 10
14.21500499999999
 20
28.120448
 30
0.0
 11
14.36327899999999
 21
28.282839
 31
0.0
  0
LINE
  5
957
  8
DETAIL
  6
CONTINUOUS
 62
     5
 10
13.85727099999999
 20
27.932009
 30
0.0
 11
14.21500499999999
 21
28.120448
 31
0.0
  0
LINE
  5
958
  8
DETAIL
  6
CONTINUOUS
 62
     5
 10
-13.056815
 20
0.8783270000000001
 30
0.0
 11
-12.978493
 21
0.974403
 31
0.0
  0
LINE
  5
959
  8
DETAIL
  6
CONTINUOUS
 62
     5
 10
-13.174944
 20
0.744808
 30
0.0
 11
-13.056815
 21
0.8783270000000001
 31
0.0
  0
LINE
  5
95A
  8
DETAIL
  6
CONTINUOUS
 62
     5
 10
-13.32473100000001
 20
0.580736
 30
0.0
 11
-13.174944
 21
0.744808
 31
0.0
  0
LINE
  5
95B
  8
DETAIL
  6
CONTINUOUS
 62
     5
 10
-13.68272900000001
 20
0.392009
 30
0.0
 11
-13.32473100000001
 21
0.580736
 31
0.0
  0
LINE
  5
95C
  8
DETAIL
  6
CONTINUOUS
 62
     5
 10
-12.95633800000001
 20
-8.165405
 30
0.0
 11
-12.94832900000001
 21
-8.121767
 31
0.0
  0
LINE
  5
95D
  8
DETAIL
  6
CONTINUOUS
 62
     5
 10
-12.978493
 20
-8.205597
 30
0.0
 11
-12.95633800000001
 21
-8.165405
 31
0.0
  0
LINE
  5
95E
  8
DETAIL
  6
CONTINUOUS
 62
     5
 10
-12.95633800000001
 20
1.014594999999999
 30
0.0
 11
-12.94832900000001
 21
1.058232999999999
 31
0.0
  0
LINE
  5
95F
  8
DETAIL
  6
CONTINUOUS
 62
     5
 10
-12.978493
 20
0.974403
 30
0.0
 11
-12.95633800000001
 21
1.014594999999999
 31
0.0
  0
LINE
  5
960
  8
DETAIL
  6
CONTINUOUS
 62
     5
 10
-12.94832900000001
 20
46.95823299999999
 30
0.0
 11
-12.94832900000001
 21
55.08524300000001
 31
0.0
  0
LINE
  5
961
  8
DETAIL
  6
CONTINUOUS
 62
     5
 10
-12.94832900000001
 20
37.778233
 30
0.0
 11
-12.94832900000001
 21
45.048991
 31
0.0
  0
LINE
  5
962
  8
DETAIL
  6
CONTINUOUS
 62
     5
 10
-12.94832900000001
 20
28.598233
 30
0.0
 11
-12.94832900000001
 21
35.86899099999998
 31
0.0
  0
LINE
  5
963
  8
DETAIL
  6
CONTINUOUS
 62
     5
 10
-12.94832900000001
 20
19.41823299999998
 30
0.0
 11
-12.94832900000001
 21
26.68899099999999
 31
0.0
  0
LINE
  5
964
  8
DETAIL
  6
CONTINUOUS
 62
     5
 10
-12.94832900000001
 20
10.23823299999999
 30
0.0
 11
-12.94832900000001
 21
17.508991
 31
0.0
  0
LINE
  5
965
  8
DETAIL
  6
CONTINUOUS
 62
     5
 10
-12.94832900000001
 20
1.058232999999999
 30
0.0
 11
-12.94832900000001
 21
8.328991
 31
0.0
  0
LINE
  5
966
  8
DETAIL
  6
CONTINUOUS
 62
     5
 10
-12.94832900000001
 20
-8.121767
 30
0.0
 11
-12.94832900000001
 21
-0.8510089999999998
 31
0.0
  0
LINE
  5
967
  8
DETAIL
  6
CONTINUOUS
 62
     5
 10
-12.94832900000001
 20
-17.301767
 30
0.0
 11
-12.94832900000001
 21
-10.03100899999999
 31
0.0
  0
LINE
  5
968
  8
DETAIL
  6
CONTINUOUS
 62
     5
 10
-12.94832900000001
 20
-26.481767
 30
0.0
 11
-12.94832900000001
 21
-19.211009
 31
0.0
  0
LINE
  5
969
  8
DETAIL
  6
CONTINUOUS
 62
     5
 10
-12.94832900000001
 20
-35.66176699999999
 30
0.0
 11
-12.94832900000001
 21
-28.391009
 31
0.0
  0
LINE
  5
96A
  8
DETAIL
  6
CONTINUOUS
 62
     5
 10
-12.94832900000001
 20
-44.84176699999999
 30
0.0
 11
-12.94832900000001
 21
-37.57100899999999
 31
0.0
  0
LINE
  5
96B
  8
DETAIL
  6
CONTINUOUS
 62
     5
 10
-12.94832900000001
 20
-55.134862
 30
0.0
 11
-12.94832900000001
 21
-46.751009
 31
0.0
  0
LINE
  5
96C
  8
DETAIL
  6
CONTINUOUS
 62
     5
 10
-14.40912100000001
 20
1.014595999999998
 30
0.0
 11
-14.38696400000001
 21
0.974403
 31
0.0
  0
LINE
  5
96D
  8
DETAIL
  6
CONTINUOUS
 62
     5
 10
-14.41712900000001
 20
1.058232999999999
 30
0.0
 11
-14.40912100000001
 21
1.014595999999998
 31
0.0
  0
LINE
  5
96E
  8
DETAIL
  6
CONTINUOUS
 62
     5
 10
-14.40912100000001
 20
-8.165404
 30
0.0
 11
-14.38696400000001
 21
-8.205597
 31
0.0
  0
LINE
  5
96F
  8
DETAIL
  6
CONTINUOUS
 62
     5
 10
-14.41712900000001
 20
-8.121767
 30
0.0
 11
-14.40912100000001
 21
-8.165404
 31
0.0
  0
LINE
  5
970
  8
DETAIL
  6
CONTINUOUS
 62
     5
 10
-14.40912100000001
 20
-17.345404
 30
0.0
 11
-14.38696400000001
 21
-17.385597
 31
0.0
  0
LINE
  5
971
  8
DETAIL
  6
CONTINUOUS
 62
     5
 10
-14.41712900000001
 20
-17.301767
 30
0.0
 11
-14.40912100000001
 21
-17.345404
 31
0.0
  0
LINE
  5
972
  8
DETAIL
  6
CONTINUOUS
 62
     5
 10
-14.40912100000001
 20
-26.52540399999999
 30
0.0
 11
-14.38696400000001
 21
-26.56559699999998
 31
0.0
  0
LINE
  5
973
  8
DETAIL
  6
CONTINUOUS
 62
     5
 10
-14.41712900000001
 20
-26.481767
 30
0.0
 11
-14.40912100000001
 21
-26.52540399999999
 31
0.0
  0
LINE
  5
974
  8
DETAIL
  6
CONTINUOUS
 62
     5
 10
-14.40912100000001
 20
-35.70540399999998
 30
0.0
 11
-14.38696400000001
 21
-35.745597
 31
0.0
  0
LINE
  5
975
  8
DETAIL
  6
CONTINUOUS
 62
     5
 10
-14.41712900000001
 20
-35.66176699999999
 30
0.0
 11
-14.40912100000001
 21
-35.70540399999998
 31
0.0
  0
LINE
  5
976
  8
DETAIL
  6
CONTINUOUS
 62
     5
 10
13.15303599999999
 20
-44.925597
 30
0.0
 11
13.23133699999999
 21
-45.02165
 31
0.0
  0
LINE
  5
977
  8
DETAIL
  6
CONTINUOUS
 62
     5
 10
-14.38696400000001
 20
-8.205597
 30
0.0
 11
-14.30744500000001
 21
-8.303067
 31
0.0
  0
LINE
  5
978
  8
DETAIL
  6
CONTINUOUS
 62
     5
 10
13.49923499999999
 20
-36.13922399999999
 30
0.0
 11
13.85727099999999
 21
-36.32799099999999
 31
0.0
  0
LINE
  5
979
  8
DETAIL
  6
CONTINUOUS
 62
     5
 10
13.34945199999999
 20
-35.97515299999999
 30
0.0
 11
13.49923499999999
 21
-36.13922399999999
 31
0.0
  0
LINE
  5
97A
  8
DETAIL
  6
CONTINUOUS
 62
     5
 10
13.23133699999999
 20
-35.84165
 30
0.0
 11
13.34945199999999
 21
-35.97515299999999
 31
0.0
  0
LINE
  5
97B
  8
DETAIL
  6
CONTINUOUS
 62
     5
 10
13.49923499999999
 20
-45.319224
 30
0.0
 11
13.85727099999999
 21
-45.50799099999998
 31
0.0
  0
LINE
  5
97C
  8
DETAIL
  6
CONTINUOUS
 62
     5
 10
13.34945199999999
 20
-45.15515299999999
 30
0.0
 11
13.49923499999999
 21
-45.319224
 31
0.0
  0
LINE
  5
97D
  8
DETAIL
  6
CONTINUOUS
 62
     5
 10
13.23133699999999
 20
-45.02165
 30
0.0
 11
13.34945199999999
 21
-45.15515299999999
 31
0.0
  0
LINE
  5
97E
  8
DETAIL
  6
CONTINUOUS
 62
     5
 10
-14.04053100000001
 20
-8.599476
 30
0.0
 11
-13.68272900000001
 21
-8.787991
 31
0.0
  0
LINE
  5
97F
  8
DETAIL
  6
CONTINUOUS
 62
     5
 10
-14.188759
 20
-8.437136
 30
0.0
 11
-14.04053100000001
 21
-8.599476
 31
0.0
  0
LINE
  5
980
  8
DETAIL
  6
CONTINUOUS
 62
     5
 10
-14.30744500000001
 20
-8.303067
 30
0.0
 11
-14.188759
 21
-8.437136
 31
0.0
  0
LINE
  5
981
  8
DETAIL
  6
CONTINUOUS
 62
     5
 10
14.20193499999999
 20
-28.07871099999999
 30
0.0
 11
13.85727099999999
 21
-27.932009
 31
0.0
  0
LINE
  5
982
  8
DETAIL
  6
CONTINUOUS
 62
     5
 10
14.34050499999998
 20
-28.203133
 30
0.0
 11
14.20193499999999
 21
-28.07871099999999
 31
0.0
  0
LINE
  5
983
  8
DETAIL
  6
CONTINUOUS
 62
     5
 10
14.45437199999999
 20
-28.301688
 30
0.0
 11
14.34050499999998
 21
-28.203133
 31
0.0
  0
LINE
  5
984
  8
DETAIL
  6
CONTINUOUS
 62
     5
 10
14.53775699999998
 20
-28.367215
 30
0.0
 11
14.45437199999999
 21
-28.301688
 31
0.0
  0
LINE
  5
985
  8
DETAIL
  6
CONTINUOUS
 62
     5
 10
14.58396699999999
 20
-28.391009
 30
0.0
 11
14.53775699999998
 21
-28.367215
 31
0.0
  0
LINE
  5
986
  8
DETAIL
  6
CONTINUOUS
 62
     5
 10
-13.33877500000001
 20
-9.718068
 30
0.0
 11
-13.68272900000001
 21
-9.572009
 31
0.0
  0
LINE
  5
987
  8
DETAIL
  6
CONTINUOUS
 62
     5
 10
-13.19798500000001
 20
-9.84447
 30
0.0
 11
-13.33877500000001
 21
-9.718068
 31
0.0
  0
LINE
  5
988
  8
DETAIL
  6
CONTINUOUS
 62
     5
 10
-13.083729
 20
-9.943274
 30
0.0
 11
-13.19798500000001
 21
-9.84447
 31
0.0
  0
LINE
  5
989
  8
DETAIL
  6
CONTINUOUS
 62
     5
 10
-13.00142800000001
 20
-10.007785
 30
0.0
 11
-13.083729
 21
-9.943274
 31
0.0
  0
LINE
  5
98A
  8
DETAIL
  6
CONTINUOUS
 62
     5
 10
-12.95603300000001
 20
-10.03100899999999
 30
0.0
 11
-13.00142800000001
 21
-10.007785
 31
0.0
  0
LINE
  5
98B
  8
DETAIL
  6
CONTINUOUS
 62
     5
 10
14.59167099999999
 20
-16.06036299999999
 30
0.0
 11
54.70827099999999
 21
-16.06036299999999
 31
0.0
  0
LINE
  5
98C
  8
DETAIL
  6
CONTINUOUS
 62
     5
 10
-12.94832900000001
 20
-16.06036299999999
 30
0.0
 11
13.12287099999999
 21
-16.06036299999999
 31
0.0
  0
LINE
  5
98D
  8
DETAIL
  6
CONTINUOUS
 62
     5
 10
-54.53372900000002
 20
-16.06036299999999
 30
0.0
 11
-14.41712900000001
 21
-16.06036299999999
 31
0.0
  0
LINE
  5
98E
  8
DETAIL
  6
CONTINUOUS
 62
     5
 10
54.70827099999999
 20
-16.916504
 30
0.0
 11
55.16727099999999
 21
-16.916504
 31
0.0
  0
LINE
  5
98F
  8
DETAIL
  6
CONTINUOUS
 62
     5
 10
-54.99272900000001
 20
-16.916504
 30
0.0
 11
-54.53372900000002
 21
-16.916504
 31
0.0
  0
LINE
  5
990
  8
DETAIL
  6
CONTINUOUS
 62
     5
 10
-14.38696400000001
 20
-17.385597
 30
0.0
 11
-55.090743
 21
-17.385597
 31
0.0
  0
LINE
  5
991
  8
DETAIL
  6
CONTINUOUS
 62
     5
 10
13.15303599999999
 20
-17.385597
 30
0.0
 11
-12.978493
 21
-17.385597
 31
0.0
  0
LINE
  5
992
  8
DETAIL
  6
CONTINUOUS
 62
     5
 10
55.26528199999998
 20
-17.385597
 30
0.0
 11
14.56150699999999
 21
-17.385597
 31
0.0
  0
LINE
  5
993
  8
DETAIL
  6
CONTINUOUS
 62
     5
 10
55.60739699999998
 20
-17.967991
 30
0.0
 11
-55.43285500000001
 21
-17.967991
 31
0.0
  0
LINE
  5
994
  8
DETAIL
  6
CONTINUOUS
 62
     5
 10
55.60739399999999
 20
-18.752009
 30
0.0
 11
-55.43285200000001
 21
-18.752009
 31
0.0
  0
LINE
  5
995
  8
DETAIL
  6
CONTINUOUS
 62
     5
 10
-14.40942500000001
 20
-19.211009
 30
0.0
 11
-55.052112
 21
-19.211009
 31
0.0
  0
LINE
  5
996
  8
DETAIL
  6
CONTINUOUS
 62
     5
 10
13.13057499999999
 20
-19.211009
 30
0.0
 11
-12.95603300000001
 21
-19.211009
 31
0.0
  0
LINE
  5
997
  8
DETAIL
  6
CONTINUOUS
 62
     5
 10
55.22665399999998
 20
-19.211009
 30
0.0
 11
14.58396699999999
 21
-19.211009
 31
0.0
  0
LINE
  5
998
  8
DETAIL
  6
CONTINUOUS
 62
     5
 10
-14.363215
 20
8.352785
 30
0.0
 11
-14.40942500000001
 21
8.328991
 31
0.0
  0
LINE
  5
999
  8
DETAIL
  6
CONTINUOUS
 62
     5
 10
-14.27983000000001
 20
8.418312
 30
0.0
 11
-14.363215
 21
8.352785
 31
0.0
  0
LINE
  5
99A
  8
DETAIL
  6
CONTINUOUS
 62
     5
 10
-14.165963
 20
8.516866999999998
 30
0.0
 11
-14.27983000000001
 21
8.418312
 31
0.0
  0
LINE
  5
99B
  8
DETAIL
  6
CONTINUOUS
 62
     5
 10
-14.02739300000001
 20
8.641289
 30
0.0
 11
-14.165963
 21
8.516866999999998
 31
0.0
  0
LINE
  5
99C
  8
DETAIL
  6
CONTINUOUS
 62
     5
 10
-13.68272900000001
 20
8.787991
 30
0.0
 11
-14.02739300000001
 21
8.641289
 31
0.0
  0
LINE
  5
99D
  8
DETAIL
  6
CONTINUOUS
 62
     5
 10
13.17555299999999
 20
35.891925
 30
0.0
 11
13.13057499999999
 21
35.86899099999998
 31
0.0
  0
LINE
  5
99E
  8
DETAIL
  6
CONTINUOUS
 62
     5
 10
13.25799899999999
 20
35.95649799999999
 30
0.0
 11
13.17555299999999
 21
35.891925
 31
0.0
  0
LINE
  5
99F
  8
DETAIL
  6
CONTINUOUS
 62
     5
 10
13.37206199999999
 20
36.05511899999999
 30
0.0
 11
13.25799899999999
 21
35.95649799999999
 31
0.0
  0
LINE
  5
9A0
  8
DETAIL
  6
CONTINUOUS
 62
     5
 10
13.51269399999999
 20
36.181368
 30
0.0
 11
13.37206199999999
 21
36.05511899999999
 31
0.0
  0
LINE
  5
9A1
  8
DETAIL
  6
CONTINUOUS
 62
     5
 10
13.85727099999999
 20
36.32799099999999
 30
0.0
 11
13.51269399999999
 21
36.181368
 31
0.0
  0
LINE
  5
9A2
  8
DETAIL
  6
CONTINUOUS
 62
     5
 10
14.48193999999999
 20
37.596878
 30
0.0
 11
14.56150699999999
 21
37.694403
 31
0.0
  0
LINE
  5
9A3
  8
DETAIL
  6
CONTINUOUS
 62
     5
 10
14.36327899999999
 20
37.462839
 30
0.0
 11
14.48193999999999
 21
37.596878
 31
0.0
  0
LINE
  5
9A4
  8
DETAIL
  6
CONTINUOUS
 62
     5
 10
14.21500499999999
 20
37.30044799999999
 30
0.0
 11
14.36327899999999
 21
37.462839
 31
0.0
  0
LINE
  5
9A5
  8
DETAIL
  6
CONTINUOUS
 62
     5
 10
13.85727099999999
 20
37.112009
 30
0.0
 11
14.21500499999999
 21
37.30044799999999
 31
0.0
  0
LINE
  5
9A6
  8
DETAIL
  6
CONTINUOUS
 62
     5
 10
-13.056815
 20
10.058327
 30
0.0
 11
-12.978493
 21
10.154403
 31
0.0
  0
LINE
  5
9A7
  8
DETAIL
  6
CONTINUOUS
 62
     5
 10
-13.174944
 20
9.924808
 30
0.0
 11
-13.056815
 21
10.058327
 31
0.0
  0
LINE
  5
9A8
  8
DETAIL
  6
CONTINUOUS
 62
     5
 10
-13.32473100000001
 20
9.760736
 30
0.0
 11
-13.174944
 21
9.924808
 31
0.0
  0
LINE
  5
9A9
  8
DETAIL
  6
CONTINUOUS
 62
     5
 10
-13.68272900000001
 20
9.572009
 30
0.0
 11
-13.32473100000001
 21
9.760736
 31
0.0
  0
LINE
  5
9AA
  8
DETAIL
  6
CONTINUOUS
 62
     5
 10
-12.95633800000001
 20
10.19459499999999
 30
0.0
 11
-12.94832900000001
 21
10.23823299999999
 31
0.0
  0
LINE
  5
9AB
  8
DETAIL
  6
CONTINUOUS
 62
     5
 10
-12.978493
 20
10.154403
 30
0.0
 11
-12.95633800000001
 21
10.19459499999999
 31
0.0
  0
LINE
  5
9AC
  8
DETAIL
  6
CONTINUOUS
 62
     5
 10
-12.95633800000001
 20
19.374595
 30
0.0
 11
-12.94832900000001
 21
19.41823299999998
 31
0.0
  0
LINE
  5
9AD
  8
DETAIL
  6
CONTINUOUS
 62
     5
 10
-12.978493
 20
19.334403
 30
0.0
 11
-12.95633800000001
 21
19.374595
 31
0.0
  0
LINE
  5
9AE
  8
DETAIL
  6
CONTINUOUS
 62
     5
 10
-14.41712900000001
 20
46.95823299999999
 30
0.0
 11
-14.41712900000001
 21
55.08524300000001
 31
0.0
  0
LINE
  5
9AF
  8
DETAIL
  6
CONTINUOUS
 62
     5
 10
-14.41712900000001
 20
37.778233
 30
0.0
 11
-14.41712900000001
 21
45.048991
 31
0.0
  0
LINE
  5
9B0
  8
DETAIL
  6
CONTINUOUS
 62
     5
 10
-14.41712900000001
 20
28.598233
 30
0.0
 11
-14.41712900000001
 21
35.86899099999998
 31
0.0
  0
LINE
  5
9B1
  8
DETAIL
  6
CONTINUOUS
 62
     5
 10
-14.41712900000001
 20
19.41823299999998
 30
0.0
 11
-14.41712900000001
 21
26.68899099999999
 31
0.0
  0
LINE
  5
9B2
  8
DETAIL
  6
CONTINUOUS
 62
     5
 10
-14.41712900000001
 20
10.23823299999999
 30
0.0
 11
-14.41712900000001
 21
17.508991
 31
0.0
  0
LINE
  5
9B3
  8
DETAIL
  6
CONTINUOUS
 62
     5
 10
-14.41712900000001
 20
1.058232999999999
 30
0.0
 11
-14.41712900000001
 21
8.328991
 31
0.0
  0
LINE
  5
9B4
  8
DETAIL
  6
CONTINUOUS
 62
     5
 10
-14.41712900000001
 20
-8.121767
 30
0.0
 11
-14.41712900000001
 21
-0.8510089999999998
 31
0.0
  0
LINE
  5
9B5
  8
DETAIL
  6
CONTINUOUS
 62
     5
 10
-14.41712900000001
 20
-17.301767
 30
0.0
 11
-14.41712900000001
 21
-10.03100899999999
 31
0.0
  0
LINE
  5
9B6
  8
DETAIL
  6
CONTINUOUS
 62
     5
 10
-14.41712900000001
 20
-26.481767
 30
0.0
 11
-14.41712900000001
 21
-19.211009
 31
0.0
  0
LINE
  5
9B7
  8
DETAIL
  6
CONTINUOUS
 62
     5
 10
-14.41712900000001
 20
-35.66176699999999
 30
0.0
 11
-14.41712900000001
 21
-28.391009
 31
0.0
  0
LINE
  5
9B8
  8
DETAIL
  6
CONTINUOUS
 62
     5
 10
-14.41712900000001
 20
-44.84176699999999
 30
0.0
 11
-14.41712900000001
 21
-37.57100899999999
 31
0.0
  0
LINE
  5
9B9
  8
DETAIL
  6
CONTINUOUS
 62
     5
 10
-14.41712900000001
 20
-55.134862
 30
0.0
 11
-14.41712900000001
 21
-46.751009
 31
0.0
  0
LINE
  5
9BA
  8
DETAIL
  6
CONTINUOUS
 62
     5
 10
-14.40912100000001
 20
-44.885404
 30
0.0
 11
-14.38696400000001
 21
-44.925597
 31
0.0
  0
LINE
  5
9BB
  8
DETAIL
  6
CONTINUOUS
 62
     5
 10
-14.41712900000001
 20
-44.84176699999999
 30
0.0
 11
-14.40912100000001
 21
-44.885404
 31
0.0
  0
LINE
  5
9BC
  8
DETAIL
  6
CONTINUOUS
 62
     5
 10
-14.38696400000001
 20
-17.385597
 30
0.0
 11
-14.30744500000001
 21
-17.48306699999999
 31
0.0
  0
LINE
  5
9BD
  8
DETAIL
  6
CONTINUOUS
 62
     5
 10
-14.38696400000001
 20
-26.56559699999998
 30
0.0
 11
-14.30744500000001
 21
-26.66306699999999
 31
0.0
  0
LINE
  5
9BE
  8
DETAIL
  6
CONTINUOUS
 62
     5
 10
-14.04053100000001
 20
-17.779476
 30
0.0
 11
-13.68272900000001
 21
-17.967991
 31
0.0
  0
LINE
  5
9BF
  8
DETAIL
  6
CONTINUOUS
 62
     5
 10
-14.188759
 20
-17.617136
 30
0.0
 11
-14.04053100000001
 21
-17.779476
 31
0.0
  0
LINE
  5
9C0
  8
DETAIL
  6
CONTINUOUS
 62
     5
 10
-14.30744500000001
 20
-17.48306699999999
 30
0.0
 11
-14.188759
 21
-17.617136
 31
0.0
  0
LINE
  5
9C1
  8
DETAIL
  6
CONTINUOUS
 62
     5
 10
-14.04053100000001
 20
-26.959476
 30
0.0
 11
-13.68272900000001
 21
-27.147991
 31
0.0
  0
LINE
  5
9C2
  8
DETAIL
  6
CONTINUOUS
 62
     5
 10
-14.188759
 20
-26.79713599999999
 30
0.0
 11
-14.04053100000001
 21
-26.959476
 31
0.0
  0
LINE
  5
9C3
  8
DETAIL
  6
CONTINUOUS
 62
     5
 10
-14.30744500000001
 20
-26.66306699999999
 30
0.0
 11
-14.188759
 21
-26.79713599999999
 31
0.0
  0
LINE
  5
9C4
  8
DETAIL
  6
CONTINUOUS
 62
     5
 10
14.54451899999999
 20
-55.226042
 30
0.0
 11
14.59167099999999
 21
-55.134862
 31
0.0
  0
LINE
  5
9C5
  8
DETAIL
  6
CONTINUOUS
 62
     5
 10
14.42827999999998
 20
-55.34995699999999
 30
0.0
 11
14.54451899999999
 21
-55.226042
 31
0.0
  0
LINE
  5
9C6
  8
DETAIL
  6
CONTINUOUS
 62
     5
 10
14.27737699999999
 20
-55.46672199999999
 30
0.0
 11
14.42827999999998
 21
-55.34995699999999
 31
0.0
  0
LINE
  5
9C7
  8
DETAIL
  6
CONTINUOUS
 62
     5
 10
14.10715599999999
 20
-55.538357
 30
0.0
 11
14.27737699999999
 21
-55.46672199999999
 31
0.0
  0
LINE
  5
9C8
  8
DETAIL
  6
CONTINUOUS
 62
     5
 10
13.56581199999999
 20
-55.527797
 30
0.0
 11
14.10715599999999
 21
-55.538357
 31
0.0
  0
LINE
  5
9C9
  8
DETAIL
  6
CONTINUOUS
 62
     5
 10
13.41076599999999
 20
-55.449507
 30
0.0
 11
13.56581199999999
 21
-55.527797
 31
0.0
  0
LINE
  5
9CA
  8
DETAIL
  6
CONTINUOUS
 62
     5
 10
13.27280699999998
 20
-55.33741800000001
 30
0.0
 11
13.41076599999999
 21
-55.449507
 31
0.0
  0
LINE
  5
9CB
  8
DETAIL
  6
CONTINUOUS
 62
     5
 10
13.16676499999999
 20
-55.221792
 30
0.0
 11
13.27280699999998
 21
-55.33741800000001
 31
0.0
  0
LINE
  5
9CC
  8
DETAIL
  6
CONTINUOUS
 62
     5
 10
14.20193499999999
 20
-37.25871099999999
 30
0.0
 11
13.85727099999999
 21
-37.112009
 31
0.0
  0
LINE
  5
9CD
  8
DETAIL
  6
CONTINUOUS
 62
     5
 10
14.34050499999998
 20
-37.383133
 30
0.0
 11
14.20193499999999
 21
-37.25871099999999
 31
0.0
  0
LINE
  5
9CE
  8
DETAIL
  6
CONTINUOUS
 62
     5
 10
14.45437199999999
 20
-37.481688
 30
0.0
 11
14.34050499999998
 21
-37.383133
 31
0.0
  0
LINE
  5
9CF
  8
DETAIL
  6
CONTINUOUS
 62
     5
 10
14.53775699999998
 20
-37.547215
 30
0.0
 11
14.45437199999999
 21
-37.481688
 31
0.0
  0
LINE
  5
9D0
  8
DETAIL
  6
CONTINUOUS
 62
     5
 10
14.58396699999999
 20
-37.57100899999999
 30
0.0
 11
14.53775699999998
 21
-37.547215
 31
0.0
  0
LINE
  5
9D1
  8
DETAIL
  6
CONTINUOUS
 62
     5
 10
-13.33877500000001
 20
-18.89806799999999
 30
0.0
 11
-13.68272900000001
 21
-18.752009
 31
0.0
  0
LINE
  5
9D2
  8
DETAIL
  6
CONTINUOUS
 62
     5
 10
-13.19798500000001
 20
-19.02447
 30
0.0
 11
-13.33877500000001
 21
-18.89806799999999
 31
0.0
  0
LINE
  5
9D3
  8
DETAIL
  6
CONTINUOUS
 62
     5
 10
-13.083729
 20
-19.12327399999999
 30
0.0
 11
-13.19798500000001
 21
-19.02447
 31
0.0
  0
LINE
  5
9D4
  8
DETAIL
  6
CONTINUOUS
 62
     5
 10
-13.00142800000001
 20
-19.187785
 30
0.0
 11
-13.083729
 21
-19.12327399999999
 31
0.0
  0
LINE
  5
9D5
  8
DETAIL
  6
CONTINUOUS
 62
     5
 10
-12.95603300000001
 20
-19.211009
 30
0.0
 11
-13.00142800000001
 21
-19.187785
 31
0.0
  0
LINE
  5
9D6
  8
DETAIL
  6
CONTINUOUS
 62
     5
 10
14.59167099999999
 20
-25.240363
 30
0.0
 11
54.70827099999999
 21
-25.240363
 31
0.0
  0
LINE
  5
9D7
  8
DETAIL
  6
CONTINUOUS
 62
     5
 10
-12.94832900000001
 20
-25.240363
 30
0.0
 11
13.12287099999999
 21
-25.240363
 31
0.0
  0
LINE
  5
9D8
  8
DETAIL
  6
CONTINUOUS
 62
     5
 10
-54.53372900000002
 20
-25.240363
 30
0.0
 11
-14.41712900000001
 21
-25.240363
 31
0.0
  0
LINE
  5
9D9
  8
DETAIL
  6
CONTINUOUS
 62
     5
 10
54.70827099999999
 20
-26.096504
 30
0.0
 11
55.16727099999999
 21
-26.096504
 31
0.0
  0
LINE
  5
9DA
  8
DETAIL
  6
CONTINUOUS
 62
     5
 10
-54.99272900000001
 20
-26.096504
 30
0.0
 11
-54.53372900000002
 21
-26.096504
 31
0.0
  0
LINE
  5
9DB
  8
DETAIL
  6
CONTINUOUS
 62
     5
 10
-14.38696400000001
 20
-26.56559699999998
 30
0.0
 11
-55.090743
 21
-26.56559699999998
 31
0.0
  0
LINE
  5
9DC
  8
DETAIL
  6
CONTINUOUS
 62
     5
 10
13.15303599999999
 20
-26.56559699999998
 30
0.0
 11
-12.978493
 21
-26.56559699999998
 31
0.0
  0
LINE
  5
9DD
  8
DETAIL
  6
CONTINUOUS
 62
     5
 10
55.26528199999998
 20
-26.56559699999998
 30
0.0
 11
14.56150699999999
 21
-26.56559699999998
 31
0.0
  0
LINE
  5
9DE
  8
DETAIL
  6
CONTINUOUS
 62
     5
 10
55.60739699999998
 20
-27.147991
 30
0.0
 11
-55.43285500000001
 21
-27.147991
 31
0.0
  0
LINE
  5
9DF
  8
DETAIL
  6
CONTINUOUS
 62
     5
 10
55.60739399999999
 20
-27.932009
 30
0.0
 11
-55.43285200000001
 21
-27.932009
 31
0.0
  0
LINE
  5
9E0
  8
DETAIL
  6
CONTINUOUS
 62
     5
 10
-14.40942500000001
 20
-28.391009
 30
0.0
 11
-55.052112
 21
-28.391009
 31
0.0
  0
LINE
  5
9E1
  8
DETAIL
  6
CONTINUOUS
 62
     5
 10
13.13057499999999
 20
-28.391009
 30
0.0
 11
-12.95603300000001
 21
-28.391009
 31
0.0
  0
LINE
  5
9E2
  8
DETAIL
  6
CONTINUOUS
 62
     5
 10
55.22665399999998
 20
-28.391009
 30
0.0
 11
14.58396699999999
 21
-28.391009
 31
0.0
  0
LINE
  5
9E3
  8
DETAIL
  6
CONTINUOUS
 62
     5
 10
-14.363215
 20
17.532785
 30
0.0
 11
-14.40942500000001
 21
17.508991
 31
0.0
  0
LINE
  5
9E4
  8
DETAIL
  6
CONTINUOUS
 62
     5
 10
-14.27983000000001
 20
17.59831199999998
 30
0.0
 11
-14.363215
 21
17.532785
 31
0.0
  0
LINE
  5
9E5
  8
DETAIL
  6
CONTINUOUS
 62
     5
 10
-14.165963
 20
17.696867
 30
0.0
 11
-14.27983000000001
 21
17.59831199999998
 31
0.0
  0
LINE
  5
9E6
  8
DETAIL
  6
CONTINUOUS
 62
     5
 10
-14.02739300000001
 20
17.821289
 30
0.0
 11
-14.165963
 21
17.696867
 31
0.0
  0
LINE
  5
9E7
  8
DETAIL
  6
CONTINUOUS
 62
     5
 10
-13.68272900000001
 20
17.967991
 30
0.0
 11
-14.02739300000001
 21
17.821289
 31
0.0
  0
LINE
  5
9E8
  8
DETAIL
  6
CONTINUOUS
 62
     5
 10
13.17555299999999
 20
45.071925
 30
0.0
 11
13.13057499999999
 21
45.048991
 31
0.0
  0
LINE
  5
9E9
  8
DETAIL
  6
CONTINUOUS
 62
     5
 10
13.25799899999999
 20
45.13649799999998
 30
0.0
 11
13.17555299999999
 21
45.071925
 31
0.0
  0
LINE
  5
9EA
  8
DETAIL
  6
CONTINUOUS
 62
     5
 10
13.37206199999999
 20
45.23511899999999
 30
0.0
 11
13.25799899999999
 21
45.13649799999998
 31
0.0
  0
LINE
  5
9EB
  8
DETAIL
  6
CONTINUOUS
 62
     5
 10
13.51269399999999
 20
45.361368
 30
0.0
 11
13.37206199999999
 21
45.23511899999999
 31
0.0
  0
LINE
  5
9EC
  8
DETAIL
  6
CONTINUOUS
 62
     5
 10
13.85727099999999
 20
45.50799099999998
 30
0.0
 11
13.51269399999999
 21
45.361368
 31
0.0
  0
LINE
  5
9ED
  8
DETAIL
  6
CONTINUOUS
 62
     5
 10
14.48193999999999
 20
46.776878
 30
0.0
 11
14.56150699999999
 21
46.874403
 31
0.0
  0
LINE
  5
9EE
  8
DETAIL
  6
CONTINUOUS
 62
     5
 10
14.36327899999999
 20
46.642839
 30
0.0
 11
14.48193999999999
 21
46.776878
 31
0.0
  0
LINE
  5
9EF
  8
DETAIL
  6
CONTINUOUS
 62
     5
 10
14.21500499999999
 20
46.480448
 30
0.0
 11
14.36327899999999
 21
46.642839
 31
0.0
  0
LINE
  5
9F0
  8
DETAIL
  6
CONTINUOUS
 62
     5
 10
13.85727099999999
 20
46.29200899999999
 30
0.0
 11
14.21500499999999
 21
46.480448
 31
0.0
  0
LINE
  5
9F1
  8
DETAIL
  6
CONTINUOUS
 62
     5
 10
-13.056815
 20
19.23832699999999
 30
0.0
 11
-12.978493
 21
19.334403
 31
0.0
  0
LINE
  5
9F2
  8
DETAIL
  6
CONTINUOUS
 62
     5
 10
-13.174944
 20
19.104808
 30
0.0
 11
-13.056815
 21
19.23832699999999
 31
0.0
  0
LINE
  5
9F3
  8
DETAIL
  6
CONTINUOUS
 62
     5
 10
-13.32473100000001
 20
18.94073599999998
 30
0.0
 11
-13.174944
 21
19.104808
 31
0.0
  0
LINE
  5
9F4
  8
DETAIL
  6
CONTINUOUS
 62
     5
 10
-13.68272900000001
 20
18.752009
 30
0.0
 11
-13.32473100000001
 21
18.94073599999998
 31
0.0
  0
LINE
  5
9F5
  8
DETAIL
  6
CONTINUOUS
 62
     5
 10
-12.95633800000001
 20
28.554595
 30
0.0
 11
-12.94832900000001
 21
28.598233
 31
0.0
  0
LINE
  5
9F6
  8
DETAIL
  6
CONTINUOUS
 62
     5
 10
-12.978493
 20
28.514403
 30
0.0
 11
-12.95633800000001
 21
28.554595
 31
0.0
  0
LINE
  5
9F7
  8
DETAIL
  6
CONTINUOUS
 62
     5
 10
-14.38696400000001
 20
-35.745597
 30
0.0
 11
-14.30744500000001
 21
-35.84306699999999
 31
0.0
  0
LINE
  5
9F8
  8
DETAIL
  6
CONTINUOUS
 62
     5
 10
-14.04053100000001
 20
-36.139476
 30
0.0
 11
-13.68272900000001
 21
-36.32799099999999
 31
0.0
  0
LINE
  5
9F9
  8
DETAIL
  6
CONTINUOUS
 62
     5
 10
-14.188759
 20
-35.977136
 30
0.0
 11
-14.04053100000001
 21
-36.139476
 31
0.0
  0
LINE
  5
9FA
  8
DETAIL
  6
CONTINUOUS
 62
     5
 10
-14.30744500000001
 20
-35.84306699999999
 30
0.0
 11
-14.188759
 21
-35.977136
 31
0.0
  0
LINE
  5
9FB
  8
DETAIL
  6
CONTINUOUS
 62
     5
 10
14.20193499999999
 20
-46.438711
 30
0.0
 11
13.85727099999999
 21
-46.29200899999999
 31
0.0
  0
LINE
  5
9FC
  8
DETAIL
  6
CONTINUOUS
 62
     5
 10
14.34050499999998
 20
-46.56313299999999
 30
0.0
 11
14.20193499999999
 21
-46.438711
 31
0.0
  0
LINE
  5
9FD
  8
DETAIL
  6
CONTINUOUS
 62
     5
 10
14.45437199999999
 20
-46.661688
 30
0.0
 11
14.34050499999998
 21
-46.56313299999999
 31
0.0
  0
LINE
  5
9FE
  8
DETAIL
  6
CONTINUOUS
 62
     5
 10
14.53775699999998
 20
-46.727215
 30
0.0
 11
14.45437199999999
 21
-46.661688
 31
0.0
  0
LINE
  5
9FF
  8
DETAIL
  6
CONTINUOUS
 62
     5
 10
14.58396699999999
 20
-46.751009
 30
0.0
 11
14.53775699999998
 21
-46.727215
 31
0.0
  0
LINE
  5
A00
  8
DETAIL
  6
CONTINUOUS
 62
     5
 10
-13.33877500000001
 20
-28.07806799999999
 30
0.0
 11
-13.68272900000001
 21
-27.932009
 31
0.0
  0
LINE
  5
A01
  8
DETAIL
  6
CONTINUOUS
 62
     5
 10
-13.19798500000001
 20
-28.20447
 30
0.0
 11
-13.33877500000001
 21
-28.07806799999999
 31
0.0
  0
LINE
  5
A02
  8
DETAIL
  6
CONTINUOUS
 62
     5
 10
-13.083729
 20
-28.30327399999999
 30
0.0
 11
-13.19798500000001
 21
-28.20447
 31
0.0
  0
LINE
  5
A03
  8
DETAIL
  6
CONTINUOUS
 62
     5
 10
-13.00142800000001
 20
-28.36778499999999
 30
0.0
 11
-13.083729
 21
-28.30327399999999
 31
0.0
  0
LINE
  5
A04
  8
DETAIL
  6
CONTINUOUS
 62
     5
 10
-12.95603300000001
 20
-28.391009
 30
0.0
 11
-13.00142800000001
 21
-28.36778499999999
 31
0.0
  0
LINE
  5
A05
  8
DETAIL
  6
CONTINUOUS
 62
     5
 10
14.59167099999999
 20
-34.420363
 30
0.0
 11
54.70827099999999
 21
-34.420363
 31
0.0
  0
LINE
  5
A06
  8
DETAIL
  6
CONTINUOUS
 62
     5
 10
-12.94832900000001
 20
-34.420363
 30
0.0
 11
13.12287099999999
 21
-34.420363
 31
0.0
  0
LINE
  5
A07
  8
DETAIL
  6
CONTINUOUS
 62
     5
 10
-54.53372900000002
 20
-34.420363
 30
0.0
 11
-14.41712900000001
 21
-34.420363
 31
0.0
  0
LINE
  5
A08
  8
DETAIL
  6
CONTINUOUS
 62
     5
 10
54.70827099999999
 20
-35.27650399999998
 30
0.0
 11
55.16727099999999
 21
-35.27650399999998
 31
0.0
  0
LINE
  5
A09
  8
DETAIL
  6
CONTINUOUS
 62
     5
 10
-54.99272900000001
 20
-35.27650399999998
 30
0.0
 11
-54.53372900000002
 21
-35.27650399999998
 31
0.0
  0
LINE
  5
A0A
  8
DETAIL
  6
CONTINUOUS
 62
     5
 10
-14.38696400000001
 20
-35.745597
 30
0.0
 11
-55.090743
 21
-35.745597
 31
0.0
  0
LINE
  5
A0B
  8
DETAIL
  6
CONTINUOUS
 62
     5
 10
13.15303599999999
 20
-35.745597
 30
0.0
 11
-12.978493
 21
-35.745597
 31
0.0
  0
LINE
  5
A0C
  8
DETAIL
  6
CONTINUOUS
 62
     5
 10
55.26531299999998
 20
-35.745597
 30
0.0
 11
14.56150699999999
 21
-35.745597
 31
0.0
  0
LINE
  5
A0D
  8
DETAIL
  6
CONTINUOUS
 62
     5
 10
-14.363215
 20
26.71278499999999
 30
0.0
 11
-14.40942500000001
 21
26.68899099999999
 31
0.0
  0
LINE
  5
A0E
  8
DETAIL
  6
CONTINUOUS
 62
     5
 10
-14.27983000000001
 20
26.77831199999999
 30
0.0
 11
-14.363215
 21
26.71278499999999
 31
0.0
  0
LINE
  5
A0F
  8
DETAIL
  6
CONTINUOUS
 62
     5
 10
-14.165963
 20
26.87686699999999
 30
0.0
 11
-14.27983000000001
 21
26.77831199999999
 31
0.0
  0
LINE
  5
A10
  8
DETAIL
  6
CONTINUOUS
 62
     5
 10
-14.02739300000001
 20
27.001289
 30
0.0
 11
-14.165963
 21
26.87686699999999
 31
0.0
  0
LINE
  5
A11
  8
DETAIL
  6
CONTINUOUS
 62
     5
 10
-13.68272900000001
 20
27.147991
 30
0.0
 11
-14.02739300000001
 21
27.001289
 31
0.0
  0
LINE
  5
A12
  8
DETAIL
  6
CONTINUOUS
 62
     5
 10
-13.056815
 20
28.418327
 30
0.0
 11
-12.978493
 21
28.514403
 31
0.0
  0
LINE
  5
A13
  8
DETAIL
  6
CONTINUOUS
 62
     5
 10
-13.174944
 20
28.284808
 30
0.0
 11
-13.056815
 21
28.418327
 31
0.0
  0
LINE
  5
A14
  8
DETAIL
  6
CONTINUOUS
 62
     5
 10
-13.32473100000001
 20
28.12073599999999
 30
0.0
 11
-13.174944
 21
28.284808
 31
0.0
  0
LINE
  5
A15
  8
DETAIL
  6
CONTINUOUS
 62
     5
 10
-13.68272900000001
 20
27.932009
 30
0.0
 11
-13.32473100000001
 21
28.12073599999999
 31
0.0
  0
LINE
  5
A16
  8
DETAIL
  6
CONTINUOUS
 62
     5
 10
-13.056815
 20
37.598327
 30
0.0
 11
-12.978493
 21
37.694403
 31
0.0
  0
LINE
  5
A17
  8
DETAIL
  6
CONTINUOUS
 62
     5
 10
-13.174944
 20
37.464808
 30
0.0
 11
-13.056815
 21
37.598327
 31
0.0
  0
LINE
  5
A18
  8
DETAIL
  6
CONTINUOUS
 62
     5
 10
-13.32473100000001
 20
37.300736
 30
0.0
 11
-13.174944
 21
37.464808
 31
0.0
  0
LINE
  5
A19
  8
DETAIL
  6
CONTINUOUS
 62
     5
 10
-13.68272900000001
 20
37.112009
 30
0.0
 11
-13.32473100000001
 21
37.300736
 31
0.0
  0
LINE
  5
A1A
  8
DETAIL
  6
CONTINUOUS
 62
     5
 10
-12.95633800000001
 20
37.73459499999999
 30
0.0
 11
-12.94832900000001
 21
37.778233
 31
0.0
  0
LINE
  5
A1B
  8
DETAIL
  6
CONTINUOUS
 62
     5
 10
-12.978493
 20
37.694403
 30
0.0
 11
-12.95633800000001
 21
37.73459499999999
 31
0.0
  0
LINE
  5
A1C
  8
DETAIL
  6
CONTINUOUS
 62
     5
 10
-12.95633800000001
 20
46.91459499999999
 30
0.0
 11
-12.94832900000001
 21
46.95823299999999
 31
0.0
  0
LINE
  5
A1D
  8
DETAIL
  6
CONTINUOUS
 62
     5
 10
-12.978493
 20
46.874403
 30
0.0
 11
-12.95633800000001
 21
46.91459499999999
 31
0.0
  0
LINE
  5
A1E
  8
DETAIL
  6
CONTINUOUS
 62
     5
 10
-14.38696400000001
 20
-44.925597
 30
0.0
 11
-14.30744500000001
 21
-45.023067
 31
0.0
  0
LINE
  5
A1F
  8
DETAIL
  6
CONTINUOUS
 62
     5
 10
-14.04053100000001
 20
-45.319476
 30
0.0
 11
-13.68272900000001
 21
-45.50799099999998
 31
0.0
  0
LINE
  5
A20
  8
DETAIL
  6
CONTINUOUS
 62
     5
 10
-14.188759
 20
-45.157136
 30
0.0
 11
-14.04053100000001
 21
-45.319476
 31
0.0
  0
LINE
  5
A21
  8
DETAIL
  6
CONTINUOUS
 62
     5
 10
-14.30744500000001
 20
-45.023067
 30
0.0
 11
-14.188759
 21
-45.157136
 31
0.0
  0
LINE
  5
A22
  8
DETAIL
  6
CONTINUOUS
 62
     5
 10
-13.33877500000001
 20
-37.258068
 30
0.0
 11
-13.68272900000001
 21
-37.112009
 31
0.0
  0
LINE
  5
A23
  8
DETAIL
  6
CONTINUOUS
 62
     5
 10
-13.19798500000001
 20
-37.38447
 30
0.0
 11
-13.33877500000001
 21
-37.258068
 31
0.0
  0
LINE
  5
A24
  8
DETAIL
  6
CONTINUOUS
 62
     5
 10
-13.083729
 20
-37.483274
 30
0.0
 11
-13.19798500000001
 21
-37.38447
 31
0.0
  0
LINE
  5
A25
  8
DETAIL
  6
CONTINUOUS
 62
     5
 10
-13.00142800000001
 20
-37.547785
 30
0.0
 11
-13.083729
 21
-37.483274
 31
0.0
  0
LINE
  5
A26
  8
DETAIL
  6
CONTINUOUS
 62
     5
 10
-12.95603300000001
 20
-37.57100899999999
 30
0.0
 11
-13.00142800000001
 21
-37.547785
 31
0.0
  0
LINE
  5
A27
  8
DETAIL
  6
CONTINUOUS
 62
     5
 10
55.60739699999998
 20
-36.32799099999999
 30
0.0
 11
-55.43285500000001
 21
-36.32799099999999
 31
0.0
  0
LINE
  5
A28
  8
DETAIL
  6
CONTINUOUS
 62
     5
 10
55.60739399999999
 20
-37.112009
 30
0.0
 11
-55.43285200000001
 21
-37.112009
 31
0.0
  0
LINE
  5
A29
  8
DETAIL
  6
CONTINUOUS
 62
     5
 10
-14.40942500000001
 20
-37.57100899999999
 30
0.0
 11
-55.052112
 21
-37.57100899999999
 31
0.0
  0
LINE
  5
A2A
  8
DETAIL
  6
CONTINUOUS
 62
     5
 10
13.13057499999999
 20
-37.57100899999999
 30
0.0
 11
-12.95603300000001
 21
-37.57100899999999
 31
0.0
  0
LINE
  5
A2B
  8
DETAIL
  6
CONTINUOUS
 62
     5
 10
55.22665399999998
 20
-37.57100899999999
 30
0.0
 11
14.58396699999999
 21
-37.57100899999999
 31
0.0
  0
LINE
  5
A2C
  8
DETAIL
  6
CONTINUOUS
 62
     5
 10
-14.363215
 20
35.89278499999998
 30
0.0
 11
-14.40942500000001
 21
35.86899099999998
 31
0.0
  0
LINE
  5
A2D
  8
DETAIL
  6
CONTINUOUS
 62
     5
 10
-14.27983000000001
 20
35.958312
 30
0.0
 11
-14.363215
 21
35.89278499999998
 31
0.0
  0
LINE
  5
A2E
  8
DETAIL
  6
CONTINUOUS
 62
     5
 10
-14.165963
 20
36.05686699999999
 30
0.0
 11
-14.27983000000001
 21
35.958312
 31
0.0
  0
LINE
  5
A2F
  8
DETAIL
  6
CONTINUOUS
 62
     5
 10
-14.02739300000001
 20
36.181289
 30
0.0
 11
-14.165963
 21
36.05686699999999
 31
0.0
  0
LINE
  5
A30
  8
DETAIL
  6
CONTINUOUS
 62
     5
 10
-13.68272900000001
 20
36.32799099999999
 30
0.0
 11
-14.02739300000001
 21
36.181289
 31
0.0
  0
LINE
  5
A31
  8
DETAIL
  6
CONTINUOUS
 62
     5
 10
-14.363215
 20
45.07278499999999
 30
0.0
 11
-14.40942500000001
 21
45.048991
 31
0.0
  0
LINE
  5
A32
  8
DETAIL
  6
CONTINUOUS
 62
     5
 10
-14.27983000000001
 20
45.138312
 30
0.0
 11
-14.363215
 21
45.07278499999999
 31
0.0
  0
LINE
  5
A33
  8
DETAIL
  6
CONTINUOUS
 62
     5
 10
-14.165963
 20
45.23686699999998
 30
0.0
 11
-14.27983000000001
 21
45.138312
 31
0.0
  0
LINE
  5
A34
  8
DETAIL
  6
CONTINUOUS
 62
     5
 10
-14.02739300000001
 20
45.361289
 30
0.0
 11
-14.165963
 21
45.23686699999998
 31
0.0
  0
LINE
  5
A35
  8
DETAIL
  6
CONTINUOUS
 62
     5
 10
-13.68272900000001
 20
45.50799099999998
 30
0.0
 11
-14.02739300000001
 21
45.361289
 31
0.0
  0
LINE
  5
A36
  8
DETAIL
  6
CONTINUOUS
 62
     5
 10
-13.056815
 20
46.77832699999999
 30
0.0
 11
-12.978493
 21
46.874403
 31
0.0
  0
LINE
  5
A37
  8
DETAIL
  6
CONTINUOUS
 62
     5
 10
-13.174944
 20
46.64480799999999
 30
0.0
 11
-13.056815
 21
46.77832699999999
 31
0.0
  0
LINE
  5
A38
  8
DETAIL
  6
CONTINUOUS
 62
     5
 10
-13.32473100000001
 20
46.480736
 30
0.0
 11
-13.174944
 21
46.64480799999999
 31
0.0
  0
LINE
  5
A39
  8
DETAIL
  6
CONTINUOUS
 62
     5
 10
-13.68272900000001
 20
46.29200899999999
 30
0.0
 11
-13.32473100000001
 21
46.480736
 31
0.0
  0
LINE
  5
A3A
  8
DETAIL
  6
CONTINUOUS
 62
     5
 10
-13.33877500000001
 20
-46.438068
 30
0.0
 11
-13.68272900000001
 21
-46.29200899999999
 31
0.0
  0
LINE
  5
A3B
  8
DETAIL
  6
CONTINUOUS
 62
     5
 10
-13.19798500000001
 20
-46.56447
 30
0.0
 11
-13.33877500000001
 21
-46.438068
 31
0.0
  0
LINE
  5
A3C
  8
DETAIL
  6
CONTINUOUS
 62
     5
 10
-13.083729
 20
-46.663274
 30
0.0
 11
-13.19798500000001
 21
-46.56447
 31
0.0
  0
LINE
  5
A3D
  8
DETAIL
  6
CONTINUOUS
 62
     5
 10
-13.00142800000001
 20
-46.72778499999998
 30
0.0
 11
-13.083729
 21
-46.663274
 31
0.0
  0
LINE
  5
A3E
  8
DETAIL
  6
CONTINUOUS
 62
     5
 10
-12.95603300000001
 20
-46.751009
 30
0.0
 11
-13.00142800000001
 21
-46.72778499999998
 31
0.0
  0
LINE
  5
A3F
  8
DETAIL
  6
CONTINUOUS
 62
     5
 10
14.59167099999999
 20
-43.60036299999999
 30
0.0
 11
54.70827099999999
 21
-43.60036299999999
 31
0.0
  0
LINE
  5
A40
  8
DETAIL
  6
CONTINUOUS
 62
     5
 10
-12.94832900000001
 20
-43.60036299999999
 30
0.0
 11
13.12287099999999
 21
-43.60036299999999
 31
0.0
  0
LINE
  5
A41
  8
DETAIL
  6
CONTINUOUS
 62
     5
 10
-54.53372900000002
 20
-43.60036299999999
 30
0.0
 11
-14.41712900000001
 21
-43.60036299999999
 31
0.0
  0
LINE
  5
A42
  8
DETAIL
  6
CONTINUOUS
 62
     5
 10
54.70827099999999
 20
-44.45650399999999
 30
0.0
 11
55.16727099999999
 21
-44.45650399999999
 31
0.0
  0
LINE
  5
A43
  8
DETAIL
  6
CONTINUOUS
 62
     5
 10
-54.99272900000001
 20
-44.45650399999999
 30
0.0
 11
-54.53372900000002
 21
-44.45650399999999
 31
0.0
  0
LINE
  5
A44
  8
DETAIL
  6
CONTINUOUS
 62
     5
 10
-14.38696400000001
 20
-44.925597
 30
0.0
 11
-54.99272900000001
 21
-44.925597
 31
0.0
  0
LINE
  5
A45
  8
DETAIL
  6
CONTINUOUS
 62
     5
 10
13.15303599999999
 20
-44.925597
 30
0.0
 11
-12.978493
 21
-44.925597
 31
0.0
  0
LINE
  5
A46
  8
DETAIL
  6
CONTINUOUS
 62
     5
 10
55.26528199999998
 20
-44.925597
 30
0.0
 11
14.56150699999999
 21
-44.925597
 31
0.0
  0
LINE
  5
A47
  8
DETAIL
  6
CONTINUOUS
 62
     5
 10
55.60739699999998
 20
-45.50799099999998
 30
0.0
 11
-55.43285500000001
 21
-45.50799099999998
 31
0.0
  0
LINE
  5
A48
  8
DETAIL
  6
CONTINUOUS
 62
     5
 10
55.60739399999999
 20
-46.29200899999999
 30
0.0
 11
-55.43285200000001
 21
-46.29200899999999
 31
0.0
  0
LINE
  5
A49
  8
DETAIL
  6
CONTINUOUS
 62
     5
 10
-14.40942500000001
 20
-46.751009
 30
0.0
 11
-55.052112
 21
-46.751009
 31
0.0
  0
LINE
  5
A4A
  8
DETAIL
  6
CONTINUOUS
 62
     5
 10
13.13057499999999
 20
-46.751009
 30
0.0
 11
-12.95603300000001
 21
-46.751009
 31
0.0
  0
LINE
  5
A4B
  8
DETAIL
  6
CONTINUOUS
 62
     5
 10
55.22665399999998
 20
-46.751009
 30
0.0
 11
14.58396699999999
 21
-46.751009
 31
0.0
  0
LINE
  5
A4C
  8
DETAIL
  6
CONTINUOUS
 62
     5
 10
-49.29613700000002
 20
-55.87548599999998
 30
0.0
 11
-49.564677
 21
-55.859488
 31
0.0
  0
LINE
  5
A4D
  8
DETAIL
  6
CONTINUOUS
 62
     5
 10
-49.02573100000001
 20
-55.880871
 30
0.0
 11
-49.29613700000002
 21
-55.87548599999998
 31
0.0
  0
LINE
  5
A4E
  8
DETAIL
  6
CONTINUOUS
 62
     5
 10
14.59167099999999
 20
-54.645809
 30
0.0
 11
49.20027099999999
 21
-54.645809
 31
0.0
  0
LINE
  5
A4F
  8
DETAIL
  6
CONTINUOUS
 62
     5
 10
-12.94832900000001
 20
-54.645809
 30
0.0
 11
13.12287099999999
 21
-54.645809
 31
0.0
  0
LINE
  5
A50
  8
DETAIL
  6
CONTINUOUS
 62
     5
 10
-49.02572900000001
 20
-54.645809
 30
0.0
 11
-14.41712900000001
 21
-54.645809
 31
0.0
  0
LINE
  5
A51
  8
DETAIL
  6
CONTINUOUS
 62
     5
 10
13.12287099999999
 20
-55.10480900000001
 30
0.0
 11
-12.94832900000001
 21
-55.10480900000001
 31
0.0
  0
LINE
  5
A52
  8
DETAIL
  6
CONTINUOUS
 62
     5
 10
49.20027099999999
 20
-55.10480900000001
 30
0.0
 11
14.59167099999999
 21
-55.10480900000001
 31
0.0
  0
LINE
  5
A53
  8
DETAIL
  6
CONTINUOUS
 62
     5
 10
49.20027299999999
 20
-55.880871
 30
0.0
 11
-49.02573100000001
 21
-55.880871
 31
0.0
  0
LINE
  5
A54
  8
DETAIL
  6
CONTINUOUS
 62
     5
 10
-54.98809000000001
 20
49.322216
 30
0.0
 11
-54.97429600000001
 21
49.554885
 31
0.0
  0
LINE
  5
A55
  8
DETAIL
  6
CONTINUOUS
 62
     5
 10
-54.99272900000001
 20
49.08819099999998
 30
0.0
 11
-54.98809000000001
 21
49.322216
 31
0.0
  0
LINE
  5
A56
  8
DETAIL
  6
CONTINUOUS
 62
     5
 10
-55.76340700000002
 20
49.35855899999999
 30
0.0
 11
-55.74740700000002
 21
49.627139
 31
0.0
  0
LINE
  5
A57
  8
DETAIL
  6
CONTINUOUS
 62
     5
 10
-55.76879200000001
 20
49.088193
 30
0.0
 11
-55.76340700000002
 21
49.35855899999999
 31
0.0
  0
LINE
  5
A58
  8
DETAIL
  6
CONTINUOUS
 62
     5
 10
-54.53372900000002
 20
-46.751009
 30
0.0
 11
-54.53372900000002
 21
-49.13780899999999
 31
0.0
  0
LINE
  5
A59
  8
DETAIL
  6
CONTINUOUS
 62
     5
 10
-54.53372900000002
 20
-37.57100899999999
 30
0.0
 11
-54.53372900000002
 21
-44.45650399999999
 31
0.0
  0
LINE
  5
A5A
  8
DETAIL
  6
CONTINUOUS
 62
     5
 10
-54.53372900000002
 20
-28.391009
 30
0.0
 11
-54.53372900000002
 21
-35.27650399999998
 31
0.0
  0
LINE
  5
A5B
  8
DETAIL
  6
CONTINUOUS
 62
     5
 10
-54.53372900000002
 20
-19.211009
 30
0.0
 11
-54.53372900000002
 21
-26.096504
 31
0.0
  0
LINE
  5
A5C
  8
DETAIL
  6
CONTINUOUS
 62
     5
 10
-54.53372900000002
 20
-10.03100899999999
 30
0.0
 11
-54.53372900000002
 21
-16.916504
 31
0.0
  0
LINE
  5
A5D
  8
DETAIL
  6
CONTINUOUS
 62
     5
 10
-54.53372900000002
 20
-0.8510089999999998
 30
0.0
 11
-54.53372900000002
 21
-7.736503999999998
 31
0.0
  0
LINE
  5
A5E
  8
DETAIL
  6
CONTINUOUS
 62
     5
 10
-54.53372900000002
 20
8.328991
 30
0.0
 11
-54.53372900000002
 21
1.443495999999998
 31
0.0
  0
LINE
  5
A5F
  8
DETAIL
  6
CONTINUOUS
 62
     5
 10
-54.53372900000002
 20
17.508991
 30
0.0
 11
-54.53372900000002
 21
10.62349599999999
 31
0.0
  0
LINE
  5
A60
  8
DETAIL
  6
CONTINUOUS
 62
     5
 10
-54.53372900000002
 20
26.68899099999999
 30
0.0
 11
-54.53372900000002
 21
19.803496
 31
0.0
  0
LINE
  5
A61
  8
DETAIL
  6
CONTINUOUS
 62
     5
 10
-54.53372900000002
 20
35.86899099999998
 30
0.0
 11
-54.53372900000002
 21
28.98349599999999
 31
0.0
  0
LINE
  5
A62
  8
DETAIL
  6
CONTINUOUS
 62
     5
 10
-54.53372900000002
 20
45.048991
 30
0.0
 11
-54.53372900000002
 21
38.163496
 31
0.0
  0
LINE
  5
A63
  8
DETAIL
  6
CONTINUOUS
 62
     5
 10
-54.53372900000002
 20
49.08819099999998
 30
0.0
 11
-54.53372900000002
 21
47.343496
 31
0.0
  0
LINE
  5
A64
  8
DETAIL
  6
CONTINUOUS
 62
     5
 10
-54.99272900000001
 20
-49.13780899999999
 30
0.0
 11
-54.99272900000001
 21
-46.751009
 31
0.0
  0
LINE
  5
A65
  8
DETAIL
  6
CONTINUOUS
 62
     5
 10
-54.99272900000001
 20
49.08819099999998
 30
0.0
 11
-54.99272900000001
 21
47.066889
 31
0.0
  0
LINE
  5
A66
  8
DETAIL
  6
CONTINUOUS
 62
     5
 10
-55.43285500000001
 20
46.29200899999999
 30
0.0
 11
-55.43285200000001
 21
45.50799099999998
 31
0.0
  0
LINE
  5
A67
  8
DETAIL
  6
CONTINUOUS
 62
     5
 10
-55.76879200000001
 20
-49.13781199999998
 30
0.0
 11
-55.76879200000001
 21
49.088193
 31
0.0
  0
LINE
  5
A68
  8
DETAIL
  6
CONTINUOUS
 62
     5
 10
-54.84854600000001
 20
-50.42638400000001
 30
0.0
 11
-54.84552299999999
 21
-50.453398
 31
0.0
  0
LINE
  5
A69
  8
DETAIL
  6
CONTINUOUS
 62
     5
 10
-55.71665000000002
 20
-50.01545499999998
 30
0.0
 11
-55.74740700000002
 21
-49.676758
 31
0.0
  0
LINE
  5
A6A
  8
DETAIL
  6
CONTINUOUS
 62
     5
 10
-55.66088500000001
 20
-50.394511
 30
0.0
 11
-55.71665000000002
 21
-50.01545499999998
 31
0.0
  0
LINE
  5
A6B
  8
DETAIL
  6
CONTINUOUS
 62
     5
 10
-55.57352900000001
 20
-50.809473
 30
0.0
 11
-55.66088500000001
 21
-50.394511
 31
0.0
  0
LINE
  5
A6C
  8
DETAIL
  6
CONTINUOUS
 62
     5
 10
-55.447837
 20
-51.255432
 30
0.0
 11
-55.57352900000001
 21
-50.809473
 31
0.0
  0
LINE
  5
A6D
  8
DETAIL
  6
CONTINUOUS
 62
     5
 10
-55.27685200000001
 20
-51.726916
 30
0.0
 11
-55.447837
 21
-51.255432
 31
0.0
  0
LINE
  5
A6E
  8
DETAIL
  6
CONTINUOUS
 62
     5
 10
-55.05317500000001
 20
-52.21840799999999
 30
0.0
 11
-55.27685200000001
 21
-51.726916
 31
0.0
  0
LINE
  5
A6F
  8
DETAIL
  6
CONTINUOUS
 62
     5
 10
-54.76549700000002
 20
-52.73030600000002
 30
0.0
 11
-55.05317500000001
 21
-52.21840799999999
 31
0.0
  0
LINE
  5
A70
  8
DETAIL
  6
CONTINUOUS
 62
     5
 10
-54.39826000000002
 20
-53.26231899999999
 30
0.0
 11
-54.76549700000002
 21
-52.73030600000002
 31
0.0
  0
LINE
  5
A71
  8
DETAIL
  6
CONTINUOUS
 62
     5
 10
-53.93289100000001
 20
-53.808014
 30
0.0
 11
-54.39826000000002
 21
-53.26231899999999
 31
0.0
  0
LINE
  5
A72
  8
DETAIL
  6
CONTINUOUS
 62
     5
 10
-53.35595300000001
 20
-54.34666599999999
 30
0.0
 11
-53.93289100000001
 21
-53.808014
 31
0.0
  0
LINE
  5
A73
  8
DETAIL
  6
CONTINUOUS
 62
     5
 10
-52.65147100000002
 20
-54.85679499999999
 30
0.0
 11
-53.35595300000001
 21
-54.34666599999999
 31
0.0
  0
LINE
  5
A74
  8
DETAIL
  6
CONTINUOUS
 62
     5
 10
-51.79541300000002
 20
-55.312362
 30
0.0
 11
-52.65147100000002
 21
-54.85679499999999
 31
0.0
  0
LINE
  5
A75
  8
DETAIL
  6
CONTINUOUS
 62
     5
 10
-50.77039400000001
 20
-55.66734399999999
 30
0.0
 11
-51.79541300000002
 21
-55.312362
 31
0.0
  0
LINE
  5
A76
  8
DETAIL
  6
CONTINUOUS
 62
     5
 10
-49.564677
 20
-55.859486
 30
0.0
 11
-50.77039400000001
 21
-55.66734399999999
 31
0.0
  0
LINE
  5
A77
  8
DETAIL
  6
CONTINUOUS
 62
     5
 10
-61.46734500000002
 20
-54.517297
 30
0.0
 11
-61.51288
 21
-53.814032
 31
0.0
  0
LINE
  5
A78
  8
DETAIL
  6
CONTINUOUS
 62
     5
 10
-61.34759100000002
 20
-55.27871199999999
 30
0.0
 11
-61.46734500000002
 21
-54.517297
 31
0.0
  0
LINE
  5
A79
  8
DETAIL
  6
CONTINUOUS
 62
     5
 10
-61.13094100000001
 20
-56.104091
 30
0.0
 11
-61.34759100000002
 21
-55.27871199999999
 31
0.0
  0
LINE
  5
A7A
  8
DETAIL
  6
CONTINUOUS
 62
     5
 10
-60.78996299999999
 20
-56.983934
 30
0.0
 11
-61.13094100000001
 21
-56.104091
 31
0.0
  0
LINE
  5
A7B
  8
DETAIL
  6
CONTINUOUS
 62
     5
 10
-60.30529600000002
 20
-57.883688
 30
0.0
 11
-60.78996299999999
 21
-56.983934
 31
0.0
  0
LINE
  5
A7C
  8
DETAIL
  6
CONTINUOUS
 62
     5
 10
-59.66151200000002
 20
-58.773081
 30
0.0
 11
-60.30529600000002
 21
-57.883688
 31
0.0
  0
LINE
  5
A7D
  8
DETAIL
  6
CONTINUOUS
 62
     5
 10
-58.858822
 20
-59.602949
 30
0.0
 11
-59.66151200000002
 21
-58.773081
 31
0.0
  0
LINE
  5
A7E
  8
DETAIL
  6
CONTINUOUS
 62
     5
 10
-58.02388500000001
 20
-60.25325600000001
 30
0.0
 11
-58.858822
 21
-59.602949
 31
0.0
  0
LINE
  5
A7F
  8
DETAIL
  6
CONTINUOUS
 62
     5
 10
-57.20560900000001
 20
-60.73948299999999
 30
0.0
 11
-58.02388500000001
 21
-60.25325600000001
 31
0.0
  0
LINE
  5
A80
  8
DETAIL
  6
CONTINUOUS
 62
     5
 10
-56.41162000000001
 20
-61.09549699999998
 30
0.0
 11
-57.20560900000001
 21
-60.73948299999999
 31
0.0
  0
LINE
  5
A81
  8
DETAIL
  6
CONTINUOUS
 62
     5
 10
-55.65734800000001
 20
-61.34222900000001
 30
0.0
 11
-56.41162000000001
 21
-61.09549699999998
 31
0.0
  0
LINE
  5
A82
  8
DETAIL
  6
CONTINUOUS
 62
     5
 10
-54.95430900000002
 20
-61.500555
 30
0.0
 11
-55.65734800000001
 21
-61.34222900000001
 31
0.0
  0
LINE
  5
A83
  8
DETAIL
  6
CONTINUOUS
 62
     5
 10
-54.304109
 20
-61.589786
 30
0.0
 11
-54.95430900000002
 21
-61.500555
 31
0.0
  0
LINE
  5
A84
  8
DETAIL
  6
CONTINUOUS
 62
     5
 10
-53.70195099999999
 20
-61.624961
 30
0.0
 11
-54.304109
 21
-61.589786
 31
0.0
  0
LINE
  5
A85
  8
DETAIL
  6
CONTINUOUS
 62
     5
 10
-53.54553000000001
 20
-61.625414
 30
0.0
 11
-53.70195099999999
 21
-61.62495999999999
 31
0.0
  0
LINE
  5
A86
  8
DETAIL
  6
CONTINUOUS
 62
     5
 10
53.87649299999997
 20
-61.62495999999999
 30
0.0
 11
-53.54553000000001
 21
-61.625414
 31
0.0
  0
LINE
  5
A87
  8
DETAIL
  6
CONTINUOUS
 62
     5
 10
49.43432899999998
 20
-55.100169
 30
0.0
 11
49.20027099999999
 21
-55.10480900000001
 31
0.0
  0
LINE
  5
A88
  8
DETAIL
  6
CONTINUOUS
 62
     5
 10
49.66696599999999
 20
-55.086377
 30
0.0
 11
49.43432899999998
 21
-55.100169
 31
0.0
  0
LINE
  5
A89
  8
DETAIL
  6
CONTINUOUS
 62
     5
 10
49.47067699999999
 20
-55.87548599999998
 30
0.0
 11
49.20027299999999
 21
-55.880871
 31
0.0
  0
LINE
  5
A8A
  8
DETAIL
  6
CONTINUOUS
 62
     5
 10
49.73921899999998
 20
-55.859488
 30
0.0
 11
49.47067699999999
 21
-55.87548599999998
 31
0.0
  0
LINE
  5
A8B
  8
DETAIL
  6
CONTINUOUS
 62
     5
 10
50.73474999999998
 20
-54.90384
 30
0.0
 11
49.66696399999999
 21
-55.08635899999998
 31
0.0
  0
LINE
  5
A8C
  8
DETAIL
  6
CONTINUOUS
 62
     5
 10
-55.01889799999999
 20
46.965406
 30
0.0
 11
-55.090743
 21
46.874403
 31
0.0
  0
LINE
  5
A8D
  8
DETAIL
  6
CONTINUOUS
 62
     5
 10
-54.99272900000001
 20
47.066889
 30
0.0
 11
-55.01889799999999
 21
46.965406
 31
0.0
  0
LINE
  5
A8E
  8
DETAIL
  6
CONTINUOUS
 62
     5
 10
-54.69401100000001
 20
50.95205599999999
 30
0.0
 11
-54.54022800000001
 21
51.36753099999999
 31
0.0
  0
LINE
  5
A8F
  8
DETAIL
  6
CONTINUOUS
 62
     5
 10
-54.80848500000003
 20
50.558219
 30
0.0
 11
-54.69401100000001
 21
50.95205599999999
 31
0.0
  0
LINE
  5
A90
  8
DETAIL
  6
CONTINUOUS
 62
     5
 10
-54.88953100000001
 20
50.191122
 30
0.0
 11
-54.80848500000003
 21
50.558219
 31
0.0
  0
LINE
  5
A91
  8
DETAIL
  6
CONTINUOUS
 62
     5
 10
-55.20298100000002
 20
46.757086
 30
0.0
 11
-55.09077100000001
 21
46.874403
 31
0.0
  0
LINE
  5
A92
  8
DETAIL
  6
CONTINUOUS
 62
     5
 10
-55.31273600000002
 20
46.615393
 30
0.0
 11
-55.20298100000002
 21
46.757086
 31
0.0
  0
LINE
  5
A93
  8
DETAIL
  6
CONTINUOUS
 62
     5
 10
-55.398561
 20
46.458588
 30
0.0
 11
-55.31273600000002
 21
46.615393
 31
0.0
  0
LINE
  5
A94
  8
DETAIL
  6
CONTINUOUS
 62
     5
 10
-55.43285500000001
 20
46.29200899999999
 30
0.0
 11
-55.398561
 21
46.458588
 31
0.0
  0
LINE
  5
A95
  8
DETAIL
  6
CONTINUOUS
 62
     5
 10
-54.94291800000001
 20
49.855309
 30
0.0
 11
-54.88953100000001
 21
50.191122
 31
0.0
  0
LINE
  5
A96
  8
DETAIL
  6
CONTINUOUS
 62
     5
 10
-54.97429700000002
 20
49.554885
 30
0.0
 11
-54.94291800000001
 21
49.855309
 31
0.0
  0
LINE
  5
A97
  8
DETAIL
  6
CONTINUOUS
 62
     5
 10
-50.77040200000001
 20
55.617723
 30
0.0
 11
-49.564677
 21
55.809867
 31
0.0
  0
LINE
  5
A98
  8
DETAIL
  6
CONTINUOUS
 62
     5
 10
-51.79541800000001
 20
55.26274100000001
 30
0.0
 11
-50.77040200000001
 21
55.617723
 31
0.0
  0
LINE
  5
A99
  8
DETAIL
  6
CONTINUOUS
 62
     5
 10
-52.65147500000001
 20
54.807173
 30
0.0
 11
-51.79541800000001
 21
55.26274100000001
 31
0.0
  0
LINE
  5
A9A
  8
DETAIL
  6
CONTINUOUS
 62
     5
 10
-53.35595700000001
 20
54.29704499999999
 30
0.0
 11
-52.65147500000001
 21
54.807173
 31
0.0
  0
LINE
  5
A9B
  8
DETAIL
  6
CONTINUOUS
 62
     5
 10
-53.932892
 20
53.75839299999999
 30
0.0
 11
-53.35595700000001
 21
54.29704499999999
 31
0.0
  0
LINE
  5
A9C
  8
DETAIL
  6
CONTINUOUS
 62
     5
 10
-54.39826200000001
 20
53.212697
 30
0.0
 11
-53.932892
 21
53.75839299999999
 31
0.0
  0
LINE
  5
A9D
  8
DETAIL
  6
CONTINUOUS
 62
     5
 10
-54.76549799999999
 20
52.680685
 30
0.0
 11
-54.39826200000001
 21
53.212697
 31
0.0
  0
LINE
  5
A9E
  8
DETAIL
  6
CONTINUOUS
 62
     5
 10
-55.05317500000001
 20
52.16878799999999
 30
0.0
 11
-54.76549799999999
 21
52.680685
 31
0.0
  0
LINE
  5
A9F
  8
DETAIL
  6
CONTINUOUS
 62
     5
 10
-55.276853
 20
51.67729600000001
 30
0.0
 11
-55.05317500000001
 21
52.16878799999999
 31
0.0
  0
LINE
  5
AA0
  8
DETAIL
  6
CONTINUOUS
 62
     5
 10
-55.447837
 20
51.205812
 30
0.0
 11
-55.276853
 21
51.67729600000001
 31
0.0
  0
LINE
  5
AA1
  8
DETAIL
  6
CONTINUOUS
 62
     5
 10
-55.57352900000001
 20
50.759853
 30
0.0
 11
-55.447837
 21
51.205812
 31
0.0
  0
LINE
  5
AA2
  8
DETAIL
  6
CONTINUOUS
 62
     5
 10
-55.66088500000001
 20
50.344892
 30
0.0
 11
-55.57352900000001
 21
50.759853
 31
0.0
  0
LINE
  5
AA3
  8
DETAIL
  6
CONTINUOUS
 62
     5
 10
-55.71665000000002
 20
49.96583600000001
 30
0.0
 11
-55.66088500000001
 21
50.344892
 31
0.0
  0
LINE
  5
AA4
  8
DETAIL
  6
CONTINUOUS
 62
     5
 10
-55.74740700000002
 20
49.627139
 30
0.0
 11
-55.71665000000002
 21
49.96583600000001
 31
0.0
  0
LINE
  5
AA5
  8
DETAIL
  6
CONTINUOUS
 62
     5
 10
-54.300636
 20
61.5405
 30
0.0
 11
-53.70195099999999
 21
61.575342
 31
0.0
  0
LINE
  5
AA6
  8
DETAIL
  6
CONTINUOUS
 62
     5
 10
-54.94673400000002
 20
61.452288
 30
0.0
 11
-54.300636
 21
61.5405
 31
0.0
  0
LINE
  5
AA7
  8
DETAIL
  6
CONTINUOUS
 62
     5
 10
-55.64532800000001
 20
61.295878
 30
0.0
 11
-54.94673400000002
 21
61.452288
 31
0.0
  0
LINE
  5
AA8
  8
DETAIL
  6
CONTINUOUS
 62
     5
 10
-56.39526500000002
 20
61.052131
 30
0.0
 11
-55.64532800000001
 21
61.295878
 31
0.0
  0
LINE
  5
AA9
  8
DETAIL
  6
CONTINUOUS
 62
     5
 10
-57.18658900000001
 20
60.69965299999999
 30
0.0
 11
-56.39526500000002
 21
61.052131
 31
0.0
  0
LINE
  5
AAA
  8
DETAIL
  6
CONTINUOUS
 62
     5
 10
-58.00792900000001
 20
60.21442099999998
 30
0.0
 11
-57.18658900000001
 21
60.69965299999999
 31
0.0
  0
LINE
  5
AAB
  8
DETAIL
  6
CONTINUOUS
 62
     5
 10
-58.855639
 20
59.556167
 30
0.0
 11
-58.00792900000001
 21
60.21442099999998
 31
0.0
  0
LINE
  5
AAC
  8
DETAIL
  6
CONTINUOUS
 62
     5
 10
-59.67588100000003
 20
58.706187
 30
0.0
 11
-58.855639
 21
59.556167
 31
0.0
  0
LINE
  5
AAD
  8
DETAIL
  6
CONTINUOUS
 62
     5
 10
-60.32227500000001
 20
57.806746
 30
0.0
 11
-59.67588100000003
 21
58.706187
 31
0.0
  0
LINE
  5
AAE
  8
DETAIL
  6
CONTINUOUS
 62
     5
 10
-60.80143600000001
 20
56.909159
 30
0.0
 11
-60.32227500000001
 21
57.806746
 31
0.0
  0
LINE
  5
AAF
  8
DETAIL
  6
CONTINUOUS
 62
     5
 10
-61.136039
 20
56.038508
 30
0.0
 11
-60.80143600000001
 21
56.909159
 31
0.0
  0
LINE
  5
AB0
  8
DETAIL
  6
CONTINUOUS
 62
     5
 10
-61.34935100000001
 20
55.220546
 30
0.0
 11
-61.136039
 21
56.038508
 31
0.0
  0
LINE
  5
AB1
  8
DETAIL
  6
CONTINUOUS
 62
     5
 10
-61.46777900000001
 20
54.463694
 30
0.0
 11
-61.34935100000001
 21
55.220546
 31
0.0
  0
LINE
  5
AB2
  8
DETAIL
  6
CONTINUOUS
 62
     5
 10
-61.51288
 20
53.76441299999999
 30
0.0
 11
-61.46777900000001
 21
54.463694
 31
0.0
  0
LINE
  5
AB3
  8
DETAIL
  6
CONTINUOUS
 62
     5
 10
-61.513333
 20
53.607992
 30
0.0
 11
-61.51288
 21
53.76441299999999
 31
0.0
  0
LINE
  5
AB4
  8
DETAIL
  6
CONTINUOUS
 62
     5
 10
-61.51288
 20
-53.814032
 30
0.0
 11
-61.513333
 21
53.607992
 31
0.0
  0
LINE
  5
AB5
  8
DETAIL
  6
CONTINUOUS
 62
     5
 10
-55.76340700000002
 20
-49.40817
 30
0.0
 11
-55.76879200000001
 21
-49.13781199999998
 31
0.0
  0
LINE
  5
AB6
  8
DETAIL
  6
CONTINUOUS
 62
     5
 10
-55.74740700000002
 20
-49.676758
 30
0.0
 11
-55.76340700000002
 21
-49.40817
 31
0.0
  0
LINE
  5
AB7
  8
DETAIL
  6
CONTINUOUS
 62
     5
 10
-50.43315700000002
 20
54.875939
 30
0.0
 11
-51.56104400000001
 21
54.48210200000001
 31
0.0
  0
LINE
  5
AB8
  8
DETAIL
  6
CONTINUOUS
 62
     5
 10
-52.21851900000001
 20
54.12869
 30
0.0
 11
-51.56104400000001
 21
54.48210200000001
 31
0.0
  0
LINE
  5
AB9
  8
DETAIL
  6
CONTINUOUS
 62
     5
 10
-54.08468400000001
 20
52.251676
 30
0.0
 11
-53.75916299999999
 21
52.720824
 31
0.0
  0
LINE
  5
ABA
  8
DETAIL
  6
CONTINUOUS
 62
     5
 10
-54.34051500000001
 20
51.800423
 30
0.0
 11
-54.08468400000001
 21
52.251676
 31
0.0
  0
LINE
  5
ABB
  8
DETAIL
  6
CONTINUOUS
 62
     5
 10
-54.54022800000001
 20
51.36753099999999
 30
0.0
 11
-54.34051500000001
 21
51.800423
 31
0.0
  0
LINE
  5
ABC
  8
DETAIL
  6
CONTINUOUS
 62
     5
 10
-54.84552299999999
 20
50.403779
 30
0.0
 11
-54.84854600000001
 21
50.37676499999999
 31
0.0
  0
LINE
  5
ABD
  8
DETAIL
  6
CONTINUOUS
 62
     5
 10
-53.68300500000002
 20
-52.86767
 30
0.0
 11
-53.63529300000001
 21
-52.91538899999999
 31
0.0
  0
LINE
  5
ABE
  8
DETAIL
  6
CONTINUOUS
 62
     5
 10
-52.78315600000001
 20
-53.767654
 30
0.0
 11
-52.75628100000002
 21
-53.79453299999998
 31
0.0
  0
LINE
  5
ABF
  8
DETAIL
  6
CONTINUOUS
 62
     5
 10
-52.75628100000002
 20
53.744914
 30
0.0
 11
-52.78315600000001
 21
53.71803400000001
 31
0.0
  0
LINE
  5
AC0
  8
DETAIL
  6
CONTINUOUS
 62
     5
 10
-52.83970700000001
 20
53.676906
 30
0.0
 11
-52.21851900000001
 21
54.12869
 31
0.0
  0
LINE
  5
AC1
  8
DETAIL
  6
CONTINUOUS
 62
     5
 10
-53.63529300000001
 20
52.86577
 30
0.0
 11
-53.68300500000002
 21
52.818052
 31
0.0
  0
LINE
  5
AC2
  8
DETAIL
  6
CONTINUOUS
 62
     5
 10
-53.34814600000001
 20
53.201777
 30
0.0
 11
-52.83970700000001
 21
53.676906
 31
0.0
  0
LINE
  5
AC3
  8
DETAIL
  6
CONTINUOUS
 62
     5
 10
-53.75916299999999
 20
52.720824
 30
0.0
 11
-53.34814600000001
 21
53.201777
 31
0.0
  0
LINE
  5
AC4
  8
DETAIL
  6
CONTINUOUS
 62
     5
 10
52.39306099999999
 20
54.178309
 30
0.0
 11
51.63873599999999
 21
54.583781
 31
0.0
  0
LINE
  5
AC5
  8
DETAIL
  6
CONTINUOUS
 62
     5
 10
50.60769899999999
 20
54.875939
 30
0.0
 11
51.73558599999998
 21
54.48210200000001
 31
0.0
  0
LINE
  5
AC6
  8
DETAIL
  6
CONTINUOUS
 62
     5
 10
52.39306099999999
 20
54.12869
 30
0.0
 11
51.73558599999998
 21
54.48210200000001
 31
0.0
  0
ARC
  5
AC7
  8
DETAIL
  6
CONTINUOUS
 62
     5
 10
0.087270999999987
 20
80.5
 30
0.0
 40
7.5
 50
36.86989799999995
 51
143.130102
  0
ARC
  5
AC8
  8
OUTLINE
  6
CONTINUOUS
 62
     3
 10
0.087270999999987
 20
80.5
 30
0.0
 40
7.5
 50
36.86989799999995
 51
143.130102
  0
LINE
  5
AC9
  8
OUTLINE
  6
CONTINUOUS
 62
     3
 10
6.087270999999987
 20
85.0
 30
0.0
 11
75.08727099999999
 21
85.0
 31
0.0
  0
ARC
  5
ACA
  8
DETAIL
  6
CONTINUOUS
 62
     5
 10
0.087270999999987
 20
-80.5
 30
0.0
 40
7.5
 50
216.8698979999999
 51
323.130102
  0
ARC
  5
ACB
  8
OUTLINE
  6
CONTINUOUS
 62
     3
 10
0.087270999999987
 20
-80.5
 30
0.0
 40
7.5
 50
216.8698979999999
 51
323.130102
  0
LINE
  5
ACC
  8
OUTLINE
  6
CONTINUOUS
 62
     3
 10
6.087270999999987
 20
-85.0
 30
0.0
 11
75.08727099999999
 21
-85.0
 31
0.0
  0
LINE
  5
ACD
  8
SIZE
  6
CONTINUOUS
 62
    30
 10
20.08727099999999
 20
88.0
 30
0.0
 11
295.1331369999998
 21
88.0
 31
0.0
  0
LINE
  5
ACE
  8
SIZE
  6
CONTINUOUS
 62
    30
 10
20.08727099999999
 20
-88.0
 30
0.0
 11
295.1331369999998
 21
-88.0
 31
0.0
  0
LINE
  5
ACF
  8
SIZE
  6
CONTINUOUS
 62
    30
 10
265.1331369999998
 20
86.0
 30
0.0
 11
265.1331369999998
 21
-86.0
 31
0.0
  0
TEXT
  5
AD0
  8
SIZE
  6
CONTINUOUS
 62
    30
 10
247.7675689999999
 20
-74.444404
 30
0.0
 40
64.0
  1
176
 50
90.0
 41
0.9
 72
     1
 11
247.7675689999999
 21
1.097995999999999
 31
0.0
  0
CIRCLE
  5
AD1
  8
SIZE
  6
CONTINUOUS
 62
    30
 10
265.1331369999998
 20
88.0
 30
0.0
 40
6.0
  0
CIRCLE
  5
AD2
  8
SIZE
  6
CONTINUOUS
 62
    30
 10
265.1331369999998
 20
-88.0
 30
0.0
 40
6.0
  0
POINT
  5
AD3
  8
DEFPOINTS
  6
CONTINUOUS
 62
    30
 10
0.087270999999987
 20
88.0
 30
0.0
  0
POINT
  5
AD4
  8
DEFPOINTS
  6
CONTINUOUS
 62
    30
 10
0.087270999999987
 20
-88.0
 30
0.0
  0
TEXT
  5
AD6
  8
ETC
  6
CONTINUOUS
 62
    61
 10
321.0247927788519
 20
315.4689352660216
 30
0.0
 40
50.0
  1
P-13GLF5_5
 41
0.9
  0
TEXT
  5
AD7
  8
ETC
  6
CONTINUOUS
 62
    61
 10
486.9090423222488
 20
110.2209252388903
 30
0.0
 40
40.0
  1
P-13GLF5
 41
0.9
  0
TEXT
  5
AD8
  8
ETC
  6
CONTINUOUS
 62
    61
 10
486.9090423222488
 20
47.04533402273965
 30
0.0
 40
40.0
  1
P-13GLF5-BE
 41
0.9
  0
TEXT
  5
AD9
  8
ETC
  6
CONTINUOUS
 62
    61
 10
482.8130339527492
 20
178.0601055034385
 30
0.0
 40
40.0
  1
P-13GL5
 41
0.9
  0
TEXT
  5
ADA
  8
ETC
  6
CONTINUOUS
 62
    61
 10
313.5432922362671
 20
243.0174676215064
 30
0.0
 40
50.0
  1
システム部材
 41
0.9
  0
LINE
  5
ADC
  8
SIZE
  6
DASHDOT
 62
     6
 10
0.087270999999987
 20
115.6042639999999
 30
0.0
 11
0.087270999999987
 21
-121.3354959999999
 31
0.0
  0
LINE
  5
ADD
  8
SIZE
  6
DASHDOT
 62
     6
 10
-118.45203
 20
0.0
 30
0.0
 11
118.45203
 21
0.0
 31
0.0
  0
CIRCLE
  5
AE2
  8
ARRANGE
  6
CONTINUOUS
 62
     1
 10
0.0
 20
0.0
 30
0.0
 40
40.0
  0
POINT
  5
AE3
  8
ARRANGE
  6
CONTINUOUS
 62
     1
 10
0.0
 20
0.0
 30
0.0
  0
POINT
  5
AE4
  8
ARRANGE
  6
CONTINUOUS
 62
     1
 10
0.0
 20
0.0
 30
0.0
  0
ENDSEC
  0
EOF
