  0
SECTION
  2
HEADER
  9
$ACADVER
  1
AC1009
  9
$INSBASE
 10
0.0
 20
0.0
 30
0.0
  9
$EXTMIN
 10
-135.240837
 20
-124.442858
 30
0.0
  9
$EXTMAX
 10
817.30565175046115
 20
490.2788236194429
 30
0.0
  9
$LIMMIN
 10
-4200.0
 20
-2970.0
  9
$LIMMAX
 10
4200.0
 20
2970.0
  9
$ORTHOMODE
 70
     0
  9
$REGENMODE
 70
     0
  9
$FILLMODE
 70
     1
  9
$QTEXTMODE
 70
     0
  9
$MIRRTEXT
 70
     0
  9
$DRAGMODE
 70
     2
  9
$LTSCALE
 40
20.0
  9
$OSMODE
 70
    40
  9
$ATTMODE
 70
     1
  9
$TEXTSIZE
 40
64.0
  9
$TRACEWID
 40
0.05
  9
$TEXTSTYLE
  7
STANDARD
  9
$CLAYER
  8
0
  9
$CELTYPE
  6
CONTINUOUS
  9
$CECOLOR
 62
     8
  9
$DIMSCALE
 40
1.0
  9
$DIMASZ
 40
2.0
  9
$DIMEXO
 40
20.0
  9
$DIMDLI
 40
200.0
  9
$DIMRND
 40
0.0
  9
$DIMDLE
 40
0.0
  9
$DIMEXE
 40
30.0
  9
$DIMTP
 40
0.0
  9
$DIMTM
 40
0.0
  9
$DIMTXT
 40
64.0
  9
$DIMCEN
 40
0.09
  9
$DIMTSZ
 40
0.0
  9
$DIMTOL
 70
     0
  9
$DIMLIM
 70
     0
  9
$DIMTIH
 70
     0
  9
$DIMTOH
 70
     0
  9
$DIMSE1
 70
     0
  9
$DIMSE2
 70
     0
  9
$DIMTAD
 70
     1
  9
$DIMZIN
 70
     8
  9
$DIMBLK
  1

  9
$DIMASO
 70
     1
  9
$DIMSHO
 70
     0
  9
$DIMPOST
  1

  9
$DIMAPOST
  1

  9
$DIMALT
 70
     0
  9
$DIMALTD
 70
     2
  9
$DIMALTF
 40
25.399999999999999
  9
$DIMLFAC
 40
1.0
  9
$DIMTOFL
 70
     1
  9
$DIMTVP
 40
0.0
  9
$DIMTIX
 70
     1
  9
$DIMSOXD
 70
     0
  9
$DIMSAH
 70
     0
  9
$DIMBLK1
  1

  9
$DIMBLK2
  1

  9
$DIMSTYLE
  2
STANDARD
  9
$DIMCLRD
 70
     0
  9
$DIMCLRE
 70
     0
  9
$DIMCLRT
 70
     0
  9
$DIMTFAC
 40
1.0
  9
$DIMGAP
 40
0.09
  9
$LUNITS
 70
     2
  9
$LUPREC
 70
     4
  9
$SKETCHINC
 40
0.1
  9
$FILLETRAD
 40
10.0
  9
$AUNITS
 70
     1
  9
$AUPREC
 70
     3
  9
$MENU
  1
ACAD
  9
$ELEVATION
 40
0.0
  9
$PELEVATION
 40
0.0
  9
$THICKNESS
 40
0.0
  9
$LIMCHECK
 70
     1
  9
$BLIPMODE
 70
     0
  9
$CHAMFERA
 40
0.0
  9
$CHAMFERB
 40
0.0
  9
$SKPOLY
 70
     0
  9
$TDCREATE
 40
2451796.696226852
  9
$TDUPDATE
 40
2453462.8538158219
  9
$TDINDWG
 40
0.0039369907
  9
$TDUSRTIMER
 40
0.0039366319
  9
$USRTIMER
 70
     1
  9
$ANGBASE
 50
0.0
  9
$ANGDIR
 70
     0
  9
$PDMODE
 70
     3
  9
$PDSIZE
 40
-2.0
  9
$PLINEWID
 40
0.0
  9
$COORDS
 70
     2
  9
$SPLFRAME
 70
     0
  9
$SPLINETYPE
 70
     6
  9
$SPLINESEGS
 70
     8
  9
$ATTDIA
 70
     0
  9
$ATTREQ
 70
     1
  9
$HANDLING
 70
 22529
  9
$HANDSEED
  5
1F2
  9
$SURFTAB1
 70
     6
  9
$SURFTAB2
 70
     6
  9
$SURFTYPE
 70
     6
  9
$SURFU
 70
     6
  9
$SURFV
 70
     6
  9
$UCSNAME
  2

  9
$UCSORG
 10
0.0
 20
0.0
 30
0.0
  9
$UCSXDIR
 10
1.0
 20
0.0
 30
0.0
  9
$UCSYDIR
 10
0.0
 20
1.0
 30
0.0
  9
$PUCSNAME
  2

  9
$PUCSORG
 10
0.0
 20
0.0
 30
0.0
  9
$PUCSXDIR
 10
1.0
 20
0.0
 30
0.0
  9
$PUCSYDIR
 10
0.0
 20
1.0
 30
0.0
  9
$USERI1
 70
     0
  9
$USERI2
 70
     0
  9
$USERI3
 70
     0
  9
$USERI4
 70
     0
  9
$USERI5
 70
     0
  9
$USERR1
 40
20.0
  9
$USERR2
 40
0.0
  9
$USERR3
 40
0.0
  9
$USERR4
 40
0.0
  9
$USERR5
 40
0.0
  9
$WORLDVIEW
 70
     1
  9
$SHADEDGE
 70
     3
  9
$SHADEDIF
 70
    70
  9
$TILEMODE
 70
     1
  9
$MAXACTVP
 70
    64
  9
$PLIMCHECK
 70
     0
  9
$PEXTMIN
 10
1.0000000000000000E+020
 20
1.0000000000000000E+020
 30
1.0000000000000000E+020
  9
$PEXTMAX
 10
-1.0000000000000000E+020
 20
-1.0000000000000000E+020
 30
-1.0000000000000000E+020
  9
$PLIMMIN
 10
0.0
 20
0.0
  9
$PLIMMAX
 10
12.0
 20
9.0
  9
$UNITMODE
 70
     0
  9
$VISRETAIN
 70
     1
  9
$PLINEGEN
 70
     0
  9
$PSLTSCALE
 70
     1
  0
ENDSEC
  0
SECTION
  2
TABLES
  0
TABLE
  2
VPORT
 70
     3
  0
VPORT
  2
*ACTIVE
 70
     0
 10
0.0
 20
0.0
 11
1.0
 21
1.0
 12
314.7170005579228
 22
107.8938680417056
 13
0.0
 23
0.0
 14
400.0
 24
400.0
 15
400.0
 25
400.0
 16
0.0
 26
0.0
 36
1.0
 17
0.0
 27
0.0
 37
0.0
 40
869.40365321344996
 41
1.4423558897243101
 42
50.0
 43
0.0
 44
0.0
 50
0.0
 51
0.0
 71
     0
 72
   500
 73
     1
 74
     0
 75
     0
 76
     0
 77
     0
 78
     0
  0
ENDTAB
  0
TABLE
  2
LTYPE
 70
     7
  0
LTYPE
  2
CONTINUOUS
 70
     0
  3
実線
 72
    65
 73
     0
 40
0.0
  0
LTYPE
  2
DOT
 70
     0
  3
...............................................
 72
    65
 73
     2
 40
0.8
 49
0.5
 49
-0.3
  0
LTYPE
  2
DASHED
 70
     0
  3
_ _ _ _ _ _ _ _ _ _ _ _ _ _ _ _ _ _ _ _ _ _ _
 72
    65
 73
     2
 40
2.0
 49
1.1999999999999991
 49
-0.8
  0
LTYPE
  2
DASHDOT
 70
     0
  3
____ _ ____ _ ____ _ ____ _ ____ _ ____ _ ____
 72
    65
 73
     4
 40
5.5
 49
4.0
 49
-0.6
 49
0.3
 49
-0.6
  0
LTYPE
  2
DASHDOT1
 70
     0
  3
____ _ ____ _ ____ _ ____ _ ____ _ ____ _ ____
 72
    65
 73
     4
 40
2.0
 49
1.5
 49
-0.2
 49
0.1
 49
-0.2
  0
LTYPE
  2
DIVIDE
 70
     0
  3
_____ _ _ _____ _ _ _____ _ _ _____ _ _ ____
 72
    65
 73
     6
 40
6.4000000000000004
 49
4.0
 49
-0.6
 49
0.3
 49
-0.6
 49
0.3
 49
-0.6
  0
LTYPE
  2
DIVIDE1
 70
     0
  3
_____ _ _ _____ _ _ _____ _ _ _____ _ _ ____
 72
    65
 73
     6
 40
3.2000000000000002
 49
2.0
 49
-0.3
 49
0.15
 49
-0.3
 49
0.15
 49
-0.3
  0
ENDTAB
  0
TABLE
  2
LAYER
 70
    12
  0
LAYER
  2
0
 70
     0
 62
     7
  6
CONTINUOUS
  0
LAYER
  2
OUTLINE
 70
     0
 62
     3
  6
CONTINUOUS
  0
LAYER
  2
DETAIL
 70
     0
 62
     5
  6
CONTINUOUS
  0
LAYER
  2
BASIS
 70
     0
 62
     6
  6
DASHDOT
  0
LAYER
  2
SIZE
 70
     0
 62
    30
  6
CONTINUOUS
  0
LAYER
  2
ARRANGE
 70
     0
 62
     1
  6
CONTINUOUS
  0
LAYER
  2
ETC
 70
     0
 62
    61
  6
CONTINUOUS
  0
LAYER
  2
DEFPOINTS
 70
     0
 62
     7
  6
CONTINUOUS
  0
LAYER
  2
NOTE
 70
     0
 62
     4
  6
CONTINUOUS
  0
LAYER
  2
FIX
 70
     0
 62
    11
  6
CONTINUOUS
  0
LAYER
  2
SERVICESPACE
 70
     0
 62
     2
  6
DASHDOT
  0
LAYER
  2
SYMBOLLINE
 70
     0
 62
    15
  6
CONTINUOUS
  0
ENDTAB
  0
TABLE
  2
STYLE
 70
     1
  0
STYLE
  2
STANDARD
 70
     0
 40
0.0
 41
0.9
 50
0.0
 71
     0
 42
64.0
  3
SIMPLEX
  4
BIGFONT
  0
ENDTAB
  0
TABLE
  2
VIEW
 70
     1
  0
VIEW
  2
ALL
 70
     0
 40
6374.9789810000002
 10
0.0
 20
58.11501599999999
 41
8842.1052629999976
 11
0.0
 21
0.0
 31
1.0
 12
0.0
 22
0.0
 32
0.0
 42
50.0
 43
0.0
 44
0.0
 50
0.0
 71
     0
  0
ENDTAB
  0
TABLE
  2
UCS
 70
     0
  0
ENDTAB
  0
TABLE
  2
APPID
 70
     1
  0
APPID
  2
ACAD
 70
     0
  0
ENDTAB
  0
TABLE
  2
DIMSTYLE
 70
     1
  0
DIMSTYLE
  2
STANDARD
 70
     0
  3

  4

  5

  6

  7

 40
1.0
 41
0.18
 42
0.0625
 43
0.38
 44
0.18
 45
0.0
 46
0.0
 47
0.0
 48
0.0
140
0.18
141
0.09
142
0.0
143
25.399999999999999
144
1.0
145
0.0
146
1.0
147
0.09
 71
     0
 72
     0
 73
     1
 74
     1
 75
     0
 76
     0
 77
     0
 78
     0
170
     0
171
     2
172
     0
173
     0
174
     0
175
     0
176
     0
177
     0
178
     0
  0
ENDTAB
  0
ENDSEC
  0
SECTION
  2
BLOCKS
  0
BLOCK
  8
0
  2
$MODEL_SPACE
 70
     0
 10
0.0
 20
0.0
 30
0.0
  3
$MODEL_SPACE
  1

  0
ENDBLK
  5
16E
  8
0
  0
BLOCK
 67
     1
  8
0
  2
$PAPER_SPACE
 70
     0
 10
0.0
 20
0.0
 30
0.0
  3
$PAPER_SPACE
  1

  0
ENDBLK
  5
16A
 67
     1
  8
0
  0
ENDSEC
  0
SECTION
  2
ENTITIES
  0
LINE
  5
18C
  8
BASIS
  6
DASHDOT
 62
     6
 10
-135.240837
 20
0.0
 30
0.0
 11
133.71690099999969
 21
0.0
 31
0.0
  0
LINE
  5
18D
  8
BASIS
  6
DASHDOT
 62
     6
 10
0.0
 20
115.7373809999999
 30
0.0
 11
0.0
 21
-124.442858
 31
0.0
  0
POINT
  5
18E
  8
ARRANGE
  6
CONTINUOUS
 62
     1
 10
0.0
 20
0.0
 30
0.0
  0
CIRCLE
  5
18F
  8
ARRANGE
  6
CONTINUOUS
 62
     1
 10
0.0
 20
0.0
 30
0.0
 40
40.0
  0
CIRCLE
  5
190
  8
DETAIL
  6
CONTINUOUS
 62
     5
 10
0.0
 20
0.0
 30
0.0
 40
48.5
  0
LINE
  5
191
  8
SIZE
  6
CONTINUOUS
 62
    30
 10
48.5
 20
142.4879589999999
 30
0.0
 11
261.66961099999992
 21
142.4879589999999
 31
0.0
  0
ARC
  5
192
  8
DETAIL
  6
CONTINUOUS
 62
     5
 10
0.0
 20
0.0
 30
0.0
 40
79.724727999999999
 50
180.0
 51
0.0
  0
ARC
  5
193
  8
DETAIL
  6
CONTINUOUS
 62
     5
 10
-0.482824
 20
-3.431203
 30
0.0
 40
81.578790999999981
 50
270.3391069999999
 51
2.410571
  0
ARC
  5
194
  8
DETAIL
  6
CONTINUOUS
 62
     5
 10
0.482824
 20
-3.431203
 30
0.0
 40
81.578790999999981
 50
177.589429
 51
269.66089299999999
  0
LINE
  5
195
  8
DETAIL
  6
CONTINUOUS
 62
     5
 10
-78.5
 20
0.0
 30
0.0
 11
-81.023776999999981
 21
0.0
 31
0.0
  0
LINE
  5
196
  8
DETAIL
  6
CONTINUOUS
 62
     5
 10
78.5
 20
0.0
 30
0.0
 11
81.023776999999981
 21
0.0
 31
0.0
  0
LINE
  5
197
  8
OUTLINE
  6
CONTINUOUS
 62
     3
 10
78.5
 20
0.0
 30
0.0
 11
81.023776999999981
 21
0.0
 31
0.0
  0
LINE
  5
198
  8
OUTLINE
  6
CONTINUOUS
 62
     3
 10
-78.5
 20
0.0
 30
0.0
 11
-81.023776999999981
 21
0.0
 31
0.0
  0
ARC
  5
199
  8
OUTLINE
  6
CONTINUOUS
 62
     3
 10
0.482824
 20
-3.431203
 30
0.0
 40
81.578790999999981
 50
177.589429
 51
269.66089299999999
  0
ARC
  5
19A
  8
OUTLINE
  6
CONTINUOUS
 62
     3
 10
-0.482824
 20
-3.431203
 30
0.0
 40
81.578790999999981
 50
270.3391069999999
 51
2.410571
  0
CIRCLE
  5
19B
  8
DETAIL
  6
CONTINUOUS
 62
     5
 10
0.0
 20
0.0
 30
0.0
 40
78.5
  0
ARC
  5
19C
  8
OUTLINE
  6
CONTINUOUS
 62
     3
 10
0.0
 20
0.0
 30
0.0
 40
78.5
 50
0.0
 51
180.0
  0
LINE
  5
19D
  8
SIZE
  6
BYBLOCK
 62
    30
 10
78.5
 20
20.0
 30
0.0
 11
78.5
 21
274.47603099999992
 31
0.0
  0
LINE
  5
19E
  8
SIZE
  6
BYBLOCK
 62
    30
 10
-78.5
 20
20.0
 30
0.0
 11
-78.5
 21
274.47603099999992
 31
0.0
  0
LINE
  5
19F
  8
SIZE
  6
BYBLOCK
 62
    30
 10
-80.5
 20
244.47603099999989
 30
0.0
 11
-82.5
 21
244.47603099999989
 31
0.0
  0
LINE
  5
1A0
  8
SIZE
  6
BYBLOCK
 62
    30
 10
80.5
 20
244.47603099999989
 30
0.0
 11
82.5
 21
244.47603099999989
 31
0.0
  0
LINE
  5
1A1
  8
SIZE
  6
BYBLOCK
 62
    30
 10
-78.5
 20
244.47603099999989
 30
0.0
 11
78.5
 21
244.47603099999989
 31
0.0
  0
TEXT
  5
1A2
  8
SIZE
  6
BYBLOCK
 62
    30
 10
-97.37142900000002
 20
276.47603099999992
 30
0.0
 40
64.0
  1
φ157
 41
0.9
  0
LINE
  5
1A3
  8
SIZE
  6
BYBLOCK
 62
    30
 10
48.5
 20
20.0
 30
0.0
 11
48.5
 21
172.48795899999999
 31
0.0
  0
LINE
  5
1A4
  8
SIZE
  6
BYBLOCK
 62
    30
 10
-48.5
 20
20.0
 30
0.0
 11
-48.5
 21
172.48795899999999
 31
0.0
  0
LINE
  5
1A5
  8
SIZE
  6
BYBLOCK
 62
    30
 10
-50.5
 20
142.4879589999999
 30
0.0
 11
-52.5
 21
142.4879589999999
 31
0.0
  0
LINE
  5
1A6
  8
SIZE
  6
BYBLOCK
 62
    30
 10
50.5
 20
142.4879589999999
 30
0.0
 11
52.5
 21
142.4879589999999
 31
0.0
  0
LINE
  5
1A7
  8
SIZE
  6
BYBLOCK
 62
    30
 10
-48.5
 20
142.4879589999999
 30
0.0
 11
48.5
 21
142.4879589999999
 31
0.0
  0
TEXT
  5
1A8
  8
SIZE
  6
BYBLOCK
 62
    30
 10
93.309091000000024
 20
174.48795899999999
 30
0.0
 40
64.0
  1
φ97
 41
0.9
  0
CIRCLE
  5
1A9
  8
SIZE
  6
CONTINUOUS
 62
    30
 10
48.5
 20
142.4879589999999
 30
0.0
 40
6.0
  0
CIRCLE
  5
1AA
  8
SIZE
  6
CONTINUOUS
 62
    30
 10
-48.5
 20
142.4879589999999
 30
0.0
 40
6.0
  0
CIRCLE
  5
1AB
  8
SIZE
  6
CONTINUOUS
 62
    30
 10
78.5
 20
244.47603099999989
 30
0.0
 40
6.0
  0
CIRCLE
  5
1AC
  8
SIZE
  6
CONTINUOUS
 62
    30
 10
-78.5
 20
244.47603099999989
 30
0.0
 40
6.0
  0
TEXT
  5
1AD
  8
ETC
  6
CONTINUOUS
 62
    61
 10
366.97105350142988
 20
142.48796130923159
 30
0.0
 40
50.0
  1
P-13KFAD5
 41
0.9
  0
TEXT
  5
1AE
  8
ETC
  6
CONTINUOUS
 62
    61
 10
361.42887303856418
 20
231.12882357020041
 30
0.0
 40
50.0
  1
P-13KFA5
 41
0.9
  0
TEXT
  5
1AF
  8
ETC
  6
CONTINUOUS
 62
    61
 10
253.98960889331789
 20
325.30973661944279
 30
0.0
 40
64.0
  1
システム部材
 41
0.9
  0
TEXT
  5
1B0
  8
ETC
  6
CONTINUOUS
 62
    61
 10
263.2485088933181
 20
426.27882361944279
 30
0.0
 40
64.0
  1
P-13KFA5_3
 41
0.9
  0
ENDSEC
  0
EOF
