  0
SECTION
  2
HEADER
  9
$ACADVER
  1
AC1009
  9
$INSBASE
 10
0.0
 20
0.0
 30
0.0
  9
$EXTMIN
 10
-276.68831999999981
 20
-124.442858
 30
0.0
  9
$EXTMAX
 10
952.4616131467551
 20
600.48971783965135
 30
50.0
  9
$LIMMIN
 10
-2970.0
 20
-2100.0
  9
$LIMMAX
 10
2970.0
 20
2100.0
  9
$ORTHOMODE
 70
     1
  9
$REGENMODE
 70
     0
  9
$FILLMODE
 70
     1
  9
$QTEXTMODE
 70
     0
  9
$MIRRTEXT
 70
     0
  9
$DRAGMODE
 70
     2
  9
$LTSCALE
 40
20.0
  9
$OSMODE
 70
   161
  9
$ATTMODE
 70
     1
  9
$TEXTSIZE
 40
64.0
  9
$TRACEWID
 40
0.05
  9
$TEXTSTYLE
  7
STANDARD
  9
$CLAYER
  8
DETAIL
  9
$CELTYPE
  6
CONTINUOUS
  9
$CECOLOR
 62
     5
  9
$DIMSCALE
 40
1.0
  9
$DIMASZ
 40
12.0
  9
$DIMEXO
 40
20.0
  9
$DIMDLI
 40
200.0
  9
$DIMRND
 40
0.0
  9
$DIMDLE
 40
0.0
  9
$DIMEXE
 40
20.0
  9
$DIMTP
 40
0.0
  9
$DIMTM
 40
0.0
  9
$DIMTXT
 40
64.0
  9
$DIMCEN
 40
0.09
  9
$DIMTSZ
 40
0.0
  9
$DIMTOL
 70
     0
  9
$DIMLIM
 70
     0
  9
$DIMTIH
 70
     0
  9
$DIMTOH
 70
     0
  9
$DIMSE1
 70
     0
  9
$DIMSE2
 70
     0
  9
$DIMTAD
 70
     1
  9
$DIMZIN
 70
     8
  9
$DIMBLK
  1
DOT1
  9
$DIMASO
 70
     1
  9
$DIMSHO
 70
     0
  9
$DIMPOST
  1

  9
$DIMAPOST
  1

  9
$DIMALT
 70
     0
  9
$DIMALTD
 70
     2
  9
$DIMALTF
 40
25.399999999999999
  9
$DIMLFAC
 40
1.0
  9
$DIMTOFL
 70
     1
  9
$DIMTVP
 40
0.0
  9
$DIMTIX
 70
     1
  9
$DIMSOXD
 70
     0
  9
$DIMSAH
 70
     1
  9
$DIMBLK1
  1
ORIGIN
  9
$DIMBLK2
  1
ORIGIN
  9
$DIMSTYLE
  2
STANDARD
  9
$DIMCLRD
 70
     7
  9
$DIMCLRE
 70
     7
  9
$DIMCLRT
 70
     7
  9
$DIMTFAC
 40
1.0
  9
$DIMGAP
 40
25.0
  9
$LUNITS
 70
     2
  9
$LUPREC
 70
     4
  9
$SKETCHINC
 40
0.1
  9
$FILLETRAD
 40
4.0
  9
$AUNITS
 70
     1
  9
$AUPREC
 70
     3
  9
$MENU
  1
ACAD
  9
$ELEVATION
 40
0.0
  9
$PELEVATION
 40
0.0
  9
$THICKNESS
 40
50.0
  9
$LIMCHECK
 70
     0
  9
$BLIPMODE
 70
     0
  9
$CHAMFERA
 40
0.0
  9
$CHAMFERB
 40
0.0
  9
$SKPOLY
 70
     0
  9
$TDCREATE
 40
2452991.81815618
  9
$TDUPDATE
 40
2453468.9032005901
  9
$TDINDWG
 40
0.0231071065
  9
$TDUSRTIMER
 40
0.0231056713
  9
$USRTIMER
 70
     1
  9
$ANGBASE
 50
0.0
  9
$ANGDIR
 70
     0
  9
$PDMODE
 70
     3
  9
$PDSIZE
 40
-2.0
  9
$PLINEWID
 40
0.0
  9
$COORDS
 70
     2
  9
$SPLFRAME
 70
     0
  9
$SPLINETYPE
 70
     6
  9
$SPLINESEGS
 70
     8
  9
$ATTDIA
 70
     0
  9
$ATTREQ
 70
     1
  9
$HANDLING
 70
 22529
  9
$HANDSEED
  5
7EA
  9
$SURFTAB1
 70
     6
  9
$SURFTAB2
 70
     6
  9
$SURFTYPE
 70
     6
  9
$SURFU
 70
     6
  9
$SURFV
 70
     6
  9
$UCSNAME
  2

  9
$UCSORG
 10
0.0
 20
0.0
 30
0.0
  9
$UCSXDIR
 10
1.0
 20
0.0
 30
0.0
  9
$UCSYDIR
 10
0.0
 20
1.0
 30
0.0
  9
$PUCSNAME
  2

  9
$PUCSORG
 10
0.0
 20
0.0
 30
0.0
  9
$PUCSXDIR
 10
1.0
 20
0.0
 30
0.0
  9
$PUCSYDIR
 10
0.0
 20
1.0
 30
0.0
  9
$USERI1
 70
     0
  9
$USERI2
 70
     0
  9
$USERI3
 70
     0
  9
$USERI4
 70
     0
  9
$USERI5
 70
     0
  9
$USERR1
 40
20.0
  9
$USERR2
 40
0.0
  9
$USERR3
 40
0.0
  9
$USERR4
 40
0.0
  9
$USERR5
 40
0.0
  9
$WORLDVIEW
 70
     1
  9
$SHADEDGE
 70
     3
  9
$SHADEDIF
 70
    70
  9
$TILEMODE
 70
     1
  9
$MAXACTVP
 70
    48
  9
$PLIMCHECK
 70
     0
  9
$PEXTMIN
 10
-1.0000000000000000E+020
 20
-1.0000000000000000E+020
 30
-1.0000000000000000E+020
  9
$PEXTMAX
 10
1.0000000000000000E+020
 20
1.0000000000000000E+020
 30
1.0000000000000000E+020
  9
$PLIMMIN
 10
0.0
 20
0.0
  9
$PLIMMAX
 10
12.0
 20
9.0
  9
$UNITMODE
 70
     0
  9
$VISRETAIN
 70
     0
  9
$PLINEGEN
 70
     0
  9
$PSLTSCALE
 70
     0
  0
ENDSEC
  0
SECTION
  2
TABLES
  0
TABLE
  2
VPORT
 70
     3
  0
VPORT
  2
*ACTIVE
 70
     0
 10
0.0
 20
0.0
 11
1.0
 21
1.0
 12
313.0738147601374
 22
169.2968993699524
 13
0.0
 23
0.0
 14
1.0
 24
1.0
 15
0.0
 25
0.0
 16
0.0
 26
0.0
 36
1.0
 17
0.0
 27
0.0
 37
0.0
 40
994.64095107277819
 41
1.4423558897243101
 42
50.0
 43
0.0
 44
0.0
 50
0.0
 51
0.0
 71
     0
 72
  1000
 73
     1
 74
     0
 75
     0
 76
     0
 77
     0
 78
     0
  0
ENDTAB
  0
TABLE
  2
LTYPE
 70
     2
  0
LTYPE
  2
CONTINUOUS
 70
     0
  3
実線
 72
    65
 73
     0
 40
0.0
  0
LTYPE
  2
DASHDOT
 70
     0
  3
____ _ ____ _ ____ _ ____ _ ____ _ ____ _ ____
 72
    65
 73
     4
 40
5.5
 49
4.0
 49
-0.6
 49
0.3
 49
-0.6
  0
ENDTAB
  0
TABLE
  2
LAYER
 70
    12
  0
LAYER
  2
0
 70
     0
 62
     7
  6
CONTINUOUS
  0
LAYER
  2
DETAIL
 70
     0
 62
     5
  6
CONTINUOUS
  0
LAYER
  2
SIZE
 70
     0
 62
    30
  6
CONTINUOUS
  0
LAYER
  2
BASIS
 70
     0
 62
     6
  6
DASHDOT
  0
LAYER
  2
OUTLINE
 70
     0
 62
     3
  6
CONTINUOUS
  0
LAYER
  2
ARRANGE
 70
     0
 62
     1
  6
CONTINUOUS
  0
LAYER
  2
DEFPOINTS
 70
     0
 62
     7
  6
CONTINUOUS
  0
LAYER
  2
ETC
 70
     0
 62
    61
  6
CONTINUOUS
  0
LAYER
  2
FIX
 70
     0
 62
    11
  6
CONTINUOUS
  0
LAYER
  2
NOTE
 70
     0
 62
     4
  6
CONTINUOUS
  0
LAYER
  2
SERVICESPACE
 70
     0
 62
     2
  6
DASHDOT
  0
LAYER
  2
SYMBOLLINE
 70
     0
 62
    15
  6
CONTINUOUS
  0
ENDTAB
  0
TABLE
  2
STYLE
 70
     1
  0
STYLE
  2
STANDARD
 70
     0
 40
64.0
 41
0.9
 50
0.0
 71
     0
 42
64.0
  3
SIMPLEX.shx
  4
BIGFONT.shx
  0
ENDTAB
  0
TABLE
  2
VIEW
 70
     1
  0
VIEW
  2
ALL
 70
     0
 40
4282.6198079999967
 10
0.0
 20
41.309903999999989
 41
5940.0
 11
0.0
 21
0.0
 31
1.0
 12
0.0
 22
0.0
 32
0.0
 42
50.0
 43
0.0
 44
0.0
 50
0.0
 71
     0
  0
ENDTAB
  0
TABLE
  2
UCS
 70
     0
  0
ENDTAB
  0
TABLE
  2
APPID
 70
     2
  0
APPID
  2
ACAD
 70
     0
  0
APPID
  2
AUTOCAD_POSTSCRIPT_FIGURE
 70
     0
  0
ENDTAB
  0
TABLE
  2
DIMSTYLE
 70
     1
  0
DIMSTYLE
  2
STANDARD
 70
     0
  3

  4

  5

  6

  7

 40
1.0
 41
0.18
 42
0.0625
 43
0.38
 44
0.18
 45
0.0
 46
0.0
 47
0.0
 48
0.0
140
0.18
141
0.09
142
0.0
143
25.399999999999999
144
1.0
145
0.0
146
1.0
147
0.09
 71
     0
 72
     0
 73
     1
 74
     1
 75
     0
 76
     0
 77
     0
 78
     0
170
     0
171
     2
172
     0
173
     0
174
     0
175
     0
176
     7
177
     7
178
     7
  0
ENDTAB
  0
ENDSEC
  0
SECTION
  2
BLOCKS
  0
BLOCK
  8
0
  2
$MODEL_SPACE
 70
     0
 10
0.0
 20
0.0
 30
0.0
  3
$MODEL_SPACE
  1

  0
ENDBLK
  5
74E
  8
0
  0
BLOCK
 67
     1
  8
0
  2
$PAPER_SPACE
 70
     0
 10
0.0
 20
0.0
 30
0.0
  3
$PAPER_SPACE
  1

  0
ENDBLK
  5
74A
 67
     1
  8
0
  0
BLOCK
  8
0
  2
DOT1
 70
     0
 10
0.0
 20
0.0
 30
0.0
  3
DOT1
  1

  0
CIRCLE
  5
76A
  8
SIZE
  6
CONTINUOUS
 62
     7
 10
0.0
 20
0.0
 30
0.0
 40
3.0
  0
ENDBLK
  5
76B
  8
0
  0
BLOCK
  8
0
  2
_ORIGIN
 70
     0
 10
0.0
 20
0.0
 30
0.0
  3
_ORIGIN
  1

  0
CIRCLE
  5
76E
  8
0
  6
CONTINUOUS
 62
     7
 10
0.0
 20
0.0
 30
0.0
 40
0.5
  0
LINE
  5
76F
  8
0
  6
CONTINUOUS
 62
     7
 10
0.0
 20
0.0
 30
0.0
 11
-1.0
 21
0.0
 31
0.0
  0
ENDBLK
  5
770
  8
0
  0
ENDSEC
  0
SECTION
  2
ENTITIES
  0
ARC
  5
771
  8
DETAIL
  6
CONTINUOUS
 62
     5
 10
0.0
 20
0.0
 30
0.0
 40
79.724727999999999
 50
180.0
 51
0.0
  0
CIRCLE
  5
772
  8
DETAIL
  6
CONTINUOUS
 62
     5
 10
0.0
 20
0.0
 30
0.0
 40
77.5
  0
LINE
  5
773
  8
DETAIL
  6
CONTINUOUS
 62
     5
 10
-77.5
 20
0.0
 30
0.0
 11
-82.0
 21
0.0
 31
0.0
  0
LINE
  5
774
  8
DETAIL
  6
CONTINUOUS
 62
     5
 10
77.5
 20
0.0
 30
0.0
 11
82.0
 21
0.0
 31
0.0
  0
LINE
  5
775
  8
BASIS
  6
DASHDOT
 62
     6
 10
135.240837
 20
0.0
 30
0.0
 11
-133.71690099999961
 21
0.0
 31
0.0
  0
LINE
  5
776
  8
BASIS
  6
DASHDOT
 62
     6
 10
0.0
 20
115.7373809999999
 30
0.0
 11
0.0
 21
-124.442858
 31
0.0
  0
POINT
  5
777
  8
ARRANGE
  6
CONTINUOUS
 62
     1
 10
0.0
 20
0.0
 30
0.0
  0
CIRCLE
  5
778
  8
ARRANGE
  6
CONTINUOUS
 62
     1
 10
0.0
 20
0.0
 30
0.0
 40
40.0
  0
LINE
  5
779
  8
SIZE
  6
CONTINUOUS
 62
    30
 10
77.5
 20
20.0
 30
0.0
 11
77.5
 21
274.3312509999999
 31
0.0
  0
LINE
  5
77A
  8
SIZE
  6
CONTINUOUS
 62
    30
 10
-77.5
 20
20.0
 30
0.0
 11
-77.5
 21
274.3312509999999
 31
0.0
  0
LINE
  5
77B
  8
SIZE
  6
CONTINUOUS
 62
    30
 10
65.5
 20
254.3312509999999
 30
0.0
 11
-65.5
 21
254.3312509999999
 31
0.0
  0
LINE
  5
77C
  8
SIZE
  6
CONTINUOUS
 62
    30
 10
344.25748299999992
 20
254.3312509999999
 30
0.0
 11
77.5
 21
254.3312509999999
 31
0.0
  0
TEXT
  5
77D
  8
SIZE
  6
CONTINUOUS
 62
    30
 10
115.73748342857139
 20
279.3312509999999
 30
0.0
 40
64.0
  1
φ155
 41
0.9
 72
     1
 11
224.62891200000001
 21
279.3312509999999
 31
0.0
  0
CIRCLE
  5
77E
  8
SIZE
  6
CONTINUOUS
 62
    30
 10
77.5
 20
254.3312509999999
 30
0.0
 40
6.0
  0
LINE
  5
77F
  8
SIZE
  6
CONTINUOUS
 62
    30
 10
77.5
 20
254.3312509999999
 30
0.0
 11
65.5
 21
254.3312509999999
 31
0.0
  0
CIRCLE
  5
780
  8
SIZE
  6
CONTINUOUS
 62
    30
 10
-77.5
 20
254.3312509999999
 30
0.0
 40
6.0
  0
LINE
  5
781
  8
SIZE
  6
CONTINUOUS
 62
    30
 10
-77.5
 20
254.3312509999999
 30
0.0
 11
-65.5
 21
254.3312509999999
 31
0.0
  0
POINT
  5
782
  8
DEFPOINTS
  6
CONTINUOUS
 62
    30
 10
77.5
 20
0.0
 30
0.0
  0
POINT
  5
783
  8
DEFPOINTS
  6
CONTINUOUS
 62
    30
 10
-77.5
 20
0.0
 30
0.0
  0
POINT
  5
784
  8
DEFPOINTS
  6
CONTINUOUS
 62
    30
 10
-77.5
 20
254.3312509999999
 30
0.0
  0
ARC
  5
785
  8
DETAIL
  6
CONTINUOUS
 62
     5
 10
0.0
 20
-6.7247190000000003
 30
0.0
 40
82.275281000000007
 50
175.311735
 51
4.6882650000000003
  0
LINE
  5
786
  8
SIZE
  6
CONTINUOUS
 62
    30
 10
82.0
 20
20.0
 30
0.0
 11
82.0
 21
355.285526
 31
0.0
  0
LINE
  5
787
  8
SIZE
  6
CONTINUOUS
 62
    30
 10
-82.0
 20
20.0
 30
0.0
 11
-82.0
 21
355.285526
 31
0.0
  0
LINE
  5
788
  8
SIZE
  6
CONTINUOUS
 62
    30
 10
82.0
 20
335.285526
 30
0.0
 11
-82.0
 21
335.285526
 31
0.0
  0
CIRCLE
  5
789
  8
SIZE
  6
CONTINUOUS
 62
    30
 10
82.0
 20
335.285526
 30
0.0
 40
6.0
  0
CIRCLE
  5
78A
  8
SIZE
  6
CONTINUOUS
 62
    30
 10
-82.0
 20
335.285526
 30
0.0
 40
6.0
  0
TEXT
  5
78B
  8
SIZE
  6
CONTINUOUS
 62
    30
 10
-69.942857142857122
 20
360.285526
 30
0.0
 40
64.0
  1
164
 41
0.9
 72
     1
 11
0.0
 21
360.285526
 31
0.0
  0
POINT
  5
78C
  8
DEFPOINTS
  6
CONTINUOUS
 62
    30
 10
82.0
 20
0.0
 30
0.0
  0
POINT
  5
78D
  8
DEFPOINTS
  6
CONTINUOUS
 62
    30
 10
-82.0
 20
0.0
 30
0.0
  0
POINT
  5
78E
  8
DEFPOINTS
  6
CONTINUOUS
 62
    30
 10
-82.0
 20
335.285526
 30
0.0
  0
LINE
  5
78F
  8
SIZE
  6
CONTINUOUS
 62
    30
 10
-153.71690100000001
 20
0.0
 30
0.0
 11
-207.68832
 21
0.0
 31
0.0
  0
LINE
  5
790
  8
SIZE
  6
CONTINUOUS
 62
    30
 10
-20.0
 20
-89.0
 30
0.0
 11
-207.68832
 21
-89.0
 31
0.0
  0
LINE
  5
791
  8
SIZE
  6
CONTINUOUS
 62
    30
 10
-187.68831999999981
 20
0.0
 30
0.0
 11
-187.68831999999981
 21
-89.0
 31
0.0
  0
CIRCLE
  5
792
  8
SIZE
  6
CONTINUOUS
 62
    30
 10
-187.68831999999981
 20
0.0
 30
0.0
 40
6.0
  0
CIRCLE
  5
793
  8
SIZE
  6
CONTINUOUS
 62
    30
 10
-187.68831999999981
 20
-89.0
 30
0.0
 40
6.0
  0
TEXT
  5
794
  8
SIZE
  6
CONTINUOUS
 62
    30
 10
-212.68831999999989
 20
-89.757142857142867
 30
0.0
 40
64.0
  1
89
 50
90.0
 41
0.9
 72
     1
 11
-212.68831999999989
 21
-44.5
 31
0.0
  0
POINT
  5
795
  8
DEFPOINTS
  6
CONTINUOUS
 62
    30
 10
-133.71690099999961
 20
0.0
 30
0.0
  0
POINT
  5
796
  8
DEFPOINTS
  6
CONTINUOUS
 62
    30
 10
0.0
 20
-89.0
 30
0.0
  0
POINT
  5
797
  8
DEFPOINTS
  6
CONTINUOUS
 62
    30
 10
-187.68831999999981
 20
-89.0
 30
0.0
  0
ARC
  5
798
  8
OUTLINE
  6
CONTINUOUS
 62
     3
 10
0.0
 20
0.0
 30
0.0
 40
77.5
 50
0.0
 51
180.0
  0
ARC
  5
799
  8
OUTLINE
  6
CONTINUOUS
 62
     3
 10
0.0
 20
-6.7247190000000003
 30
0.0
 40
82.275281000000007
 50
175.311735
 51
4.6882650000000003
  0
LINE
  5
79A
  8
OUTLINE
  6
CONTINUOUS
 62
     3
 10
-77.5
 20
0.0
 30
0.0
 11
-82.0
 21
0.0
 31
0.0
  0
LINE
  5
79B
  8
OUTLINE
  6
CONTINUOUS
 62
     3
 10
77.5
 20
0.0
 30
0.0
 11
82.0
 21
0.0
 31
0.0
  0
LINE
  5
79C
  8
SIZE
  6
CONTINUOUS
 62
    30
 10
48.5
 20
20.0
 30
0.0
 11
48.5
 21
153.0
 31
0.0
  0
LINE
  5
79D
  8
SIZE
  6
CONTINUOUS
 62
    30
 10
-48.5
 20
20.0
 30
0.0
 11
-48.5
 21
153.0
 31
0.0
  0
LINE
  5
79E
  8
SIZE
  6
CONTINUOUS
 62
    30
 10
48.5
 20
133.0
 30
0.0
 11
-48.5
 21
133.0
 31
0.0
  0
CIRCLE
  5
79F
  8
SIZE
  6
CONTINUOUS
 62
    30
 10
48.5
 20
133.0
 30
0.0
 40
6.0
  0
CIRCLE
  5
7A0
  8
SIZE
  6
CONTINUOUS
 62
    30
 10
-48.5
 20
133.0
 30
0.0
 40
6.0
  0
TEXT
  5
7A1
  8
SIZE
  6
CONTINUOUS
 62
    30
 10
-86.948571428571427
 20
158.0
 30
0.0
 40
64.0
  1
φ97
 41
0.9
 72
     1
 11
0.0
 21
158.0
 31
0.0
  0
POINT
  5
7A2
  8
DEFPOINTS
  6
CONTINUOUS
 62
    30
 10
-48.5
 20
133.0
 30
0.0
  0
TEXT
  5
7A3
  8
ETC
  6
CONTINUOUS
 62
    61
 10
432.82368144632352
 20
259.09315577112773
 30
0.0
 40
50.0
  1
P-13KFSQD5
 41
0.9
  0
TEXT
  5
7A4
  8
ETC
  6
CONTINUOUS
 62
    61
 10
430.70261681639619
 20
341.51741504870648
 30
0.0
 40
50.0
  1
P-13KFSD5
 41
0.9
  0
TEXT
  5
7A5
  8
ETC
  6
CONTINUOUS
 62
    61
 10
346.29018457532641
 20
536.48971783965055
 30
0.0
 40
64.0
  1
P-13KFSD5_3
 41
0.9
  0
TEXT
  5
7A6
  8
ETC
  6
CONTINUOUS
 62
    61
 10
336.57748257532643
 20
430.33580983965049
 30
0.0
 40
64.0
  1
システム部材
 41
0.9
  0
CIRCLE
  5
7A7
  8
DETAIL
  6
CONTINUOUS
 62
     5
 39
50.0
 10
0.0
 20
0.0
 30
0.0
 40
48.5
  0
ENDSEC
  0
EOF
