  0
SECTION
  2
HEADER
  9
$ACADVER
  1
AC1009
  9
$INSBASE
 10
0.0
 20
0.0
 30
0.0
  9
$EXTMIN
 10
-360.9460719999999
 20
-326.41851800000001
 30
0.0
  9
$EXTMAX
 10
937.55764841826579
 20
479.4073249795257
 30
50.0
  9
$LIMMIN
 10
-2970.0
 20
-2100.0
  9
$LIMMAX
 10
2970.0
 20
2100.0
  9
$ORTHOMODE
 70
     1
  9
$REGENMODE
 70
     0
  9
$FILLMODE
 70
     1
  9
$QTEXTMODE
 70
     0
  9
$MIRRTEXT
 70
     0
  9
$DRAGMODE
 70
     2
  9
$LTSCALE
 40
20.0
  9
$OSMODE
 70
   161
  9
$ATTMODE
 70
     1
  9
$TEXTSIZE
 40
64.0
  9
$TRACEWID
 40
0.05
  9
$TEXTSTYLE
  7
STANDARD
  9
$CLAYER
  8
OUTLINE
  9
$CELTYPE
  6
CONTINUOUS
  9
$CECOLOR
 62
     3
  9
$DIMSCALE
 40
1.0
  9
$DIMASZ
 40
12.0
  9
$DIMEXO
 40
20.0
  9
$DIMDLI
 40
200.0
  9
$DIMRND
 40
0.0
  9
$DIMDLE
 40
0.0
  9
$DIMEXE
 40
20.0
  9
$DIMTP
 40
0.0
  9
$DIMTM
 40
0.0
  9
$DIMTXT
 40
64.0
  9
$DIMCEN
 40
0.09
  9
$DIMTSZ
 40
0.0
  9
$DIMTOL
 70
     0
  9
$DIMLIM
 70
     0
  9
$DIMTIH
 70
     0
  9
$DIMTOH
 70
     0
  9
$DIMSE1
 70
     0
  9
$DIMSE2
 70
     0
  9
$DIMTAD
 70
     1
  9
$DIMZIN
 70
     8
  9
$DIMBLK
  1
DOT1
  9
$DIMASO
 70
     1
  9
$DIMSHO
 70
     0
  9
$DIMPOST
  1

  9
$DIMAPOST
  1

  9
$DIMALT
 70
     0
  9
$DIMALTD
 70
     2
  9
$DIMALTF
 40
25.399999999999999
  9
$DIMLFAC
 40
1.0
  9
$DIMTOFL
 70
     1
  9
$DIMTVP
 40
0.0
  9
$DIMTIX
 70
     1
  9
$DIMSOXD
 70
     0
  9
$DIMSAH
 70
     1
  9
$DIMBLK1
  1
ORIGIN
  9
$DIMBLK2
  1
ORIGIN
  9
$DIMSTYLE
  2
STANDARD
  9
$DIMCLRD
 70
     7
  9
$DIMCLRE
 70
     7
  9
$DIMCLRT
 70
     7
  9
$DIMTFAC
 40
1.0
  9
$DIMGAP
 40
25.0
  9
$LUNITS
 70
     2
  9
$LUPREC
 70
     4
  9
$SKETCHINC
 40
0.1
  9
$FILLETRAD
 40
2.2440000000000002
  9
$AUNITS
 70
     1
  9
$AUPREC
 70
     3
  9
$MENU
  1
ACAD
  9
$ELEVATION
 40
0.0
  9
$PELEVATION
 40
0.0
  9
$THICKNESS
 40
50.0
  9
$LIMCHECK
 70
     0
  9
$BLIPMODE
 70
     0
  9
$CHAMFERA
 40
0.0
  9
$CHAMFERB
 40
0.0
  9
$SKPOLY
 70
     0
  9
$TDCREATE
 40
2453020.480034444
  9
$TDUPDATE
 40
2453466.947974537
  9
$TDINDWG
 40
0.0162913194
  9
$TDUSRTIMER
 40
0.0162907639
  9
$USRTIMER
 70
     1
  9
$ANGBASE
 50
0.0
  9
$ANGDIR
 70
     0
  9
$PDMODE
 70
     3
  9
$PDSIZE
 40
-2.0
  9
$PLINEWID
 40
0.0
  9
$COORDS
 70
     2
  9
$SPLFRAME
 70
     0
  9
$SPLINETYPE
 70
     6
  9
$SPLINESEGS
 70
     8
  9
$ATTDIA
 70
     0
  9
$ATTREQ
 70
     1
  9
$HANDLING
 70
 22529
  9
$HANDSEED
  5
40A
  9
$SURFTAB1
 70
     6
  9
$SURFTAB2
 70
     6
  9
$SURFTYPE
 70
     6
  9
$SURFU
 70
     6
  9
$SURFV
 70
     6
  9
$UCSNAME
  2

  9
$UCSORG
 10
0.0
 20
0.0
 30
0.0
  9
$UCSXDIR
 10
1.0
 20
0.0
 30
0.0
  9
$UCSYDIR
 10
0.0
 20
1.0
 30
0.0
  9
$PUCSNAME
  2

  9
$PUCSORG
 10
0.0
 20
0.0
 30
0.0
  9
$PUCSXDIR
 10
1.0
 20
0.0
 30
0.0
  9
$PUCSYDIR
 10
0.0
 20
1.0
 30
0.0
  9
$USERI1
 70
     0
  9
$USERI2
 70
     0
  9
$USERI3
 70
     0
  9
$USERI4
 70
     0
  9
$USERI5
 70
     0
  9
$USERR1
 40
20.0
  9
$USERR2
 40
0.0
  9
$USERR3
 40
0.0
  9
$USERR4
 40
0.0
  9
$USERR5
 40
0.0
  9
$WORLDVIEW
 70
     1
  9
$SHADEDGE
 70
     3
  9
$SHADEDIF
 70
    70
  9
$TILEMODE
 70
     1
  9
$MAXACTVP
 70
    48
  9
$PLIMCHECK
 70
     0
  9
$PEXTMIN
 10
-1.0000000000000000E+020
 20
-1.0000000000000000E+020
 30
-1.0000000000000000E+020
  9
$PEXTMAX
 10
1.0000000000000000E+020
 20
1.0000000000000000E+020
 30
1.0000000000000000E+020
  9
$PLIMMIN
 10
0.0
 20
0.0
  9
$PLIMMAX
 10
12.0
 20
9.0
  9
$UNITMODE
 70
     0
  9
$VISRETAIN
 70
     0
  9
$PLINEGEN
 70
     0
  9
$PSLTSCALE
 70
     0
  0
ENDSEC
  0
SECTION
  2
TABLES
  0
TABLE
  2
VPORT
 70
     3
  0
VPORT
  2
*ACTIVE
 70
     0
 10
0.0
 20
0.0
 11
1.0
 21
1.0
 12
271.59886700569132
 22
75.893796786688085
 13
0.0
 23
0.0
 14
1.0
 24
1.0
 15
0.0
 25
0.0
 16
0.0
 26
0.0
 36
1.0
 17
0.0
 27
0.0
 37
0.0
 40
971.23177108134689
 41
1.4423558897243101
 42
50.0
 43
0.0
 44
0.0
 50
0.0
 51
0.0
 71
     0
 72
  1000
 73
     1
 74
     0
 75
     0
 76
     0
 77
     0
 78
     0
  0
ENDTAB
  0
TABLE
  2
LTYPE
 70
     2
  0
LTYPE
  2
CONTINUOUS
 70
     0
  3
実線
 72
    65
 73
     0
 40
0.0
  0
LTYPE
  2
DASHDOT
 70
     0
  3
____ _ ____ _ ____ _ ____ _ ____ _ ____ _ ____
 72
    65
 73
     4
 40
5.5
 49
4.0
 49
-0.6
 49
0.3
 49
-0.6
  0
ENDTAB
  0
TABLE
  2
LAYER
 70
    12
  0
LAYER
  2
0
 70
     0
 62
     7
  6
CONTINUOUS
  0
LAYER
  2
OUTLINE
 70
     0
 62
     3
  6
CONTINUOUS
  0
LAYER
  2
SIZE
 70
     0
 62
    30
  6
CONTINUOUS
  0
LAYER
  2
BASIS
 70
     0
 62
     6
  6
DASHDOT
  0
LAYER
  2
DETAIL
 70
     0
 62
     5
  6
CONTINUOUS
  0
LAYER
  2
ARRANGE
 70
     0
 62
     1
  6
CONTINUOUS
  0
LAYER
  2
DEFPOINTS
 70
     0
 62
     7
  6
CONTINUOUS
  0
LAYER
  2
ETC
 70
     0
 62
    61
  6
CONTINUOUS
  0
LAYER
  2
FIX
 70
     0
 62
    11
  6
CONTINUOUS
  0
LAYER
  2
NOTE
 70
     0
 62
     4
  6
CONTINUOUS
  0
LAYER
  2
SERVICESPACE
 70
     0
 62
     2
  6
DASHDOT
  0
LAYER
  2
SYMBOLLINE
 70
     0
 62
    15
  6
CONTINUOUS
  0
ENDTAB
  0
TABLE
  2
STYLE
 70
     1
  0
STYLE
  2
STANDARD
 70
     0
 40
64.0
 41
0.9
 50
0.0
 71
     0
 42
64.0
  3
SIMPLEX.shx
  4
BIGFONT.shx
  0
ENDTAB
  0
TABLE
  2
VIEW
 70
     1
  0
VIEW
  2
ALL
 70
     0
 40
4282.6198079999967
 10
0.0
 20
41.309903999999989
 41
5940.0
 11
0.0
 21
0.0
 31
1.0
 12
0.0
 22
0.0
 32
0.0
 42
50.0
 43
0.0
 44
0.0
 50
0.0
 71
     0
  0
ENDTAB
  0
TABLE
  2
UCS
 70
     0
  0
ENDTAB
  0
TABLE
  2
APPID
 70
     2
  0
APPID
  2
ACAD
 70
     0
  0
APPID
  2
AUTOCAD_POSTSCRIPT_FIGURE
 70
     0
  0
ENDTAB
  0
TABLE
  2
DIMSTYLE
 70
     1
  0
DIMSTYLE
  2
STANDARD
 70
     0
  3

  4

  5

  6

  7

 40
1.0
 41
0.18
 42
0.0625
 43
0.38
 44
0.18
 45
0.0
 46
0.0
 47
0.0
 48
0.0
140
0.18
141
0.09
142
0.0
143
25.399999999999999
144
1.0
145
0.0
146
1.0
147
0.09
 71
     0
 72
     0
 73
     1
 74
     1
 75
     0
 76
     0
 77
     0
 78
     0
170
     0
171
     2
172
     0
173
     0
174
     0
175
     0
176
     7
177
     7
178
     7
  0
ENDTAB
  0
ENDSEC
  0
SECTION
  2
BLOCKS
  0
BLOCK
  8
0
  2
$MODEL_SPACE
 70
     0
 10
0.0
 20
0.0
 30
0.0
  3
$MODEL_SPACE
  1

  0
ENDBLK
  5
320
  8
0
  0
BLOCK
 67
     1
  8
0
  2
$PAPER_SPACE
 70
     0
 10
0.0
 20
0.0
 30
0.0
  3
$PAPER_SPACE
  1

  0
ENDBLK
  5
31C
 67
     1
  8
0
  0
BLOCK
  8
0
  2
DOT1
 70
     0
 10
0.0
 20
0.0
 30
0.0
  3
DOT1
  1

  0
CIRCLE
  5
33C
  8
SIZE
  6
CONTINUOUS
 62
     7
 10
0.0
 20
0.0
 30
0.0
 40
3.0
  0
ENDBLK
  5
33D
  8
0
  0
BLOCK
  8
0
  2
_ORIGIN
 70
     0
 10
0.0
 20
0.0
 30
0.0
  3
_ORIGIN
  1

  0
CIRCLE
  5
340
  8
0
  6
CONTINUOUS
 62
     7
 10
0.0
 20
0.0
 30
0.0
 40
0.5
  0
LINE
  5
341
  8
0
  6
CONTINUOUS
 62
     7
 10
0.0
 20
0.0
 30
0.0
 11
-1.0
 21
0.0
 31
0.0
  0
ENDBLK
  5
342
  8
0
  0
ENDSEC
  0
SECTION
  2
ENTITIES
  0
LINE
  5
343
  8
DETAIL
  6
CONTINUOUS
 62
     5
 10
47.369225
 20
48.5
 30
0.0
 11
51.728397999999999
 21
48.5
 31
0.0
  0
LINE
  5
344
  8
DETAIL
  6
CONTINUOUS
 62
     5
 10
0.0
 20
48.5
 30
0.0
 11
53.0
 21
48.5
 31
0.0
  0
LINE
  5
345
  8
DETAIL
  6
CONTINUOUS
 62
     5
 10
0.0
 20
0.0
 30
0.0
 11
0.0
 21
79.0
 31
0.0
  0
LINE
  5
346
  8
DETAIL
  6
CONTINUOUS
 62
     5
 10
-35.0
 20
0.0
 30
0.0
 11
-35.0
 21
62.256
 31
0.0
  0
LINE
  5
347
  8
DETAIL
  6
CONTINUOUS
 62
     5
 10
-10.0
 20
-0.100799
 30
0.0
 11
-10.0
 21
76.443961000000002
 31
0.0
  0
LINE
  5
34B
  8
DETAIL
  6
CONTINUOUS
 62
     5
 10
-7.8456839999999959
 20
78.686172999999982
 30
0.0
 11
0.0
 21
79.0
 31
0.0
  0
ARC
  5
34C
  8
DETAIL
  6
CONTINUOUS
 62
     5
 10
-7.7559959999999979
 20
76.443961000000002
 30
0.0
 40
2.2440039999999981
 50
92.290609999999987
 51
180.0
  0
LINE
  5
350
  8
DETAIL
  6
CONTINUOUS
 62
     5
 10
-35.0
 20
0.0
 30
0.0
 11
-35.0
 21
-62.256
 31
0.0
  0
LINE
  5
351
  8
DETAIL
  6
CONTINUOUS
 62
     5
 10
-10.0
 20
0.100799
 30
0.0
 11
-10.0
 21
-76.443961000000002
 31
0.0
  0
LINE
  5
352
  8
DETAIL
  6
CONTINUOUS
 62
     5
 10
-7.8456839999999959
 20
-78.686172999999982
 30
0.0
 11
0.0
 21
-79.0
 31
0.0
  0
ARC
  5
353
  8
DETAIL
  6
CONTINUOUS
 62
     5
 10
-7.7559959999999979
 20
-76.443961000000002
 30
0.0
 40
2.2440039999999981
 50
180.0
 51
267.70938999999998
  0
LINE
  5
354
  8
DETAIL
  6
CONTINUOUS
 62
     5
 10
0.0
 20
0.0
 30
0.0
 11
0.0
 21
-79.0
 31
0.0
  0
LINE
  5
355
  8
DETAIL
  6
CONTINUOUS
 62
     5
 10
0.0
 20
-48.5
 30
0.0
 11
53.0
 21
-48.5
 31
0.0
  0
LINE
  5
356
  8
BASIS
  6
DASHDOT
 62
     6
 10
72.025718999999995
 20
0.0
 30
0.0
 11
-70.277181999999996
 21
0.0
 31
0.0
  0
LINE
  5
357
  8
OUTLINE
  6
CONTINUOUS
 62
     3
 10
0.0
 20
-48.5
 30
0.0
 11
53.0
 21
-48.5
 31
0.0
  0
LINE
  5
358
  8
OUTLINE
  6
CONTINUOUS
 62
     3
 10
0.0
 20
0.0
 30
0.0
 11
0.0
 21
-79.0
 31
0.0
  0
ARC
  5
359
  8
OUTLINE
  6
CONTINUOUS
 62
     3
 10
-7.755995999999981
 20
-76.443960999999931
 30
0.0
 40
2.2440039999999981
 50
180.0
 51
267.70938999999998
  0
LINE
  5
35A
  8
OUTLINE
  6
CONTINUOUS
 62
     3
 10
-7.8456840000000012
 20
-78.686173000000053
 30
0.0
 11
0.0
 21
-79.0
 31
0.0
  0
LINE
  5
35B
  8
OUTLINE
  6
CONTINUOUS
 62
     3
 10
-10.0
 20
0.1007990000000518
 30
0.0
 11
-10.0
 21
-76.443960999999931
 31
0.0
  0
ARC
  5
360
  8
OUTLINE
  6
CONTINUOUS
 62
     3
 10
-7.755995999999981
 20
76.443960999999931
 30
0.0
 40
2.2440039999999981
 50
92.290609999999987
 51
180.0
  0
LINE
  5
361
  8
OUTLINE
  6
CONTINUOUS
 62
     3
 10
-7.8456840000000012
 20
78.686173000000053
 30
0.0
 11
0.0
 21
79.0
 31
0.0
  0
LINE
  5
365
  8
OUTLINE
  6
CONTINUOUS
 62
     3
 10
-10.0
 20
-0.1007990000000518
 30
0.0
 11
-10.0
 21
76.443960999999931
 31
0.0
  0
LINE
  5
367
  8
OUTLINE
  6
CONTINUOUS
 62
     3
 10
0.0
 20
0.0
 30
0.0
 11
0.0
 21
79.0
 31
0.0
  0
LINE
  5
368
  8
OUTLINE
  6
CONTINUOUS
 62
     3
 10
0.0
 20
48.5
 30
0.0
 11
53.0
 21
48.5
 31
0.0
  0
LINE
  5
369
  8
OUTLINE
  6
CONTINUOUS
 62
     3
 10
47.369225000000021
 20
48.5
 30
0.0
 11
51.72839799999997
 21
48.5
 31
0.0
  0
POINT
  5
36A
  8
ARRANGE
  6
CONTINUOUS
 62
     1
 10
0.0
 20
0.0
 30
0.0
  0
CIRCLE
  5
36B
  8
ARRANGE
  6
CONTINUOUS
 62
     1
 10
0.0
 20
0.0
 30
0.0
 40
40.0
  0
LINE
  5
36C
  8
DETAIL
  6
CONTINUOUS
 62
     5
 10
53.0
 20
-48.5
 30
0.0
 11
53.0
 21
48.5
 31
0.0
  0
LINE
  5
36D
  8
SIZE
  6
CONTINUOUS
 62
    30
 10
-52.381995000000003
 20
-64.5
 30
0.0
 11
-192.526287
 21
-64.5
 31
0.0
  0
LINE
  5
36E
  8
SIZE
  6
CONTINUOUS
 62
    30
 10
-52.381995000000003
 20
64.5
 30
0.0
 11
-192.526287
 21
64.5
 31
0.0
  0
LINE
  5
36F
  8
SIZE
  6
CONTINUOUS
 62
    30
 10
-172.526287
 20
-52.5
 30
0.0
 11
-172.526287
 21
52.5
 31
0.0
  0
LINE
  5
370
  8
SIZE
  6
CONTINUOUS
 62
    30
 10
-172.526287
 20
-326.41851800000001
 30
0.0
 11
-172.526287
 21
-64.5
 31
0.0
  0
TEXT
  5
371
  8
SIZE
  6
CONTINUOUS
 62
    30
 10
-197.526287
 20
-315.68137499999989
 30
0.0
 40
64.0
  1
φ129
 50
90.0
 41
0.9
 72
     1
 11
-197.526287
 21
-208.16137499999991
 31
0.0
  0
CIRCLE
  5
372
  8
SIZE
  6
CONTINUOUS
 62
    30
 10
-172.526287
 20
-64.5
 30
0.0
 40
6.0
  0
LINE
  5
373
  8
SIZE
  6
CONTINUOUS
 62
    30
 10
-172.526287
 20
-64.5
 30
0.0
 11
-172.526287
 21
-52.5
 31
0.0
  0
CIRCLE
  5
374
  8
SIZE
  6
CONTINUOUS
 62
    30
 10
-172.526287
 20
64.5
 30
0.0
 40
6.0
  0
LINE
  5
375
  8
SIZE
  6
CONTINUOUS
 62
    30
 10
-172.526287
 20
64.5
 30
0.0
 11
-172.526287
 21
52.5
 31
0.0
  0
LINE
  5
378
  8
SIZE
  6
CONTINUOUS
 62
    30
 10
-20.0
 20
-79.0
 30
0.0
 11
-291.94607200000002
 21
-79.0
 31
0.0
  0
LINE
  5
379
  8
SIZE
  6
CONTINUOUS
 62
    30
 10
-20.0
 20
79.0
 30
0.0
 11
-291.94607200000002
 21
79.0
 31
0.0
  0
LINE
  5
37A
  8
SIZE
  6
CONTINUOUS
 62
    30
 10
-271.94607200000002
 20
-67.0
 30
0.0
 11
-271.94607200000002
 21
67.0
 31
0.0
  0
TEXT
  5
37B
  8
SIZE
  6
CONTINUOUS
 62
    30
 10
-296.94607200000002
 20
-115.43860657142849
 30
0.0
 40
64.0
  1
φ158
 50
90.0
 41
0.9
 72
     1
 11
-296.94607200000002
 21
-6.5471779999999971
 31
0.0
  0
CIRCLE
  5
37C
  8
SIZE
  6
CONTINUOUS
 62
    30
 10
-271.94607200000002
 20
-79.0
 30
0.0
 40
6.0
  0
LINE
  5
37D
  8
SIZE
  6
CONTINUOUS
 62
    30
 10
-271.94607200000002
 20
-79.0
 30
0.0
 11
-271.94607200000002
 21
-67.0
 31
0.0
  0
CIRCLE
  5
37E
  8
SIZE
  6
CONTINUOUS
 62
    30
 10
-271.94607200000002
 20
79.0
 30
0.0
 40
6.0
  0
LINE
  5
37F
  8
SIZE
  6
CONTINUOUS
 62
    30
 10
-271.94607200000002
 20
79.0
 30
0.0
 11
-271.94607200000002
 21
67.0
 31
0.0
  0
LINE
  5
382
  8
SIZE
  6
CONTINUOUS
 62
    30
 10
73.0
 20
-48.5
 30
0.0
 11
245.97611900000001
 21
-48.5
 31
0.0
  0
LINE
  5
383
  8
SIZE
  6
CONTINUOUS
 62
    30
 10
73.0
 20
48.5
 30
0.0
 11
245.97611900000001
 21
48.5
 31
0.0
  0
LINE
  5
384
  8
SIZE
  6
CONTINUOUS
 62
    30
 10
225.9761189999999
 20
-36.5
 30
0.0
 11
225.9761189999999
 21
36.5
 31
0.0
  0
LINE
  5
385
  8
SIZE
  6
CONTINUOUS
 62
    30
 10
225.9761189999999
 20
-271.786112
 30
0.0
 11
225.9761189999999
 21
-48.5
 31
0.0
  0
TEXT
  5
386
  8
SIZE
  6
CONTINUOUS
 62
    30
 10
200.9761189999999
 20
-261.0489684285713
 30
0.0
 40
64.0
  1
φ97
 50
90.0
 41
0.9
 72
     1
 11
200.9761189999999
 21
-174.1003969999999
 31
0.0
  0
CIRCLE
  5
387
  8
SIZE
  6
CONTINUOUS
 62
    30
 10
225.9761189999999
 20
-48.5
 30
0.0
 40
6.0
  0
LINE
  5
388
  8
SIZE
  6
CONTINUOUS
 62
    30
 10
225.9761189999999
 20
-48.5
 30
0.0
 11
225.9761189999999
 21
-36.5
 31
0.0
  0
CIRCLE
  5
389
  8
SIZE
  6
CONTINUOUS
 62
    30
 10
225.9761189999999
 20
48.5
 30
0.0
 40
6.0
  0
LINE
  5
38A
  8
SIZE
  6
CONTINUOUS
 62
    30
 10
225.9761189999999
 20
48.5
 30
0.0
 11
225.9761189999999
 21
36.5
 31
0.0
  0
LINE
  5
38D
  8
SIZE
  6
CONTINUOUS
 62
    30
 10
0.0
 20
99.0
 30
0.0
 11
0.0
 21
176.18488999999991
 31
0.0
  0
LINE
  5
38E
  8
SIZE
  6
CONTINUOUS
 62
    30
 10
-10.0
 20
96.443961000000016
 30
0.0
 11
-10.0
 21
176.18488999999991
 31
0.0
  0
LINE
  5
38F
  8
SIZE
  6
CONTINUOUS
 62
    30
 10
12.0
 20
156.18489
 30
0.0
 11
24.0
 21
156.18489
 31
0.0
  0
LINE
  5
390
  8
SIZE
  6
CONTINUOUS
 62
    30
 10
-22.0
 20
156.18489
 30
0.0
 11
-34.0
 21
156.18489
 31
0.0
  0
LINE
  5
391
  8
SIZE
  6
CONTINUOUS
 62
    30
 10
-169.9099149999999
 20
156.18489
 30
0.0
 11
-10.0
 21
156.18489
 31
0.0
  0
TEXT
  5
392
  8
SIZE
  6
CONTINUOUS
 62
    30
 10
-144.90991414285679
 20
181.18489
 30
0.0
 40
64.0
  1
10
 41
0.9
 72
     1
 11
-103.7670569999997
 21
181.18489
 31
0.0
  0
LINE
  5
393
  8
SIZE
  6
CONTINUOUS
 62
    30
 10
0.0
 20
156.18489
 30
0.0
 11
-10.0
 21
156.18489
 31
0.0
  0
LINE
  5
394
  8
SIZE
  6
CONTINUOUS
 62
    30
 10
0.0
 20
156.18489
 30
0.0
 11
-10.0
 21
156.18489
 31
0.0
  0
CIRCLE
  5
395
  8
SIZE
  6
CONTINUOUS
 62
    30
 10
0.0
 20
156.18489
 30
0.0
 40
6.0
  0
LINE
  5
396
  8
SIZE
  6
CONTINUOUS
 62
    30
 10
0.0
 20
156.18489
 30
0.0
 11
12.0
 21
156.18489
 31
0.0
  0
CIRCLE
  5
397
  8
SIZE
  6
CONTINUOUS
 62
    30
 10
-10.0
 20
156.18489
 30
0.0
 40
6.0
  0
LINE
  5
398
  8
SIZE
  6
CONTINUOUS
 62
    30
 10
-10.0
 20
156.18489
 30
0.0
 11
-22.0
 21
156.18489
 31
0.0
  0
LINE
  5
39B
  8
SIZE
  6
CONTINUOUS
 62
    30
 10
0.0
 20
99.0
 30
0.0
 11
0.0
 21
302.69426499999992
 31
0.0
  0
LINE
  5
39C
  8
SIZE
  6
CONTINUOUS
 62
    30
 10
53.0
 20
68.5
 30
0.0
 11
53.0
 21
302.69426499999992
 31
0.0
  0
LINE
  5
39D
  8
SIZE
  6
CONTINUOUS
 62
    30
 10
-12.0
 20
282.69426499999992
 30
0.0
 11
-24.0
 21
282.69426499999992
 31
0.0
  0
LINE
  5
39E
  8
SIZE
  6
CONTINUOUS
 62
    30
 10
65.0
 20
282.69426499999992
 30
0.0
 11
77.0
 21
282.69426499999992
 31
0.0
  0
LINE
  5
39F
  8
SIZE
  6
CONTINUOUS
 62
    30
 10
227.54351800000001
 20
282.69426499999992
 30
0.0
 11
53.0
 21
282.69426499999992
 31
0.0
  0
TEXT
  5
3A0
  8
SIZE
  6
CONTINUOUS
 62
    30
 10
109.2863745714284
 20
307.69426499999992
 30
0.0
 40
64.0
  1
53
 41
0.9
 72
     1
 11
155.9149459999999
 21
307.69426499999992
 31
0.0
  0
LINE
  5
3A1
  8
SIZE
  6
CONTINUOUS
 62
    30
 10
0.0
 20
282.69426499999992
 30
0.0
 11
53.0
 21
282.69426499999992
 31
0.0
  0
LINE
  5
3A2
  8
SIZE
  6
CONTINUOUS
 62
    30
 10
0.0
 20
282.69426499999992
 30
0.0
 11
53.0
 21
282.69426499999992
 31
0.0
  0
CIRCLE
  5
3A3
  8
SIZE
  6
CONTINUOUS
 62
    30
 10
0.0
 20
282.69426499999992
 30
0.0
 40
6.0
  0
LINE
  5
3A4
  8
SIZE
  6
CONTINUOUS
 62
    30
 10
0.0
 20
282.69426499999992
 30
0.0
 11
-12.0
 21
282.69426499999992
 31
0.0
  0
CIRCLE
  5
3A5
  8
SIZE
  6
CONTINUOUS
 62
    30
 10
53.0
 20
282.69426499999992
 30
0.0
 40
6.0
  0
LINE
  5
3A6
  8
SIZE
  6
CONTINUOUS
 62
    30
 10
53.0
 20
282.69426499999992
 30
0.0
 11
65.0
 21
282.69426499999992
 31
0.0
  0
LINE
  5
3A9
  8
SIZE
  6
CONTINUOUS
 62
    30
 10
0.0
 20
99.0
 30
0.0
 11
0.0
 21
302.69426499999992
 31
0.0
  0
LINE
  5
3AA
  8
SIZE
  6
CONTINUOUS
 62
    30
 10
-35.0
 20
81.881995000000003
 30
0.0
 11
-35.0
 21
302.69426499999992
 31
0.0
  0
LINE
  5
3AB
  8
SIZE
  6
CONTINUOUS
 62
    30
 10
12.0
 20
282.69426499999992
 30
0.0
 11
24.0
 21
282.69426499999992
 31
0.0
  0
LINE
  5
3AC
  8
SIZE
  6
CONTINUOUS
 62
    30
 10
-47.0
 20
282.69426499999992
 30
0.0
 11
-59.0
 21
282.69426499999992
 31
0.0
  0
LINE
  5
3AD
  8
SIZE
  6
CONTINUOUS
 62
    30
 10
-202.6550719999999
 20
282.69426499999992
 30
0.0
 11
-35.0
 21
282.69426499999992
 31
0.0
  0
TEXT
  5
3AE
  8
SIZE
  6
CONTINUOUS
 62
    30
 10
-177.6550714285714
 20
307.69426499999992
 30
0.0
 40
64.0
  1
35
 41
0.9
 72
     1
 11
-131.0265
 21
307.69426499999992
 31
0.0
  0
LINE
  5
3AF
  8
SIZE
  6
CONTINUOUS
 62
    30
 10
0.0
 20
282.69426499999992
 30
0.0
 11
-35.0
 21
282.69426499999992
 31
0.0
  0
LINE
  5
3B0
  8
SIZE
  6
CONTINUOUS
 62
    30
 10
0.0
 20
282.69426499999992
 30
0.0
 11
-35.0
 21
282.69426499999992
 31
0.0
  0
CIRCLE
  5
3B1
  8
SIZE
  6
CONTINUOUS
 62
    30
 10
0.0
 20
282.69426499999992
 30
0.0
 40
6.0
  0
LINE
  5
3B2
  8
SIZE
  6
CONTINUOUS
 62
    30
 10
0.0
 20
282.69426499999992
 30
0.0
 11
12.0
 21
282.69426499999992
 31
0.0
  0
CIRCLE
  5
3B3
  8
SIZE
  6
CONTINUOUS
 62
    30
 10
-35.0
 20
282.69426499999992
 30
0.0
 40
6.0
  0
LINE
  5
3B4
  8
SIZE
  6
CONTINUOUS
 62
    30
 10
-35.0
 20
282.69426499999992
 30
0.0
 11
-47.0
 21
282.69426499999992
 31
0.0
  0
TEXT
  5
3B7
  8
ETC
  6
CONTINUOUS
 62
    61
 10
396.46885713255119
 20
209.18797597952519
 30
0.0
 40
50.0
  1
P-13RSQD2
 41
0.9
  0
TEXT
  5
3B8
  8
ETC
  6
CONTINUOUS
 62
    61
 10
317.6719341325512
 20
415.40732497952553
 30
0.0
 40
64.0
  1
P-13RSQD2_4
 41
0.9
  0
TEXT
  5
3B9
  8
ETC
  6
CONTINUOUS
 62
    61
 10
305.1430771325513
 20
314.5968829795255
 30
0.0
 40
64.0
  1
システム部材
 41
0.9
  0
LINE
  5
3BA
  8
OUTLINE
  6
CONTINUOUS
 62
     3
 39
50.0
 10
53.0
 20
48.5
 30
0.0
 11
53.0
 21
-48.5
 31
0.0
  0
LINE
  5
3BC
  8
DETAIL
  6
CONTINUOUS
 62
     5
 39
50.0
 10
-32.756
 20
-64.499999999999986
 30
0.0
 11
-12.244
 21
-64.5
 31
0.0
  0
LINE
  5
3BD
  8
DETAIL
  6
CONTINUOUS
 62
     5
 39
50.0
 10
-32.756
 20
64.5
 30
0.0
 11
-12.244
 21
64.5
 31
0.0
  0
ARC
  5
3BE
  8
DETAIL
  6
CONTINUOUS
 62
     5
 39
50.0
 10
-32.756
 20
62.256
 30
0.0
 40
2.2440000000000002
 50
90.0
 51
180.0
  0
ARC
  5
3BF
  8
DETAIL
  6
CONTINUOUS
 62
     5
 10
-12.244
 20
66.744
 30
0.0
 40
2.2440000000000002
 50
270.0
 51
0.0
  0
ARC
  5
3C0
  8
DETAIL
  6
CONTINUOUS
 62
     5
 39
50.0
 10
-32.756
 20
-62.256
 30
0.0
 40
2.2440000000000002
 50
180.0
 51
270.0
  0
ARC
  5
3C1
  8
DETAIL
  6
CONTINUOUS
 62
     5
 10
-12.244
 20
-66.744
 30
0.0
 40
2.2440000000000002
 50
0.0
 51
90.0
  0
LINE
  5
3C2
  8
OUTLINE
  6
CONTINUOUS
 62
     3
 39
50.0
 10
-12.244
 20
64.5
 30
0.0
 11
-32.756
 21
64.5
 31
0.0
  0
LINE
  5
3C3
  8
OUTLINE
  6
CONTINUOUS
 62
     3
 39
50.0
 10
-35.0
 20
62.256
 30
0.0
 11
-35.0
 21
-62.256
 31
0.0
  0
LINE
  5
3C4
  8
OUTLINE
  6
CONTINUOUS
 62
     3
 39
50.0
 10
-32.756
 20
-64.499999999999986
 30
0.0
 11
-12.244
 21
-64.5
 31
0.0
  0
ARC
  5
3C5
  8
OUTLINE
  6
CONTINUOUS
 62
     3
 39
50.0
 10
-32.756
 20
-62.255999999999993
 30
0.0
 40
2.2440000000000002
 50
180.0
 51
269.99999999999989
  0
ARC
  5
3C6
  8
OUTLINE
  6
CONTINUOUS
 62
     3
 10
-12.244
 20
-66.744
 30
0.0
 40
2.2440000000000002
 50
0.0
 51
89.999999999999943
  0
ARC
  5
3C7
  8
OUTLINE
  6
CONTINUOUS
 62
     3
 10
-12.244
 20
66.744000000000014
 30
0.0
 40
2.2440000000000002
 50
270.0
 51
0.0
  0
ARC
  5
3C8
  8
OUTLINE
  6
CONTINUOUS
 62
     3
 39
50.0
 10
-32.756
 20
62.256000000000007
 30
0.0
 40
2.2440000000000002
 50
90.0
 51
180.0
  0
ENDSEC
  0
EOF
