  0
SECTION
  2
HEADER
  9
$ACADVER
  1
AC1009
  9
$INSBASE
 10
0.0
 20
0.0
 30
0.0
  9
$EXTMIN
 10
-435.14103699999993
 20
-309.85393900000003
 30
0.0
  9
$EXTMAX
 10
867.31263624125666
 20
502.69492539135132
 30
0.0
  9
$LIMMIN
 10
-4200.0
 20
-2970.0
  9
$LIMMAX
 10
4200.0
 20
2970.0
  9
$ORTHOMODE
 70
     0
  9
$REGENMODE
 70
     0
  9
$FILLMODE
 70
     1
  9
$QTEXTMODE
 70
     0
  9
$MIRRTEXT
 70
     0
  9
$DRAGMODE
 70
     2
  9
$LTSCALE
 40
20.0
  9
$OSMODE
 70
    41
  9
$ATTMODE
 70
     1
  9
$TEXTSIZE
 40
64.0
  9
$TRACEWID
 40
0.05
  9
$TEXTSTYLE
  7
STANDARD
  9
$CLAYER
  8
0
  9
$CELTYPE
  6
CONTINUOUS
  9
$CECOLOR
 62
     8
  9
$DIMSCALE
 40
1.0
  9
$DIMASZ
 40
2.0
  9
$DIMEXO
 40
20.0
  9
$DIMDLI
 40
200.0
  9
$DIMRND
 40
0.0
  9
$DIMDLE
 40
0.0
  9
$DIMEXE
 40
30.0
  9
$DIMTP
 40
0.0
  9
$DIMTM
 40
0.0
  9
$DIMTXT
 40
64.0
  9
$DIMCEN
 40
0.09
  9
$DIMTSZ
 40
0.0
  9
$DIMTOL
 70
     0
  9
$DIMLIM
 70
     0
  9
$DIMTIH
 70
     0
  9
$DIMTOH
 70
     0
  9
$DIMSE1
 70
     0
  9
$DIMSE2
 70
     0
  9
$DIMTAD
 70
     1
  9
$DIMZIN
 70
     8
  9
$DIMBLK
  1

  9
$DIMASO
 70
     1
  9
$DIMSHO
 70
     0
  9
$DIMPOST
  1

  9
$DIMAPOST
  1

  9
$DIMALT
 70
     0
  9
$DIMALTD
 70
     2
  9
$DIMALTF
 40
25.399999999999999
  9
$DIMLFAC
 40
1.0
  9
$DIMTOFL
 70
     1
  9
$DIMTVP
 40
0.0
  9
$DIMTIX
 70
     1
  9
$DIMSOXD
 70
     0
  9
$DIMSAH
 70
     0
  9
$DIMBLK1
  1

  9
$DIMBLK2
  1

  9
$DIMSTYLE
  2
STANDARD
  9
$DIMCLRD
 70
     0
  9
$DIMCLRE
 70
     0
  9
$DIMCLRT
 70
     0
  9
$DIMTFAC
 40
1.0
  9
$DIMGAP
 40
0.09
  9
$LUNITS
 70
     2
  9
$LUPREC
 70
     4
  9
$SKETCHINC
 40
0.1
  9
$FILLETRAD
 40
5.0
  9
$AUNITS
 70
     1
  9
$AUPREC
 70
     3
  9
$MENU
  1
ACAD
  9
$ELEVATION
 40
0.0
  9
$PELEVATION
 40
0.0
  9
$THICKNESS
 40
0.0
  9
$LIMCHECK
 70
     1
  9
$BLIPMODE
 70
     0
  9
$CHAMFERA
 40
0.0
  9
$CHAMFERB
 40
0.0
  9
$SKPOLY
 70
     0
  9
$TDCREATE
 40
2451801.675300925
  9
$TDUPDATE
 40
2453458.6792961452
  9
$TDINDWG
 40
0.0040548958
  9
$TDUSRTIMER
 40
0.0040547222
  9
$USRTIMER
 70
     1
  9
$ANGBASE
 50
0.0
  9
$ANGDIR
 70
     0
  9
$PDMODE
 70
     3
  9
$PDSIZE
 40
-2.0
  9
$PLINEWID
 40
0.0
  9
$COORDS
 70
     2
  9
$SPLFRAME
 70
     0
  9
$SPLINETYPE
 70
     6
  9
$SPLINESEGS
 70
     8
  9
$ATTDIA
 70
     0
  9
$ATTREQ
 70
     1
  9
$HANDLING
 70
 22529
  9
$HANDSEED
  5
1CA
  9
$SURFTAB1
 70
     6
  9
$SURFTAB2
 70
     6
  9
$SURFTYPE
 70
     6
  9
$SURFU
 70
     6
  9
$SURFV
 70
     6
  9
$UCSNAME
  2

  9
$UCSORG
 10
0.0
 20
0.0
 30
0.0
  9
$UCSXDIR
 10
1.0
 20
0.0
 30
0.0
  9
$UCSYDIR
 10
0.0
 20
1.0
 30
0.0
  9
$PUCSNAME
  2

  9
$PUCSORG
 10
0.0
 20
0.0
 30
0.0
  9
$PUCSXDIR
 10
1.0
 20
0.0
 30
0.0
  9
$PUCSYDIR
 10
0.0
 20
1.0
 30
0.0
  9
$USERI1
 70
     0
  9
$USERI2
 70
     0
  9
$USERI3
 70
     0
  9
$USERI4
 70
     0
  9
$USERI5
 70
     0
  9
$USERR1
 40
20.0
  9
$USERR2
 40
0.0
  9
$USERR3
 40
0.0
  9
$USERR4
 40
0.0
  9
$USERR5
 40
0.0
  9
$WORLDVIEW
 70
     1
  9
$SHADEDGE
 70
     3
  9
$SHADEDIF
 70
    70
  9
$TILEMODE
 70
     1
  9
$MAXACTVP
 70
    64
  9
$PLIMCHECK
 70
     0
  9
$PEXTMIN
 10
1.0000000000000000E+020
 20
1.0000000000000000E+020
 30
1.0000000000000000E+020
  9
$PEXTMAX
 10
-1.0000000000000000E+020
 20
-1.0000000000000000E+020
 30
-1.0000000000000000E+020
  9
$PLIMMIN
 10
0.0
 20
0.0
  9
$PLIMMAX
 10
12.0
 20
9.0
  9
$UNITMODE
 70
     0
  9
$VISRETAIN
 70
     1
  9
$PLINEGEN
 70
     0
  9
$PSLTSCALE
 70
     1
  0
ENDSEC
  0
SECTION
  2
TABLES
  0
TABLE
  2
VPORT
 70
     3
  0
VPORT
  2
*ACTIVE
 70
     0
 10
0.0
 20
0.0
 11
1.0
 21
1.0
 12
150.40649508706389
 22
65.331379000000084
 13
0.0
 23
0.0
 14
400.0
 24
400.0
 15
400.0
 25
400.0
 16
0.0
 26
0.0
 36
1.0
 17
0.0
 27
0.0
 37
0.0
 40
1069.3377815020531
 41
1.4423558897243101
 42
50.0
 43
0.0
 44
0.0
 50
0.0
 51
0.0
 71
     0
 72
   500
 73
     1
 74
     0
 75
     0
 76
     0
 77
     0
 78
     0
  0
ENDTAB
  0
TABLE
  2
LTYPE
 70
     7
  0
LTYPE
  2
CONTINUOUS
 70
     0
  3
実線
 72
    65
 73
     0
 40
0.0
  0
LTYPE
  2
DOT
 70
     0
  3
...............................................
 72
    65
 73
     2
 40
0.8
 49
0.5
 49
-0.3
  0
LTYPE
  2
DASHED
 70
     0
  3
_ _ _ _ _ _ _ _ _ _ _ _ _ _ _ _ _ _ _ _ _ _ _
 72
    65
 73
     2
 40
2.0
 49
1.1999999999999991
 49
-0.8
  0
LTYPE
  2
DASHDOT
 70
     0
  3
____ _ ____ _ ____ _ ____ _ ____ _ ____ _ ____
 72
    65
 73
     4
 40
5.5
 49
4.0
 49
-0.6
 49
0.3
 49
-0.6
  0
LTYPE
  2
DASHDOT1
 70
     0
  3
____ _ ____ _ ____ _ ____ _ ____ _ ____ _ ____
 72
    65
 73
     4
 40
2.0
 49
1.5
 49
-0.2
 49
0.1
 49
-0.2
  0
LTYPE
  2
DIVIDE
 70
     0
  3
_____ _ _ _____ _ _ _____ _ _ _____ _ _ ____
 72
    65
 73
     6
 40
6.4000000000000004
 49
4.0
 49
-0.6
 49
0.3
 49
-0.6
 49
0.3
 49
-0.6
  0
LTYPE
  2
DIVIDE1
 70
     0
  3
_____ _ _ _____ _ _ _____ _ _ _____ _ _ ____
 72
    65
 73
     6
 40
3.2000000000000002
 49
2.0
 49
-0.3
 49
0.15
 49
-0.3
 49
0.15
 49
-0.3
  0
ENDTAB
  0
TABLE
  2
LAYER
 70
    12
  0
LAYER
  2
0
 70
     0
 62
     7
  6
CONTINUOUS
  0
LAYER
  2
OUTLINE
 70
     0
 62
     3
  6
CONTINUOUS
  0
LAYER
  2
DETAIL
 70
     0
 62
     5
  6
CONTINUOUS
  0
LAYER
  2
BASIS
 70
     0
 62
     6
  6
DASHDOT
  0
LAYER
  2
SIZE
 70
     0
 62
    30
  6
CONTINUOUS
  0
LAYER
  2
NOTE
 70
     0
 62
     4
  6
CONTINUOUS
  0
LAYER
  2
ARRANGE
 70
     0
 62
     1
  6
CONTINUOUS
  0
LAYER
  2
FIX
 70
     0
 62
    11
  6
CONTINUOUS
  0
LAYER
  2
ETC
 70
     0
 62
    61
  6
CONTINUOUS
  0
LAYER
  2
DEFPOINTS
 70
     0
 62
     7
  6
CONTINUOUS
  0
LAYER
  2
SERVICESPACE
 70
     0
 62
     2
  6
DASHDOT
  0
LAYER
  2
SYMBOLLINE
 70
     0
 62
    15
  6
CONTINUOUS
  0
ENDTAB
  0
TABLE
  2
STYLE
 70
     1
  0
STYLE
  2
STANDARD
 70
     0
 40
0.0
 41
0.9
 50
0.0
 71
     0
 42
64.0
  3
SIMPLEX
  4
BIGFONT
  0
ENDTAB
  0
TABLE
  2
VIEW
 70
     1
  0
VIEW
  2
ALL
 70
     0
 40
6374.9789810000002
 10
0.0
 20
58.11501599999999
 41
8842.1052629999976
 11
0.0
 21
0.0
 31
1.0
 12
0.0
 22
0.0
 32
0.0
 42
50.0
 43
0.0
 44
0.0
 50
0.0
 71
     0
  0
ENDTAB
  0
TABLE
  2
UCS
 70
     0
  0
ENDTAB
  0
TABLE
  2
APPID
 70
     1
  0
APPID
  2
ACAD
 70
     0
  0
ENDTAB
  0
TABLE
  2
DIMSTYLE
 70
     1
  0
DIMSTYLE
  2
STANDARD
 70
     0
  3

  4

  5

  6

  7

 40
1.0
 41
0.18
 42
0.0625
 43
0.38
 44
0.18
 45
0.0
 46
0.0
 47
0.0
 48
0.0
140
0.18
141
0.09
142
0.0
143
25.399999999999999
144
1.0
145
0.0
146
1.0
147
0.09
 71
     0
 72
     0
 73
     1
 74
     1
 75
     0
 76
     0
 77
     0
 78
     0
170
     0
171
     2
172
     0
173
     0
174
     0
175
     0
176
     0
177
     0
178
     0
  0
ENDTAB
  0
ENDSEC
  0
SECTION
  2
BLOCKS
  0
BLOCK
  8
0
  2
$MODEL_SPACE
 70
     0
 10
0.0
 20
0.0
 30
0.0
  3
$MODEL_SPACE
  1

  0
ENDBLK
  5
107
  8
0
  0
BLOCK
 67
     1
  8
0
  2
$PAPER_SPACE
 70
     0
 10
0.0
 20
0.0
 30
0.0
  3
$PAPER_SPACE
  1

  0
ENDBLK
  5
103
 67
     1
  8
0
  0
ENDSEC
  0
SECTION
  2
ENTITIES
  0
LINE
  5
125
  8
DETAIL
  6
CONTINUOUS
 62
     5
 10
0.0
 20
0.0
 30
0.0
 11
0.0
 21
-77.5
 31
0.0
  0
LINE
  5
126
  8
DETAIL
  6
CONTINUOUS
 62
     5
 10
-5.0000010000000001
 20
-48.5
 30
0.0
 11
-61.0
 21
-48.5
 31
0.0
  0
LINE
  5
127
  8
DETAIL
  6
CONTINUOUS
 62
     5
 10
-5.0
 20
48.5
 30
0.0
 11
-61.0
 21
48.5
 31
0.0
  0
ARC
  5
128
  8
DETAIL
  6
DASHED
 62
     5
 10
12.55586599999998
 20
-75.05586599999998
 30
0.0
 40
2.444134
 50
270.0
 51
0.0
  0
LINE
  5
129
  8
DETAIL
  6
DASHED
 62
     5
 10
12.55586599999998
 20
-77.5
 30
0.0
 11
0.0
 21
-77.5
 31
0.0
  0
ARC
  5
12A
  8
DETAIL
  6
CONTINUOUS
 62
     5
 10
12.55586599999998
 20
75.05586599999998
 30
0.0
 40
2.444134
 50
0.0
 51
90.0
  0
LINE
  5
12B
  8
DETAIL
  6
CONTINUOUS
 62
     5
 10
15.0
 20
75.05586599999998
 30
0.0
 11
15.0
 21
0.0
 31
0.0
  0
LINE
  5
12C
  8
DETAIL
  6
CONTINUOUS
 62
     5
 10
12.55586599999998
 20
77.5
 30
0.0
 11
0.0
 21
77.5
 31
0.0
  0
LINE
  5
12D
  8
DETAIL
  6
CONTINUOUS
 62
     5
 10
0.0
 20
77.5
 30
0.0
 11
0.0
 21
0.0
 31
0.0
  0
LINE
  5
12E
  8
BASIS
  6
DASHDOT
 62
     6
 10
74.177286999999964
 20
0.0
 30
0.0
 11
-76.870820999999964
 21
0.0
 31
0.0
  0
POINT
  5
12F
  8
ARRANGE
  6
CONTINUOUS
 62
     1
 10
0.0
 20
0.0
 30
0.0
  0
CIRCLE
  5
130
  8
ARRANGE
  6
CONTINUOUS
 62
     1
 10
0.0
 20
0.0
 30
0.0
 40
40.0
  0
LINE
  5
131
  8
DETAIL
  6
CONTINUOUS
 62
     5
 10
15.0
 20
0.0
 30
0.0
 11
15.0
 21
-75.05586599999998
 31
0.0
  0
LINE
  5
132
  8
DETAIL
  6
CONTINUOUS
 62
     5
 10
-61.0
 20
48.5
 30
0.0
 11
-61.0
 21
-48.5
 31
0.0
  0
ARC
  5
133
  8
DETAIL
  6
CONTINUOUS
 62
     5
 10
-5.0
 20
53.5
 30
0.0
 40
5.0
 50
270.0
 51
0.0
  0
ARC
  5
134
  8
DETAIL
  6
CONTINUOUS
 62
     5
 10
-5.0
 20
-53.5
 30
0.0
 40
5.0
 50
0.0
 51
90.0
  0
CIRCLE
  5
135
  8
FIX
  6
CONTINUOUS
 62
    11
 10
0.0
 20
65.0
 30
0.0
 40
2.75
  0
CIRCLE
  5
136
  8
FIX
  6
CONTINUOUS
 62
    11
 10
0.0
 20
-65.0
 30
0.0
 40
2.75
  0
LINE
  5
137
  8
SIZE
  6
CONTINUOUS
 62
    30
 10
-61.0
 20
212.30648599999989
 30
0.0
 11
-172.11317700000001
 21
212.30648599999989
 31
0.0
  0
LINE
  5
138
  8
SIZE
  6
CONTINUOUS
 62
    30
 10
15.0
 20
212.30648599999989
 30
0.0
 11
128.90654399999991
 21
212.30648599999989
 31
0.0
  0
TEXT
  5
139
  8
NOTE
  6
CONTINUOUS
 62
     4
 10
-421.96350899999987
 20
-185.76264800000001
 30
0.0
 40
64.0
  1
4-φ5.5
 41
0.9
  0
LINE
  5
13A
  8
NOTE
  6
CONTINUOUS
 62
     4
 10
-435.14103699999993
 20
-205.540279
 30
0.0
 11
-99.528105999999994
 21
-205.540279
 31
0.0
  0
LINE
  5
13B
  8
NOTE
  6
CONTINUOUS
 62
     4
 10
0.0
 20
-65.0
 30
0.0
 11
-99.528105999999994
 21
-205.540279
 31
0.0
  0
ARC
  5
13C
  8
OUTLINE
  6
CONTINUOUS
 62
     3
 10
-5.0
 20
-53.5
 30
0.0
 40
5.0
 50
0.0
 51
90.0
  0
ARC
  5
13D
  8
OUTLINE
  6
CONTINUOUS
 62
     3
 10
-5.0
 20
53.5
 30
0.0
 40
5.0
 50
270.0
 51
0.0
  0
LINE
  5
13E
  8
OUTLINE
  6
CONTINUOUS
 62
     3
 10
-61.0
 20
48.5
 30
0.0
 11
-61.0
 21
-48.5
 31
0.0
  0
LINE
  5
13F
  8
OUTLINE
  6
CONTINUOUS
 62
     3
 10
15.0
 20
0.0
 30
0.0
 11
15.0
 21
-75.05586599999998
 31
0.0
  0
LINE
  5
140
  8
OUTLINE
  6
CONTINUOUS
 62
     3
 10
0.0
 20
77.5
 30
0.0
 11
0.0
 21
0.0
 31
0.0
  0
LINE
  5
141
  8
OUTLINE
  6
CONTINUOUS
 62
     3
 10
12.55586599999998
 20
77.5
 30
0.0
 11
0.0
 21
77.5
 31
0.0
  0
LINE
  5
142
  8
OUTLINE
  6
CONTINUOUS
 62
     3
 10
15.0
 20
75.05586599999998
 30
0.0
 11
15.0
 21
0.0
 31
0.0
  0
ARC
  5
143
  8
OUTLINE
  6
CONTINUOUS
 62
     3
 10
12.55586599999998
 20
75.05586599999998
 30
0.0
 40
2.444134
 50
0.0
 51
90.0
  0
LINE
  5
144
  8
OUTLINE
  6
DASHED
 62
     3
 10
12.55586599999998
 20
-77.5
 30
0.0
 11
0.0
 21
-77.5
 31
0.0
  0
ARC
  5
145
  8
OUTLINE
  6
DASHED
 62
     3
 10
12.55586599999998
 20
-75.05586599999998
 30
0.0
 40
2.444134
 50
270.0
 51
0.0
  0
LINE
  5
146
  8
OUTLINE
  6
CONTINUOUS
 62
     3
 10
-5.0
 20
48.5
 30
0.0
 11
-61.0
 21
48.5
 31
0.0
  0
LINE
  5
147
  8
OUTLINE
  6
CONTINUOUS
 62
     3
 10
-5.0000010000000001
 20
-48.5
 30
0.0
 11
-61.0
 21
-48.5
 31
0.0
  0
LINE
  5
148
  8
OUTLINE
  6
CONTINUOUS
 62
     3
 10
0.0
 20
0.0
 30
0.0
 11
0.0
 21
-77.5
 31
0.0
  0
LINE
  5
149
  8
SIZE
  6
CONTINUOUS
 62
    30
 10
363.67504200000002
 20
-79.5
 30
0.0
 11
363.67504200000002
 21
-309.85393900000003
 31
0.0
  0
LINE
  5
14A
  8
SIZE
  6
CONTINUOUS
 62
    30
 10
225.7180029999999
 20
-67.0
 30
0.0
 11
225.7180029999999
 21
-241.37872400000001
 31
0.0
  0
LINE
  5
14B
  8
SIZE
  6
BYBLOCK
 62
    30
 10
40.0
 20
65.0
 30
0.0
 11
255.71800300000001
 21
65.0
 31
0.0
  0
LINE
  5
14C
  8
SIZE
  6
BYBLOCK
 62
    30
 10
40.0
 20
-65.0
 30
0.0
 11
255.71800300000001
 21
-65.0
 31
0.0
  0
LINE
  5
14D
  8
SIZE
  6
BYBLOCK
 62
    30
 10
225.7180029999999
 20
-67.0
 30
0.0
 11
225.7180029999999
 21
-69.0
 31
0.0
  0
LINE
  5
14E
  8
SIZE
  6
BYBLOCK
 62
    30
 10
225.7180029999999
 20
67.0
 30
0.0
 11
225.7180029999999
 21
69.0
 31
0.0
  0
LINE
  5
14F
  8
SIZE
  6
BYBLOCK
 62
    30
 10
225.7180029999999
 20
-65.0
 30
0.0
 11
225.7180029999999
 21
65.0
 31
0.0
  0
TEXT
  5
150
  8
SIZE
  6
BYBLOCK
 62
    30
 10
193.71800300000001
 20
-238.226439
 30
0.0
 40
64.0
  1
130
 50
90.0
 41
0.9
  0
LINE
  5
151
  8
SIZE
  6
BYBLOCK
 62
    30
 10
32.555865999999988
 20
77.5
 30
0.0
 11
393.67504200000002
 21
77.5
 31
0.0
  0
LINE
  5
152
  8
SIZE
  6
BYBLOCK
 62
    30
 10
32.555865999999988
 20
-77.5
 30
0.0
 11
393.67504200000002
 21
-77.5
 31
0.0
  0
LINE
  5
153
  8
SIZE
  6
BYBLOCK
 62
    30
 10
363.67504200000002
 20
-79.5
 30
0.0
 11
363.67504200000002
 21
-81.5
 31
0.0
  0
LINE
  5
154
  8
SIZE
  6
BYBLOCK
 62
    30
 10
363.67504200000002
 20
79.5
 30
0.0
 11
363.67504200000002
 21
81.5
 31
0.0
  0
LINE
  5
155
  8
SIZE
  6
BYBLOCK
 62
    30
 10
363.67504200000002
 20
-77.5
 30
0.0
 11
363.67504200000002
 21
77.5
 31
0.0
  0
TEXT
  5
156
  8
SIZE
  6
BYBLOCK
 62
    30
 10
331.67504200000002
 20
-306.63707399999993
 30
0.0
 40
64.0
  1
□155
 50
90.0
 41
0.9
  0
LINE
  5
157
  8
SIZE
  6
BYBLOCK
 62
    30
 10
-81.0
 20
48.5
 30
0.0
 11
-192.0832299999999
 21
48.5
 31
0.0
  0
LINE
  5
158
  8
SIZE
  6
BYBLOCK
 62
    30
 10
-81.0
 20
-48.5
 30
0.0
 11
-192.0832299999999
 21
-48.5
 31
0.0
  0
LINE
  5
159
  8
SIZE
  6
BYBLOCK
 62
    30
 10
-162.08322999999999
 20
-50.5
 30
0.0
 11
-162.08322999999999
 21
-52.5
 31
0.0
  0
LINE
  5
15A
  8
SIZE
  6
BYBLOCK
 62
    30
 10
-162.08322999999999
 20
50.5
 30
0.0
 11
-162.08322999999999
 21
52.5
 31
0.0
  0
LINE
  5
15B
  8
SIZE
  6
BYBLOCK
 62
    30
 10
-162.08322999999999
 20
-48.5
 30
0.0
 11
-162.08322999999999
 21
48.5
 31
0.0
  0
TEXT
  5
15C
  8
SIZE
  6
BYBLOCK
 62
    30
 10
-194.0832299999999
 20
-75.428570999999977
 30
0.0
 40
64.0
  1
φ97
 50
90.0
 41
0.9
  0
LINE
  5
15D
  8
SIZE
  6
BYBLOCK
 62
    30
 10
0.0
 20
97.5
 30
0.0
 11
0.0
 21
242.30648599999981
 31
0.0
  0
LINE
  5
15E
  8
SIZE
  6
BYBLOCK
 62
    30
 10
-61.0
 20
68.5
 30
0.0
 11
-61.0
 21
242.30648599999981
 31
0.0
  0
LINE
  5
15F
  8
SIZE
  6
BYBLOCK
 62
    30
 10
-63.0
 20
212.30648599999989
 30
0.0
 11
-65.0
 21
212.30648599999989
 31
0.0
  0
LINE
  5
160
  8
SIZE
  6
BYBLOCK
 62
    30
 10
2.0
 20
212.30648599999989
 30
0.0
 11
4.0
 21
212.30648599999989
 31
0.0
  0
LINE
  5
161
  8
SIZE
  6
BYBLOCK
 62
    30
 10
-61.0
 20
212.30648599999989
 30
0.0
 11
0.0
 21
212.30648599999989
 31
0.0
  0
TEXT
  5
162
  8
SIZE
  6
BYBLOCK
 62
    30
 10
-159.638283
 20
244.30648599999981
 30
0.0
 40
64.0
  1
61
 41
0.9
  0
LINE
  5
163
  8
SIZE
  6
BYBLOCK
 62
    30
 10
15.0
 20
95.055865999999995
 30
0.0
 11
15.0
 21
242.30648599999981
 31
0.0
  0
LINE
  5
164
  8
SIZE
  6
BYBLOCK
 62
    30
 10
0.0
 20
97.5
 30
0.0
 11
0.0
 21
242.30648599999981
 31
0.0
  0
LINE
  5
165
  8
SIZE
  6
BYBLOCK
 62
    30
 10
-2.0
 20
212.30648599999989
 30
0.0
 11
-4.0
 21
212.30648599999989
 31
0.0
  0
LINE
  5
166
  8
SIZE
  6
BYBLOCK
 62
    30
 10
17.0
 20
212.30648599999989
 30
0.0
 11
19.0
 21
212.30648599999989
 31
0.0
  0
LINE
  5
167
  8
SIZE
  6
BYBLOCK
 62
    30
 10
0.0
 20
212.30648599999989
 30
0.0
 11
15.0
 21
212.30648599999989
 31
0.0
  0
TEXT
  5
168
  8
SIZE
  6
BYBLOCK
 62
    30
 10
45.531601000000002
 20
244.30648599999981
 30
0.0
 40
64.0
  1
15
 41
0.9
  0
CIRCLE
  5
169
  8
SIZE
  6
CONTINUOUS
 62
    30
 10
15.0
 20
212.30648599999989
 30
0.0
 40
6.0
  0
CIRCLE
  5
16A
  8
SIZE
  6
CONTINUOUS
 62
    30
 10
0.0
 20
212.30648599999989
 30
0.0
 40
6.0
  0
CIRCLE
  5
16B
  8
SIZE
  6
CONTINUOUS
 62
    30
 10
0.0
 20
212.30648599999989
 30
0.0
 40
6.0
  0
CIRCLE
  5
16C
  8
SIZE
  6
CONTINUOUS
 62
    30
 10
-61.0
 20
212.30648599999989
 30
0.0
 40
6.0
  0
CIRCLE
  5
16D
  8
SIZE
  6
CONTINUOUS
 62
    30
 10
-162.08322999999999
 20
48.5
 30
0.0
 40
6.0
  0
CIRCLE
  5
16E
  8
SIZE
  6
CONTINUOUS
 62
    30
 10
-162.08322999999999
 20
-48.5
 30
0.0
 40
6.0
  0
CIRCLE
  5
16F
  8
SIZE
  6
CONTINUOUS
 62
    30
 10
363.67504200000002
 20
77.5
 30
0.0
 40
6.0
  0
CIRCLE
  5
170
  8
SIZE
  6
CONTINUOUS
 62
    30
 10
363.67504200000002
 20
-77.5
 30
0.0
 40
6.0
  0
CIRCLE
  5
171
  8
SIZE
  6
CONTINUOUS
 62
    30
 10
225.7180029999999
 20
65.0
 30
0.0
 40
6.0
  0
CIRCLE
  5
172
  8
SIZE
  6
CONTINUOUS
 62
    30
 10
225.7180029999999
 20
-65.0
 30
0.0
 40
6.0
  0
POLYLINE
  5
173
  8
NOTE
  6
CONTINUOUS
 62
     4
 66
     1
 10
0.0
 20
0.0
 30
0.0
  0
VERTEX
  5
1C6
  8
NOTE
  6
CONTINUOUS
 62
     4
 10
-29.889230999999999
 20
-91.582586000000006
 30
0.0
  0
VERTEX
  5
1C7
  8
NOTE
  6
CONTINUOUS
 62
     4
 10
0.0
 20
-65.0
 30
0.0
  0
VERTEX
  5
1C8
  8
NOTE
  6
CONTINUOUS
 62
     4
 10
-12.593540000000001
 20
-102.96581
 30
0.0
  0
SEQEND
  5
1C9
  8
NOTE
  6
CONTINUOUS
 62
     4
  0
LINE
  5
178
  8
NOTE
  6
CONTINUOUS
 62
     4
 10
0.0
 20
-45.0
 30
0.0
 11
0.0
 21
-85.0
 31
0.0
  0
LINE
  5
179
  8
NOTE
  6
CONTINUOUS
 62
     4
 10
20.0
 20
-65.0
 30
0.0
 11
-20.0
 21
-65.0
 31
0.0
  0
LINE
  5
17A
  8
NOTE
  6
CONTINUOUS
 62
     4
 10
0.0
 20
45.0
 30
0.0
 11
0.0
 21
85.0
 31
0.0
  0
LINE
  5
17B
  8
NOTE
  6
CONTINUOUS
 62
     4
 10
20.0
 20
65.0
 30
0.0
 11
-20.0
 21
65.0
 31
0.0
  0
TEXT
  5
17C
  8
ETC
  6
CONTINUOUS
 62
    61
 10
426.72023677329491
 20
122.28874386298141
 30
0.0
 40
50.0
  1
P-13RSXQ2
 41
0.9
  0
TEXT
  5
17D
  8
ETC
  6
CONTINUOUS
 62
    61
 10
425.38137778243032
 20
191.88269291855059
 30
0.0
 40
50.0
  1
P-13RSXD2
 41
0.9
  0
TEXT
  5
17E
  8
ETC
  6
CONTINUOUS
 62
    61
 10
313.25549338411378
 20
438.69492539135109
 30
0.0
 40
64.0
  1
P-13RSX2_5
 41
0.9
  0
TEXT
  5
17F
  8
ETC
  6
CONTINUOUS
 62
    61
 10
421.36480080983392
 20
262.81498504155712
 30
0.0
 40
50.0
  1
P-13RSX2
 41
0.9
  0
TEXT
  5
180
  8
ETC
  6
CONTINUOUS
 62
    61
 10
303.89835738411392
 20
336.42396939135119
 30
0.0
 40
64.0
  1
システム部材
 41
0.9
  0
ENDSEC
  0
EOF
