  0
SECTION
  2
HEADER
  9
$ACADVER
  1
AC1009
  9
$INSBASE
 10
0.0
 20
0.0
 30
0.0
  9
$EXTMIN
 10
-256.58799099999999
 20
-438.07064100000002
 30
0.0
  9
$EXTMAX
 10
1135.2842270000001
 20
519.6624240000001
 30
0.0
  9
$LIMMIN
 10
-4200.0
 20
-2970.0
  9
$LIMMAX
 10
4200.0
 20
2970.0
  9
$ORTHOMODE
 70
     1
  9
$REGENMODE
 70
     1
  9
$FILLMODE
 70
     1
  9
$QTEXTMODE
 70
     0
  9
$MIRRTEXT
 70
     0
  9
$DRAGMODE
 70
     2
  9
$LTSCALE
 40
20.0
  9
$OSMODE
 70
    37
  9
$ATTMODE
 70
     1
  9
$TEXTSIZE
 40
64.0
  9
$TRACEWID
 40
0.05
  9
$TEXTSTYLE
  7
STANDARD
  9
$CLAYER
  8
ETC
  9
$CELTYPE
  6
CONTINUOUS
  9
$CECOLOR
 62
     3
  9
$DIMSCALE
 40
1.0
  9
$DIMASZ
 40
2.0
  9
$DIMEXO
 40
20.0
  9
$DIMDLI
 40
200.0
  9
$DIMRND
 40
0.0
  9
$DIMDLE
 40
0.0
  9
$DIMEXE
 40
30.0
  9
$DIMTP
 40
0.0
  9
$DIMTM
 40
0.0
  9
$DIMTXT
 40
64.0
  9
$DIMCEN
 40
0.09
  9
$DIMTSZ
 40
0.0
  9
$DIMTOL
 70
     0
  9
$DIMLIM
 70
     0
  9
$DIMTIH
 70
     0
  9
$DIMTOH
 70
     0
  9
$DIMSE1
 70
     0
  9
$DIMSE2
 70
     0
  9
$DIMTAD
 70
     1
  9
$DIMZIN
 70
     8
  9
$DIMBLK
  1
DOT1
  9
$DIMASO
 70
     1
  9
$DIMSHO
 70
     0
  9
$DIMPOST
  1

  9
$DIMAPOST
  1

  9
$DIMALT
 70
     0
  9
$DIMALTD
 70
     2
  9
$DIMALTF
 40
25.399999999999999
  9
$DIMLFAC
 40
1.0
  9
$DIMTOFL
 70
     1
  9
$DIMTVP
 40
0.0
  9
$DIMTIX
 70
     1
  9
$DIMSOXD
 70
     0
  9
$DIMSAH
 70
     0
  9
$DIMBLK1
  1

  9
$DIMBLK2
  1

  9
$DIMSTYLE
  2
STANDARD
  9
$DIMCLRD
 70
     7
  9
$DIMCLRE
 70
     7
  9
$DIMCLRT
 70
     7
  9
$DIMTFAC
 40
1.0
  9
$DIMGAP
 40
0.09
  9
$LUNITS
 70
     2
  9
$LUPREC
 70
     4
  9
$SKETCHINC
 40
0.1
  9
$FILLETRAD
 40
10.0
  9
$AUNITS
 70
     1
  9
$AUPREC
 70
     3
  9
$MENU
  1
ACAD
  9
$ELEVATION
 40
0.0
  9
$PELEVATION
 40
0.0
  9
$THICKNESS
 40
0.0
  9
$LIMCHECK
 70
     1
  9
$BLIPMODE
 70
     0
  9
$CHAMFERA
 40
0.0
  9
$CHAMFERB
 40
0.0
  9
$SKPOLY
 70
     0
  9
$TDCREATE
 40
2451606.5717245368
  9
$TDUPDATE
 40
2454770.6653115861
  9
$TDINDWG
 40
0.1126172454
  9
$TDUSRTIMER
 40
0.112616875
  9
$USRTIMER
 70
     1
  9
$ANGBASE
 50
0.0
  9
$ANGDIR
 70
     0
  9
$PDMODE
 70
     3
  9
$PDSIZE
 40
-2.0
  9
$PLINEWID
 40
0.0
  9
$COORDS
 70
     1
  9
$SPLFRAME
 70
     0
  9
$SPLINETYPE
 70
     6
  9
$SPLINESEGS
 70
     8
  9
$ATTDIA
 70
     0
  9
$ATTREQ
 70
     1
  9
$HANDLING
 70
     1
  9
$HANDSEED
  5
217
  9
$SURFTAB1
 70
     6
  9
$SURFTAB2
 70
     6
  9
$SURFTYPE
 70
     6
  9
$SURFU
 70
     6
  9
$SURFV
 70
     6
  9
$UCSNAME
  2

  9
$UCSORG
 10
0.0
 20
0.0
 30
0.0
  9
$UCSXDIR
 10
1.0
 20
0.0
 30
0.0
  9
$UCSYDIR
 10
0.0
 20
1.0
 30
0.0
  9
$PUCSNAME
  2

  9
$PUCSORG
 10
0.0
 20
0.0
 30
0.0
  9
$PUCSXDIR
 10
1.0
 20
0.0
 30
0.0
  9
$PUCSYDIR
 10
0.0
 20
1.0
 30
0.0
  9
$USERI1
 70
     0
  9
$USERI2
 70
     0
  9
$USERI3
 70
     0
  9
$USERI4
 70
     0
  9
$USERI5
 70
     0
  9
$USERR1
 40
20.0
  9
$USERR2
 40
0.0
  9
$USERR3
 40
0.0
  9
$USERR4
 40
0.0
  9
$USERR5
 40
0.0
  9
$WORLDVIEW
 70
     1
  9
$SHADEDGE
 70
     3
  9
$SHADEDIF
 70
    70
  9
$TILEMODE
 70
     1
  9
$MAXACTVP
 70
    48
  9
$PLIMCHECK
 70
     0
  9
$PEXTMIN
 10
-1.0000000000000000E+020
 20
-1.0000000000000000E+020
 30
-1.0000000000000000E+020
  9
$PEXTMAX
 10
1.0000000000000000E+020
 20
1.0000000000000000E+020
 30
1.0000000000000000E+020
  9
$PLIMMIN
 10
0.0
 20
0.0
  9
$PLIMMAX
 10
12.0
 20
9.0
  9
$UNITMODE
 70
     0
  9
$VISRETAIN
 70
     0
  9
$PLINEGEN
 70
     0
  9
$PSLTSCALE
 70
     0
  0
ENDSEC
  0
SECTION
  2
TABLES
  0
TABLE
  2
VPORT
 70
     1
  0
VPORT
  2
*ACTIVE
 70
     0
 10
0.0
 20
0.0
 11
1.0
 21
1.0
 12
689.87808442712878
 22
-13.66445568254653
 13
0.0
 23
0.0
 14
400.0
 24
400.0
 15
400.0
 25
400.0
 16
0.0
 26
0.0
 36
1.0
 17
0.0
 27
0.0
 37
0.0
 40
1103.9869357061509
 41
2.0261569416498988
 42
50.0
 43
0.0
 44
0.0
 50
0.0
 51
0.0
 71
     0
 72
   500
 73
     1
 74
     0
 75
     0
 76
     0
 77
     0
 78
     0
  0
ENDTAB
  0
TABLE
  2
LTYPE
 70
     4
  0
LTYPE
  2
CONTINUOUS
 70
     0
  3
実線
 72
    65
 73
     0
 40
0.0
  0
LTYPE
  2
DASHDOT
 70
     0
  3
____ _ ____ _ ____ _ ____ _ ____ _ ____ _ ____
 72
    65
 73
     4
 40
5.5
 49
4.0
 49
-0.6
 49
0.3
 49
-0.6
  0
LTYPE
  2
DOT
 70
     0
  3
Dot . . . . . . . . . . . . . . . . . . . . . .
 72
    65
 73
     2
 40
0.25
 49
0.0
 49
-0.25
  0
ENDTAB
  0
TABLE
  2
LAYER
 70
    12
  0
LAYER
  2
0
 70
     0
 62
     7
  6
CONTINUOUS
  0
LAYER
  2
NOTE
 70
     0
 62
     4
  6
CONTINUOUS
  0
LAYER
  2
OUTLINE
 70
     0
 62
     3
  6
CONTINUOUS
  0
LAYER
  2
DETAIL
 70
     0
 62
     5
  6
CONTINUOUS
  0
LAYER
  2
BASIS
 70
     0
 62
     6
  6
DASHDOT
  0
LAYER
  2
SIZE
 70
     0
 62
    30
  6
CONTINUOUS
  0
LAYER
  2
ARRANGE
 70
     0
 62
     1
  6
CONTINUOUS
  0
LAYER
  2
FIX
 70
     0
 62
    11
  6
CONTINUOUS
  0
LAYER
  2
ETC
 70
     0
 62
    61
  6
CONTINUOUS
  0
LAYER
  2
DEFPOINTS
 70
     0
 62
     7
  6
CONTINUOUS
  0
LAYER
  2
SERVICESPACE
 70
     0
 62
     2
  6
DASHDOT
  0
LAYER
  2
SYMBOLLINE
 70
     0
 62
    15
  6
CONTINUOUS
  0
ENDTAB
  0
TABLE
  2
STYLE
 70
     1
  0
STYLE
  2
STANDARD
 70
     0
 40
0.0
 41
0.9
 50
0.0
 71
     0
 42
64.0
  3
SIMPLEX
  4
BIGFONT
  0
ENDTAB
  0
TABLE
  2
VIEW
 70
     1
  0
VIEW
  2
ALL
 70
     0
 40
6374.9789810000002
 10
0.0
 20
58.115015999999997
 41
8842.1052629999976
 11
0.0
 21
0.0
 31
1.0
 12
0.0
 22
0.0
 32
0.0
 42
50.0
 43
0.0
 44
0.0
 50
0.0
 71
     0
  0
ENDTAB
  0
TABLE
  2
UCS
 70
     0
  0
ENDTAB
  0
TABLE
  2
APPID
 70
     3
  0
APPID
  2
ACAD
 70
     0
  0
APPID
  2
ACAD_MLEADERVER
 70
     0
  0
APPID
  2
ACAD_EXEMPT_FROM_CAD_STANDARDS
 70
     0
  0
ENDTAB
  0
TABLE
  2
DIMSTYLE
 70
     1
  0
DIMSTYLE
  2
STANDARD
 70
     0
  3

  4

  5

  6

  7

 40
1.0
 41
0.18
 42
0.0625
 43
0.38
 44
0.18
 45
0.0
 46
0.0
 47
0.0
 48
0.0
140
0.18
141
0.09
142
0.0
143
25.399999999999999
144
1.0
145
0.0
146
1.0
147
0.09
 71
     0
 72
     0
 73
     1
 74
     1
 75
     0
 76
     0
 77
     0
 78
     0
170
     0
171
     2
172
     0
173
     0
174
     0
175
     0
176
     7
177
     7
178
     7
  0
ENDTAB
  0
ENDSEC
  0
SECTION
  2
BLOCKS
  0
BLOCK
  8
0
  2
$MODEL_SPACE
 70
     0
 10
0.0
 20
0.0
 30
0.0
  3
$MODEL_SPACE
  1

  0
ENDBLK
  5
20
  8
0
  0
BLOCK
 67
     1
  8
0
  2
$PAPER_SPACE
 70
     0
 10
0.0
 20
0.0
 30
0.0
  3
$PAPER_SPACE
  1

  0
ENDBLK
  5
1C
 67
     1
  8
0
  0
BLOCK
  8
0
  2
DOT1
 70
     0
 10
0.0
 20
0.0
 30
0.0
  3
DOT1
  1

  0
CIRCLE
  5
35
  8
SIZE
  6
CONTINUOUS
 62
     8
 10
0.0
 20
0.0
 30
0.0
 40
3.0
  0
ENDBLK
  5
36
  8
0
  0
ENDSEC
  0
SECTION
  2
ENTITIES
  0
TEXT
  5
37
  8
ETC
  6
CONTINUOUS
 62
    61
 10
599.30591471534012
 20
406.38430660122532
 30
0.0
 40
40.0
  1
システム部材
 41
0.9
  0
ARC
  5
38
  8
DETAIL
  6
CONTINUOUS
 62
     5
 10
-65.230178000000009
 20
22.636823
 30
0.0
 40
44.033909999999999
 50
210.93578400000001
 51
235.84168
  0
ARC
  5
39
  8
DETAIL
  6
CONTINUOUS
 62
     5
 10
65.230178000000009
 20
22.636823
 30
0.0
 40
44.033909999999999
 50
304.15832
 51
329.06421599999999
  0
LINE
  5
3A
  8
DETAIL
  6
CONTINUOUS
 62
     5
 10
-103.0
 20
0.0
 30
0.0
 11
103.0
 21
0.0
 31
0.0
  0
LINE
  5
3B
  8
DETAIL
  6
CONTINUOUS
 62
     5
 10
-96.0
 20
-8.0
 30
0.0
 11
96.0
 21
-8.0
 31
0.0
  0
LINE
  5
3C
  8
DETAIL
  6
CONTINUOUS
 62
     5
 10
98.0
 20
-6.0
 30
0.0
 11
98.0
 21
0.0
 31
0.0
  0
LINE
  5
3D
  8
DETAIL
  6
CONTINUOUS
 62
     5
 10
-98.0
 20
-6.0
 30
0.0
 11
-98.0
 21
0.0
 31
0.0
  0
ARC
  5
3E
  8
DETAIL
  6
CONTINUOUS
 62
     5
 10
96.0
 20
-6.0
 30
0.0
 40
2.0
 50
270.0
 51
0.0
  0
ARC
  5
3F
  8
DETAIL
  6
CONTINUOUS
 62
     5
 10
-96.0
 20
-6.0
 30
0.0
 40
2.0
 50
180.0
 51
270.0
  0
LINE
  5
40
  8
DETAIL
  6
CONTINUOUS
 62
     5
 10
-49.052999999999997
 20
-85.0
 30
0.0
 11
49.052999999999997
 21
-85.0
 31
0.0
  0
LINE
  5
41
  8
DETAIL
  6
CONTINUOUS
 62
     5
 10
-48.5
 20
54.0
 30
0.0
 11
48.5
 21
54.0
 31
0.0
  0
LINE
  5
42
  8
DETAIL
  6
CONTINUOUS
 62
     5
 10
48.5
 20
54.0
 30
0.0
 11
48.5
 21
0.0
 31
0.0
  0
LINE
  5
43
  8
DETAIL
  6
CONTINUOUS
 62
     5
 10
-48.5
 20
54.0
 30
0.0
 11
-48.5
 21
0.0
 31
0.0
  0
ARC
  5
44
  8
DETAIL
  6
CONTINUOUS
 62
     5
 10
-7.6563299999999996
 20
-5.0747109999999989
 30
0.0
 40
98.0
 50
305.35681600000009
 51
358.28947299999999
  0
ARC
  5
45
  8
DETAIL
  6
CONTINUOUS
 62
     5
 10
7.6563299999999996
 20
-5.0747109999999989
 30
0.0
 40
98.0
 50
181.71052700000001
 51
234.64318399999999
  0
LINE
  5
46
  8
BASIS
  6
DASHDOT
 62
     6
 10
0.0
 20
94.406458999999984
 30
0.0
 11
0.0
 21
-133.60265000000001
 31
0.0
  0
LINE
  5
47
  8
SIZE
  6
CONTINUOUS
 62
    30
 10
69.052999999999997
 20
-85.0
 30
0.0
 11
311.24971299999999
 21
-85.0
 31
0.0
  0
LINE
  5
48
  8
SIZE
  6
CONTINUOUS
 62
    30
 10
123.0
 20
0.0
 30
0.0
 11
311.24971299999999
 21
0.0
 31
0.0
  0
LINE
  5
49
  8
SIZE
  6
CONTINUOUS
 62
    30
 10
281.24971299999999
 20
-88.683838326350269
 30
0.0
 11
281.24971299999999
 21
2.722407889505575
 31
0.0
  0
TEXT
  5
4A
  8
SIZE
  6
CONTINUOUS
 62
    30
 10
249.24971300000001
 20
-207.9709844285714
 30
0.0
 40
64.0
  1
85
 50
90.0
 41
0.9
 72
     1
 11
249.24971300000001
 21
-161.34241299999999
 31
0.0
  0
CIRCLE
  5
4B
  8
SIZE
  6
CONTINUOUS
 62
    30
 10
281.24971299999999
 20
-85.0
 30
0.0
 40
6.0
  0
CIRCLE
  5
4C
  8
SIZE
  6
CONTINUOUS
 62
    30
 10
281.24971299999999
 20
0.0
 30
0.0
 40
6.0
  0
LINE
  5
50
  8
SIZE
  6
CONTINUOUS
 62
    30
 10
-123.0
 20
0.0
 30
0.0
 11
-211.683493
 21
0.0
 31
0.0
  0
LINE
  5
51
  8
SIZE
  6
CONTINUOUS
 62
    30
 10
-116.0
 20
-8.0
 30
0.0
 11
-211.683493
 21
-8.0
 31
0.0
  0
LINE
  5
52
  8
SIZE
  6
CONTINUOUS
 62
    30
 10
-181.683493
 20
-2.0
 30
0.0
 11
-181.683493
 21
-6.0
 31
0.0
  0
TEXT
  5
53
  8
SIZE
  6
CONTINUOUS
 62
    30
 10
-190.56754100000001
 20
-79.337912000000003
 30
0.0
 40
64.0
  1
8
 50
90.0
 41
0.9
 72
     1
 11
-190.56754100000001
 21
-60.137912
 31
0.0
  0
CIRCLE
  5
54
  8
SIZE
  6
CONTINUOUS
 62
    30
 10
-181.683493
 20
0.0
 30
0.0
 40
6.0
  0
CIRCLE
  5
55
  8
SIZE
  6
CONTINUOUS
 62
    30
 10
-181.683493
 20
-8.0
 30
0.0
 40
6.0
  0
LINE
  5
59
  8
SIZE
  6
CONTINUOUS
 62
    30
 10
103.0
 20
20.0
 30
0.0
 11
103.0
 21
453.66242399999999
 31
0.0
  0
LINE
  5
5A
  8
SIZE
  6
CONTINUOUS
 62
    30
 10
-103.0
 20
20.0
 30
0.0
 11
-103.0
 21
453.66242399999999
 31
0.0
  0
LINE
  5
5B
  8
SIZE
  6
CONTINUOUS
 62
    30
 10
103.0
 20
423.6624240000001
 30
0.0
 11
-103.0
 21
423.6624240000001
 31
0.0
  0
TEXT
  5
5C
  8
SIZE
  6
CONTINUOUS
 62
    30
 10
-72.685714285714283
 20
455.66242399999999
 30
0.0
 40
64.0
  1
206
 41
0.9
 72
     1
 11
0.0
 21
455.66242399999999
 31
0.0
  0
CIRCLE
  5
5D
  8
SIZE
  6
CONTINUOUS
 62
    30
 10
103.0
 20
423.66242399999999
 30
0.0
 40
6.0
  0
CIRCLE
  5
5E
  8
SIZE
  6
CONTINUOUS
 62
    30
 10
-103.0
 20
423.66242399999999
 30
0.0
 40
6.0
  0
LINE
  5
62
  8
SIZE
  6
CONTINUOUS
 62
    30
 10
98.0
 20
20.0
 30
0.0
 11
98.0
 21
334.28354000000002
 31
0.0
  0
LINE
  5
63
  8
SIZE
  6
CONTINUOUS
 62
    30
 10
-98.0
 20
20.0
 30
0.0
 11
-98.0
 21
334.28354000000002
 31
0.0
  0
LINE
  5
64
  8
SIZE
  6
CONTINUOUS
 62
    30
 10
98.0
 20
304.28354000000002
 30
0.0
 11
-98.0
 21
304.28354000000002
 31
0.0
  0
TEXT
  5
65
  8
SIZE
  6
CONTINUOUS
 62
    30
 10
-67.200000000000003
 20
336.28354000000002
 30
0.0
 40
64.0
  1
196
 41
0.9
 72
     1
 11
0.0
 21
336.28354000000002
 31
0.0
  0
CIRCLE
  5
66
  8
SIZE
  6
CONTINUOUS
 62
    30
 10
98.0
 20
304.28354000000002
 30
0.0
 40
6.0
  0
CIRCLE
  5
67
  8
SIZE
  6
CONTINUOUS
 62
    30
 10
-98.0
 20
304.28354000000002
 30
0.0
 40
6.0
  0
LINE
  5
6B
  8
SIZE
  6
CONTINUOUS
 62
    30
 10
281.24971299999999
 20
-89.0
 30
0.0
 11
281.24971299999999
 21
-215.190135
 31
0.0
  0
LINE
  5
6C
  8
SIZE
  6
CONTINUOUS
 62
    30
 10
281.24971299999999
 20
53.0
 30
0.0
 11
281.24971299999999
 21
180.928124
 31
0.0
  0
POINT
  5
6D
  8
ARRANGE
  6
CONTINUOUS
 62
     1
 10
0.0
 20
0.0
 30
0.0
  0
CIRCLE
  5
6E
  8
ARRANGE
  6
CONTINUOUS
 62
     1
 10
0.0
 20
0.0
 30
0.0
 40
40.0
  0
ARC
  5
6F
  8
OUTLINE
  6
CONTINUOUS
 62
     3
 10
7.6563299999999996
 20
-5.0747109999999989
 30
0.0
 40
98.0
 50
181.71052700000001
 51
234.64318399999999
  0
ARC
  5
70
  8
OUTLINE
  6
CONTINUOUS
 62
     3
 10
-7.6563299999999996
 20
-5.0747109999999989
 30
0.0
 40
98.0
 50
305.35681600000009
 51
358.28947299999999
  0
LINE
  5
71
  8
OUTLINE
  6
CONTINUOUS
 62
     3
 10
-49.052999999999997
 20
-85.0
 30
0.0
 11
49.052999999999997
 21
-85.0
 31
0.0
  0
ARC
  5
72
  8
OUTLINE
  6
CONTINUOUS
 62
     3
 10
-96.0
 20
-6.0
 30
0.0
 40
2.0
 50
180.0
 51
270.0
  0
ARC
  5
73
  8
OUTLINE
  6
CONTINUOUS
 62
     3
 10
96.0
 20
-6.0
 30
0.0
 40
2.0
 50
270.0
 51
0.0
  0
LINE
  5
74
  8
OUTLINE
  6
CONTINUOUS
 62
     3
 10
-98.0
 20
-6.0
 30
0.0
 11
-98.0
 21
0.0
 31
0.0
  0
LINE
  5
75
  8
OUTLINE
  6
CONTINUOUS
 62
     3
 10
98.0
 20
-6.0
 30
0.0
 11
98.0
 21
0.0
 31
0.0
  0
LINE
  5
76
  8
OUTLINE
  6
CONTINUOUS
 62
     3
 10
-96.0
 20
-8.0
 30
0.0
 11
96.0
 21
-8.0
 31
0.0
  0
LINE
  5
77
  8
OUTLINE
  6
CONTINUOUS
 62
     3
 10
-103.0
 20
0.0
 30
0.0
 11
103.0
 21
0.0
 31
0.0
  0
ARC
  5
78
  8
OUTLINE
  6
CONTINUOUS
 62
     3
 10
65.230178000000009
 20
22.636823
 30
0.0
 40
44.033909999999999
 50
304.15832
 51
329.06421599999999
  0
ARC
  5
79
  8
OUTLINE
  6
CONTINUOUS
 62
     3
 10
-65.230178000000009
 20
22.636823
 30
0.0
 40
44.033909999999999
 50
210.93578400000001
 51
235.84168
  0
LINE
  5
7A
  8
NOTE
  6
CONTINUOUS
 62
     4
 10
-93.0
 20
-24.0
 30
0.0
 11
-93.0
 21
16.0
 31
0.0
  0
LINE
  5
7B
  8
NOTE
  6
CONTINUOUS
 62
     4
 10
-113.0
 20
-4.0
 30
0.0
 11
-73.0
 21
-4.0
 31
0.0
  0
LINE
  5
7C
  8
NOTE
  6
CONTINUOUS
 62
     4
 10
-64.0
 20
-24.0
 30
0.0
 11
-64.0
 21
16.0
 31
0.0
  0
LINE
  5
7D
  8
NOTE
  6
CONTINUOUS
 62
     4
 10
-84.0
 20
-4.0
 30
0.0
 11
-44.0
 21
-4.0
 31
0.0
  0
LINE
  5
7E
  8
NOTE
  6
CONTINUOUS
 62
     4
 10
64.0
 20
-24.0
 30
0.0
 11
64.0
 21
16.0
 31
0.0
  0
LINE
  5
7F
  8
NOTE
  6
CONTINUOUS
 62
     4
 10
84.0
 20
-4.0
 30
0.0
 11
44.0
 21
-4.0
 31
0.0
  0
LINE
  5
80
  8
NOTE
  6
CONTINUOUS
 62
     4
 10
93.0
 20
-24.0
 30
0.0
 11
93.0
 21
16.0
 31
0.0
  0
LINE
  5
81
  8
NOTE
  6
CONTINUOUS
 62
     4
 10
113.0
 20
-4.0
 30
0.0
 11
73.0
 21
-4.0
 31
0.0
  0
CIRCLE
  5
82
  8
FIX
  6
CONTINUOUS
 62
    11
 10
-64.0
 20
-4.0
 30
0.0
 40
2.25
  0
CIRCLE
  5
83
  8
FIX
  6
CONTINUOUS
 62
    11
 10
-93.0
 20
-4.0
 30
0.0
 40
2.25
  0
CIRCLE
  5
84
  8
FIX
  6
CONTINUOUS
 62
    11
 10
64.0
 20
-4.0
 30
0.0
 40
2.25
  0
CIRCLE
  5
85
  8
FIX
  6
CONTINUOUS
 62
    11
 10
93.0
 20
-4.0
 30
0.0
 40
2.25
  0
TEXT
  5
86
  8
NOTE
  6
CONTINUOUS
 62
     4
 10
181.37018699999999
 20
-393.97175363052111
 30
0.0
 40
64.0
  1
4×φ4.5ノックアウト取付穴
 41
0.9
  0
LINE
  5
87
  8
SIZE
  6
CONTINUOUS
 62
    30
 10
48.5
 20
73.0
 30
0.0
 11
48.5
 21
212.18589700000001
 31
0.0
  0
LINE
  5
88
  8
SIZE
  6
CONTINUOUS
 62
    30
 10
-48.5
 20
73.0
 30
0.0
 11
-48.5
 21
212.18589700000001
 31
0.0
  0
LINE
  5
89
  8
SIZE
  6
CONTINUOUS
 62
    30
 10
48.5
 20
182.18589700000001
 30
0.0
 11
-48.5
 21
182.18589700000001
 31
0.0
  0
TEXT
  5
8A
  8
SIZE
  6
CONTINUOUS
 62
    30
 10
-86.948571428571427
 20
214.18589700000001
 30
0.0
 40
64.0
  1
φ97
 41
0.9
 72
     1
 11
0.0
 21
214.18589700000001
 31
0.0
  0
CIRCLE
  5
8B
  8
SIZE
  6
CONTINUOUS
 62
    30
 10
48.5
 20
182.18589700000001
 30
0.0
 40
6.0
  0
CIRCLE
  5
8C
  8
SIZE
  6
CONTINUOUS
 62
    30
 10
-48.5
 20
182.18589700000001
 30
0.0
 40
6.0
  0
LINE
  5
93
  8
SIZE
  6
CONTINUOUS
 62
    30
 10
123.0
 20
0.0
 30
0.0
 11
311.24971299999999
 21
0.0
 31
0.0
  0
LINE
  5
94
  8
SIZE
  6
CONTINUOUS
 62
    30
 10
68.5
 20
54.0
 30
0.0
 11
311.24971299999999
 21
54.0
 31
0.0
  0
LINE
  5
95
  8
SIZE
  6
CONTINUOUS
 62
    30
 10
281.24971299999999
 20
2.0
 30
0.0
 11
281.24971299999999
 21
51.0
 31
0.0
  0
TEXT
  5
96
  8
SIZE
  6
CONTINUOUS
 62
    30
 10
249.24971300000001
 20
79.431104000000005
 30
0.0
 40
64.0
  1
54
 50
90.0
 41
0.9
 72
     1
 11
249.24971300000001
 21
127.431104
 31
0.0
  0
CIRCLE
  5
97
  8
SIZE
  6
CONTINUOUS
 62
    30
 10
281.24971299999999
 20
0.0
 30
0.0
 40
6.0
  0
CIRCLE
  5
98
  8
SIZE
  6
CONTINUOUS
 62
    30
 10
281.24971299999999
 20
54.0
 30
0.0
 40
6.0
  0
LINE
  5
9C
  8
SIZE
  6
CONTINUOUS
 62
    30
 10
-181.683493
 20
-6.0
 30
0.0
 11
-181.683493
 21
-82.963038999999995
 31
0.0
  0
LINE
  5
9D
  8
SIZE
  6
CONTINUOUS
 62
    30
 10
64.0
 20
-24.0
 30
0.0
 11
64.0
 21
-267.49625800000001
 31
0.0
  0
LINE
  5
9E
  8
SIZE
  6
CONTINUOUS
 62
    30
 10
-64.0
 20
-24.0
 30
0.0
 11
-64.0
 21
-267.49625800000001
 31
0.0
  0
LINE
  5
9F
  8
SIZE
  6
CONTINUOUS
 62
    30
 10
64.0
 20
-237.49625800000001
 30
0.0
 11
-62.0
 21
-237.49625800000001
 31
0.0
  0
TEXT
  5
A0
  8
SIZE
  6
CONTINUOUS
 62
    30
 10
-242.17333857142859
 20
-210.567948
 30
0.0
 40
64.0
  1
128
 41
0.9
 72
     1
 11
-173.60191
 21
-210.567948
 31
0.0
  0
CIRCLE
  5
A1
  8
SIZE
  6
CONTINUOUS
 62
    30
 10
64.0
 20
-237.49625800000001
 30
0.0
 40
6.0
  0
CIRCLE
  5
A2
  8
SIZE
  6
CONTINUOUS
 62
    30
 10
-64.0
 20
-237.49625800000001
 30
0.0
 40
6.0
  0
LINE
  5
A6
  8
SIZE
  6
CONTINUOUS
 62
    30
 10
-93.0
 20
-24.0
 30
0.0
 11
-93.0
 21
-438.07064100000002
 31
0.0
  0
LINE
  5
A7
  8
SIZE
  6
CONTINUOUS
 62
    30
 10
93.0
 20
-24.0
 30
0.0
 11
93.0
 21
-438.07064100000002
 31
0.0
  0
LINE
  5
A8
  8
SIZE
  6
CONTINUOUS
 62
    30
 10
-93.0
 20
-408.07064099999991
 30
0.0
 11
93.0
 21
-408.07064099999991
 31
0.0
  0
TEXT
  5
A9
  8
SIZE
  6
CONTINUOUS
 62
    30
 10
-67.200000000000003
 20
-378.99331100000001
 30
0.0
 40
64.0
  1
186
 41
0.9
 72
     1
 11
0.0
 21
-378.99331100000001
 31
0.0
  0
CIRCLE
  5
AA
  8
SIZE
  6
CONTINUOUS
 62
    30
 10
-93.0
 20
-408.07064100000002
 30
0.0
 40
6.0
  0
CIRCLE
  5
AB
  8
SIZE
  6
CONTINUOUS
 62
    30
 10
93.0
 20
-408.07064100000002
 30
0.0
 40
6.0
  0
LINE
  5
AF
  8
SIZE
  6
CONTINUOUS
 62
    30
 10
-58.0
 20
-237.49625800000001
 30
0.0
 11
-256.58799099999999
 21
-237.49625800000001
 31
0.0
  0
LINE
  5
B0
  8
SIZE
  6
CONTINUOUS
 62
    30
 10
301.24971299999999
 20
54.0
 30
0.0
 11
469.98200999999989
 21
54.0
 31
0.0
  0
LINE
  5
B1
  8
SIZE
  6
CONTINUOUS
 62
    30
 10
301.24971299999999
 20
-85.0
 30
0.0
 11
469.98200999999989
 21
-85.0
 31
0.0
  0
LINE
  5
B2
  8
SIZE
  6
CONTINUOUS
 62
    30
 10
439.98200999999989
 20
51.0
 30
0.0
 11
439.98200999999989
 21
-83.0
 31
0.0
  0
TEXT
  5
B3
  8
SIZE
  6
CONTINUOUS
 62
    30
 10
424.1453929999999
 20
-245.71360300000001
 30
0.0
 40
64.0
  1
139
 50
90.0
 41
0.9
 72
     1
 11
424.1453929999999
 21
-178.51360299999999
 31
0.0
  0
CIRCLE
  5
B4
  8
SIZE
  6
CONTINUOUS
 62
    30
 10
439.98200999999989
 20
54.0
 30
0.0
 40
6.0
  0
CIRCLE
  5
B5
  8
SIZE
  6
CONTINUOUS
 62
    30
 10
439.98200999999989
 20
-85.0
 30
0.0
 40
6.0
  0
LINE
  5
B9
  8
SIZE
  6
CONTINUOUS
 62
    30
 10
439.98200999999989
 20
-83.0
 30
0.0
 11
439.98200999999989
 21
-243.38244299999999
 31
0.0
  0
TEXT
  5
BA
  8
ETC
  6
CONTINUOUS
 62
    61
 10
603.81441711534012
 20
471.47833340976553
 30
0.0
 40
40.0
  1
P-13VA3_1
 41
0.9
  0
TEXT
  5
BB
  8
ETC
  6
CONTINUOUS
 62
    61
 10
672.84861575264392
 20
310.53573092057309
 30
0.0
 40
32.0
  1
P-13VA3-BL
 41
0.9
  0
TEXT
  5
BC
  8
ETC
  6
CONTINUOUS
 62
    61
 10
672.84861575264392
 20
257.73573092057308
 30
0.0
 40
32.0
  1
P-13VA3-BK
 41
0.9
  0
TEXT
  5
BD
  8
ETC
  6
CONTINUOUS
 62
    61
 10
672.84861575264392
 20
204.93573092057309
 30
0.0
 40
32.0
  1
P-13VAD3
 41
0.9
  0
TEXT
  5
BE
  8
ETC
  6
CONTINUOUS
 62
    61
 10
672.84861575264392
 20
152.13573092057311
 30
0.0
 40
32.0
  1
P-13VAD3-BL
 41
0.9
  0
TEXT
  5
BF
  8
ETC
  6
CONTINUOUS
 62
    61
 10
672.84861575264392
 20
99.335730920573084
 30
0.0
 40
32.0
  1
P-13VAH3
 41
0.9
  0
TEXT
  5
C0
  8
ETC
  6
CONTINUOUS
 62
    61
 10
672.84861575264392
 20
46.535730920573059
 30
0.0
 40
32.0
  1
P-13VAH3-BK
 41
0.9
  0
LINE
  5
C3
  8
NOTE
  6
CONTINUOUS
 62
     4
 10
109.69064400000001
 20
-42.601374
 30
0.0
 11
93.0
 21
-6.25
 31
0.0
  0
LINE
  5
C4
  8
NOTE
  6
CONTINUOUS
 62
     4
 10
93.0
 20
-6.25
 30
0.0
 11
89.278835000000001
 21
-46.076535
 31
0.0
  0
LINE
  5
C5
  8
NOTE
  6
CONTINUOUS
 62
     4
 10
93.0
 20
-6.25
 30
0.0
 11
165.35089600000001
 21
-419.9936909999999
 31
0.0
  0
LINE
  5
C6
  8
NOTE
  6
CONTINUOUS
 62
     4
 10
165.35089600000001
 20
-419.9936909999999
 30
0.0
 11
1135.2842270000001
 21
-419.9936909999999
 31
0.0
  0
TEXT
  5
C9
  8
ETC
  6
CONTINUOUS
 62
    61
 10
672.84861575264392
 20
358.9424195637348
 30
0.0
 40
32.0
  1
P-13VA3
 41
0.9
  0
LINE
  5
14F
  8
OUTLINE
  6
CONTINUOUS
 62
     3
 10
-48.5
 20
0.0
 30
0.0
 11
-48.5
 21
54.0
 31
0.0
  0
LINE
  5
150
  8
OUTLINE
  6
CONTINUOUS
 62
     3
 10
-48.5
 20
54.0
 30
0.0
 11
48.5
 21
54.0
 31
0.0
  0
LINE
  5
151
  8
OUTLINE
  6
CONTINUOUS
 62
     3
 10
48.5
 20
54.0
 30
0.0
 11
48.5
 21
0.0
 31
0.0
  0
TEXT
  5
1E0
  8
ETC
  6
CONTINUOUS
 62
    61
 10
672.84861575264392
 20
-3.277372978180181
 30
0.0
 40
32.0
  1
P-13VAQ3
 41
0.9
  0
TEXT
  5
1E1
  8
ETC
  6
CONTINUOUS
 62
    61
 10
672.84861575264392
 20
-56.077372978180193
 30
0.0
 40
32.0
  1
P-13VAQD3
 41
0.9
  0
ENDSEC
  0
EOF
