  0
SECTION
  2
HEADER
  9
$ACADVER
  1
AC1009
  9
$INSBASE
 10
0.0
 20
0.0
 30
0.0
  9
$EXTMIN
 10
-315.37642699999998
 20
-4128.7824396990336
 30
0.0
  9
$EXTMAX
 10
4466.0916765386592
 20
551.11977566907967
 30
0.0
  9
$LIMMIN
 10
-4200.0
 20
-2970.0
  9
$LIMMAX
 10
4200.0
 20
2970.0
  9
$ORTHOMODE
 70
     1
  9
$REGENMODE
 70
     1
  9
$FILLMODE
 70
     1
  9
$QTEXTMODE
 70
     0
  9
$MIRRTEXT
 70
     0
  9
$DRAGMODE
 70
     2
  9
$LTSCALE
 40
20.0
  9
$OSMODE
 70
    37
  9
$ATTMODE
 70
     1
  9
$TEXTSIZE
 40
64.0
  9
$TRACEWID
 40
0.05
  9
$TEXTSTYLE
  7
STANDARD
  9
$CLAYER
  8
ETC
  9
$CELTYPE
  6
CONTINUOUS
  9
$CECOLOR
 62
     5
  9
$DIMSCALE
 40
1.0
  9
$DIMASZ
 40
2.0
  9
$DIMEXO
 40
20.0
  9
$DIMDLI
 40
200.0
  9
$DIMRND
 40
0.0
  9
$DIMDLE
 40
0.0
  9
$DIMEXE
 40
30.0
  9
$DIMTP
 40
0.0
  9
$DIMTM
 40
0.0
  9
$DIMTXT
 40
64.0
  9
$DIMCEN
 40
0.09
  9
$DIMTSZ
 40
0.0
  9
$DIMTOL
 70
     0
  9
$DIMLIM
 70
     0
  9
$DIMTIH
 70
     0
  9
$DIMTOH
 70
     0
  9
$DIMSE1
 70
     0
  9
$DIMSE2
 70
     0
  9
$DIMTAD
 70
     1
  9
$DIMZIN
 70
     8
  9
$DIMBLK
  1
DOT1
  9
$DIMASO
 70
     1
  9
$DIMSHO
 70
     0
  9
$DIMPOST
  1

  9
$DIMAPOST
  1

  9
$DIMALT
 70
     0
  9
$DIMALTD
 70
     2
  9
$DIMALTF
 40
25.399999999999999
  9
$DIMLFAC
 40
1.0
  9
$DIMTOFL
 70
     1
  9
$DIMTVP
 40
0.0
  9
$DIMTIX
 70
     1
  9
$DIMSOXD
 70
     0
  9
$DIMSAH
 70
     0
  9
$DIMBLK1
  1

  9
$DIMBLK2
  1

  9
$DIMSTYLE
  2
STANDARD
  9
$DIMCLRD
 70
     7
  9
$DIMCLRE
 70
     7
  9
$DIMCLRT
 70
     7
  9
$DIMTFAC
 40
1.0
  9
$DIMGAP
 40
0.09
  9
$LUNITS
 70
     2
  9
$LUPREC
 70
     4
  9
$SKETCHINC
 40
0.1
  9
$FILLETRAD
 40
10.0
  9
$AUNITS
 70
     1
  9
$AUPREC
 70
     3
  9
$MENU
  1
ACAD
  9
$ELEVATION
 40
0.0
  9
$PELEVATION
 40
0.0
  9
$THICKNESS
 40
0.0
  9
$LIMCHECK
 70
     1
  9
$BLIPMODE
 70
     0
  9
$CHAMFERA
 40
0.0
  9
$CHAMFERB
 40
0.0
  9
$SKPOLY
 70
     0
  9
$TDCREATE
 40
2451606.6201041671
  9
$TDUPDATE
 40
2454770.6693800581
  9
$TDINDWG
 40
0.0472798958
  9
$TDUSRTIMER
 40
0.0472798958
  9
$USRTIMER
 70
     1
  9
$ANGBASE
 50
0.0
  9
$ANGDIR
 70
     0
  9
$PDMODE
 70
     3
  9
$PDSIZE
 40
-2.0
  9
$PLINEWID
 40
0.0
  9
$COORDS
 70
     1
  9
$SPLFRAME
 70
     0
  9
$SPLINETYPE
 70
     6
  9
$SPLINESEGS
 70
     8
  9
$ATTDIA
 70
     0
  9
$ATTREQ
 70
     1
  9
$HANDLING
 70
     1
  9
$HANDSEED
  5
435
  9
$SURFTAB1
 70
     6
  9
$SURFTAB2
 70
     6
  9
$SURFTYPE
 70
     6
  9
$SURFU
 70
     6
  9
$SURFV
 70
     6
  9
$UCSNAME
  2

  9
$UCSORG
 10
0.0
 20
0.0
 30
0.0
  9
$UCSXDIR
 10
1.0
 20
0.0
 30
0.0
  9
$UCSYDIR
 10
0.0
 20
1.0
 30
0.0
  9
$PUCSNAME
  2

  9
$PUCSORG
 10
0.0
 20
0.0
 30
0.0
  9
$PUCSXDIR
 10
1.0
 20
0.0
 30
0.0
  9
$PUCSYDIR
 10
0.0
 20
1.0
 30
0.0
  9
$USERI1
 70
     0
  9
$USERI2
 70
     0
  9
$USERI3
 70
     0
  9
$USERI4
 70
     0
  9
$USERI5
 70
     0
  9
$USERR1
 40
20.0
  9
$USERR2
 40
0.0
  9
$USERR3
 40
0.0
  9
$USERR4
 40
0.0
  9
$USERR5
 40
0.0
  9
$WORLDVIEW
 70
     1
  9
$SHADEDGE
 70
     3
  9
$SHADEDIF
 70
    70
  9
$TILEMODE
 70
     1
  9
$MAXACTVP
 70
    48
  9
$PLIMCHECK
 70
     0
  9
$PEXTMIN
 10
-1.0000000000000000E+020
 20
-1.0000000000000000E+020
 30
-1.0000000000000000E+020
  9
$PEXTMAX
 10
1.0000000000000000E+020
 20
1.0000000000000000E+020
 30
1.0000000000000000E+020
  9
$PLIMMIN
 10
0.0
 20
0.0
  9
$PLIMMAX
 10
12.0
 20
9.0
  9
$UNITMODE
 70
     0
  9
$VISRETAIN
 70
     0
  9
$PLINEGEN
 70
     0
  9
$PSLTSCALE
 70
     0
  0
ENDSEC
  0
SECTION
  2
TABLES
  0
TABLE
  2
VPORT
 70
     1
  0
VPORT
  2
*ACTIVE
 70
     0
 10
0.0
 20
0.0
 11
1.0
 21
1.0
 12
716.10599074373647
 22
51.474673241476012
 13
0.0
 23
0.0
 14
400.0
 24
400.0
 15
400.0
 25
400.0
 16
0.0
 26
0.0
 36
1.0
 17
0.0
 27
0.0
 37
0.0
 40
1045.7486132749491
 41
2.0261569416498988
 42
50.0
 43
0.0
 44
0.0
 50
0.0
 51
0.0
 71
     0
 72
   500
 73
     1
 74
     0
 75
     0
 76
     0
 77
     0
 78
     0
  0
ENDTAB
  0
TABLE
  2
LTYPE
 70
     2
  0
LTYPE
  2
CONTINUOUS
 70
     0
  3
実線
 72
    65
 73
     0
 40
0.0
  0
LTYPE
  2
DASHDOT
 70
     0
  3
____ _ ____ _ ____ _ ____ _ ____ _ ____ _ ____
 72
    65
 73
     4
 40
5.5
 49
4.0
 49
-0.6
 49
0.3
 49
-0.6
  0
ENDTAB
  0
TABLE
  2
LAYER
 70
    12
  0
LAYER
  2
0
 70
     0
 62
     7
  6
CONTINUOUS
  0
LAYER
  2
DETAIL
 70
     0
 62
     5
  6
CONTINUOUS
  0
LAYER
  2
NOTE
 70
     0
 62
     4
  6
CONTINUOUS
  0
LAYER
  2
OUTLINE
 70
     0
 62
     3
  6
CONTINUOUS
  0
LAYER
  2
BASIS
 70
     0
 62
     6
  6
DASHDOT
  0
LAYER
  2
SIZE
 70
     0
 62
    30
  6
CONTINUOUS
  0
LAYER
  2
ARRANGE
 70
     0
 62
     1
  6
CONTINUOUS
  0
LAYER
  2
FIX
 70
     0
 62
    11
  6
CONTINUOUS
  0
LAYER
  2
ETC
 70
     0
 62
    61
  6
CONTINUOUS
  0
LAYER
  2
DEFPOINTS
 70
     0
 62
     7
  6
CONTINUOUS
  0
LAYER
  2
SERVICESPACE
 70
     0
 62
     2
  6
DASHDOT
  0
LAYER
  2
SYMBOLLINE
 70
     0
 62
    15
  6
CONTINUOUS
  0
ENDTAB
  0
TABLE
  2
STYLE
 70
     1
  0
STYLE
  2
STANDARD
 70
     0
 40
0.0
 41
0.9
 50
0.0
 71
     0
 42
64.0
  3
SIMPLEX
  4
BIGFONT
  0
ENDTAB
  0
TABLE
  2
VIEW
 70
     1
  0
VIEW
  2
ALL
 70
     0
 40
6374.9789810000002
 10
0.0
 20
58.11501599999999
 41
8842.1052629999976
 11
0.0
 21
0.0
 31
1.0
 12
0.0
 22
0.0
 32
0.0
 42
50.0
 43
0.0
 44
0.0
 50
0.0
 71
     0
  0
ENDTAB
  0
TABLE
  2
UCS
 70
     0
  0
ENDTAB
  0
TABLE
  2
APPID
 70
     2
  0
APPID
  2
ACAD
 70
     0
  0
APPID
  2
ACAD_MLEADERVER
 70
     0
  0
ENDTAB
  0
TABLE
  2
DIMSTYLE
 70
     1
  0
DIMSTYLE
  2
STANDARD
 70
     0
  3

  4

  5

  6

  7

 40
1.0
 41
0.18
 42
0.0625
 43
0.38
 44
0.18
 45
0.0
 46
0.0
 47
0.0
 48
0.0
140
0.18
141
0.09
142
0.0
143
25.399999999999999
144
1.0
145
0.0
146
1.0
147
0.09
 71
     0
 72
     0
 73
     1
 74
     1
 75
     0
 76
     0
 77
     0
 78
     0
170
     0
171
     2
172
     0
173
     0
174
     0
175
     0
176
     7
177
     7
178
     7
  0
ENDTAB
  0
ENDSEC
  0
SECTION
  2
BLOCKS
  0
BLOCK
  8
0
  2
$MODEL_SPACE
 70
     0
 10
0.0
 20
0.0
 30
0.0
  3
$MODEL_SPACE
  1

  0
ENDBLK
  5
2B2
  8
0
  0
BLOCK
 67
     1
  8
0
  2
$PAPER_SPACE
 70
     0
 10
0.0
 20
0.0
 30
0.0
  3
$PAPER_SPACE
  1

  0
ENDBLK
  5
2AE
 67
     1
  8
0
  0
BLOCK
  8
SIZE
  2
DOT1
 70
     0
 10
0.0
 20
0.0
 30
0.0
  3
DOT1
  1

  0
CIRCLE
  5
2CD
  8
SIZE
  6
CONTINUOUS
 62
     8
 10
0.0
 20
0.0
 30
0.0
 40
3.0
  0
ENDBLK
  5
2CE
  8
SIZE
  0
ENDSEC
  0
SECTION
  2
ENTITIES
  0
LINE
  5
2CF
  8
DETAIL
  6
CONTINUOUS
 62
     5
 10
98.500000000000014
 20
-101.0
 30
0.0
 11
103.0
 21
-101.0
 31
0.0
  0
LINE
  5
2D0
  8
DETAIL
  6
CONTINUOUS
 62
     5
 10
103.0
 20
-106.6375569999999
 30
0.0
 11
103.0
 21
-101.0
 31
0.0
  0
LINE
  5
2D1
  8
DETAIL
  6
CONTINUOUS
 62
     5
 10
93.009171999999964
 20
-116.572124
 30
0.0
 11
93.442184999999995
 21
-116.572124
 31
0.0
  0
LINE
  5
2D2
  8
DETAIL
  6
CONTINUOUS
 62
     5
 10
103.0
 20
-106.6375569999999
 30
0.0
 11
93.442184999999995
 21
-116.955146
 31
0.0
  0
ARC
  5
2D3
  8
DETAIL
  6
CONTINUOUS
 62
     5
 10
74.851246000000003
 20
-93.026911999999996
 30
0.0
 40
30.0
 50
272.42706900000002
 51
308.29408100000001
  0
ARC
  5
2D4
  8
DETAIL
  6
CONTINUOUS
 62
     5
 10
74.851246000000003
 20
-93.409934000000007
 30
0.0
 40
30.0
 50
272.42706900000002
 51
308.29408100000001
  0
LINE
  5
2D5
  8
DETAIL
  6
CONTINUOUS
 62
     5
 10
102.4999999999999
 20
-105.4717879999998
 30
0.0
 11
102.4999999999999
 21
-101.0
 31
0.0
  0
LINE
  5
2D6
  8
DETAIL
  6
CONTINUOUS
 62
     5
 10
103.0
 20
-105.4717879999998
 30
0.0
 11
102.4999999999999
 21
-105.4717879999998
 31
0.0
  0
LINE
  5
2D7
  8
DETAIL
  6
CONTINUOUS
 62
     5
 10
102.4999999999999
 20
-105.4717879999998
 30
0.0
 11
93.009171999999964
 21
-116.572124
 31
0.0
  0
LINE
  5
2D8
  8
DETAIL
  6
CONTINUOUS
 62
     5
 10
103.0
 20
-105.4717879999998
 30
0.0
 11
93.442184999999995
 21
-116.572124
 31
0.0
  0
LINE
  5
2D9
  8
DETAIL
  6
CONTINUOUS
 62
     5
 10
-76.121677000000005
 20
-123.3830219999999
 30
0.0
 11
76.121677000000005
 21
-123.3830219999999
 31
0.0
  0
LINE
  5
2DA
  8
DETAIL
  6
CONTINUOUS
 62
     5
 10
-76.121677000000005
 20
-123.0
 30
0.0
 11
76.121677000000005
 21
-123.0
 31
0.0
  0
LINE
  5
2DB
  8
DETAIL
  6
CONTINUOUS
 62
     5
 10
-98.500000000000014
 20
-101.0
 30
0.0
 11
-103.0
 21
-101.0
 31
0.0
  0
LINE
  5
2DC
  8
DETAIL
  6
CONTINUOUS
 62
     5
 10
-103.0
 20
-106.6375569999999
 30
0.0
 11
-103.0
 21
-101.0
 31
0.0
  0
LINE
  5
2DD
  8
DETAIL
  6
CONTINUOUS
 62
     5
 10
-93.009171999999964
 20
-116.572124
 30
0.0
 11
-93.442184999999995
 21
-116.572124
 31
0.0
  0
LINE
  5
2DE
  8
DETAIL
  6
CONTINUOUS
 62
     5
 10
-103.0
 20
-106.6375569999999
 30
0.0
 11
-93.442184999999995
 21
-116.955146
 31
0.0
  0
ARC
  5
2DF
  8
DETAIL
  6
CONTINUOUS
 62
     5
 10
-74.851246000000003
 20
-93.026911999999996
 30
0.0
 40
30.0
 50
231.70591899999999
 51
267.57293099999998
  0
ARC
  5
2E0
  8
DETAIL
  6
CONTINUOUS
 62
     5
 10
-74.851246000000003
 20
-93.409934000000007
 30
0.0
 40
30.0
 50
231.70591899999999
 51
267.57293099999998
  0
LINE
  5
2E1
  8
DETAIL
  6
CONTINUOUS
 62
     5
 10
-102.4999999999999
 20
-105.4717879999998
 30
0.0
 11
-102.4999999999999
 21
-101.0
 31
0.0
  0
LINE
  5
2E2
  8
DETAIL
  6
CONTINUOUS
 62
     5
 10
-103.0
 20
-105.4717879999998
 30
0.0
 11
-102.4999999999999
 21
-105.4717879999998
 31
0.0
  0
LINE
  5
2E3
  8
DETAIL
  6
CONTINUOUS
 62
     5
 10
-102.4999999999999
 20
-105.4717879999998
 30
0.0
 11
-93.009171999999964
 21
-116.572124
 31
0.0
  0
LINE
  5
2E4
  8
DETAIL
  6
CONTINUOUS
 62
     5
 10
-103.0
 20
-105.4717879999998
 30
0.0
 11
-93.442184999999995
 21
-116.572124
 31
0.0
  0
LINE
  5
2E5
  8
DETAIL
  6
CONTINUOUS
 62
     5
 10
-101.055774
 20
-106.6375569999999
 30
0.0
 11
0.0
 21
-106.6375569999999
 31
0.0
  0
LINE
  5
2E6
  8
DETAIL
  6
CONTINUOUS
 62
     5
 10
101.055774
 20
-106.6375569999999
 30
0.0
 11
0.0
 21
-106.6375569999999
 31
0.0
  0
ARC
  5
2E7
  8
DETAIL
  6
CONTINUOUS
 62
     5
 10
0.0
 20
-156.0
 30
0.0
 40
234.0
 50
90.0
 51
105.5057679999999
  0
ARC
  5
2E8
  8
DETAIL
  6
CONTINUOUS
 62
     5
 10
-51.863062999999997
 20
30.939088000000002
 30
0.0
 40
40.0
 50
105.5057679999999
 51
172.3470879999999
  0
ARC
  5
2E9
  8
DETAIL
  6
CONTINUOUS
 62
     5
 10
631.0
 20
-60.816223000000001
 30
0.0
 40
729.0
 50
172.3470879999999
 51
180.0
  0
ARC
  5
2EA
  8
DETAIL
  6
CONTINUOUS
 62
     5
 10
0.0
 20
-156.0
 30
0.0
 40
234.0
 50
74.494231999999982
 51
90.0
  0
ARC
  5
2EB
  8
DETAIL
  6
CONTINUOUS
 62
     5
 10
51.863062999999997
 20
30.939088000000002
 30
0.0
 40
40.0
 50
7.6529119999999988
 51
74.494231999999982
  0
ARC
  5
2EC
  8
DETAIL
  6
CONTINUOUS
 62
     5
 10
-631.0
 20
-60.816223000000001
 30
0.0
 40
729.0
 50
0.0
 51
7.6529119999999988
  0
LINE
  5
2ED
  8
DETAIL
  6
CONTINUOUS
 62
     5
 10
98.0
 20
-60.816223000000001
 30
0.0
 11
98.0
 21
-101.0
 31
0.0
  0
LINE
  5
2EE
  8
DETAIL
  6
CONTINUOUS
 62
     5
 10
-98.0
 20
-60.816223000000001
 30
0.0
 11
-98.0
 21
-101.0
 31
0.0
  0
LINE
  5
2EF
  8
DETAIL
  6
CONTINUOUS
 62
     5
 10
0.0
 20
-101.0
 30
0.0
 11
-98.0
 21
-101.0
 31
0.0
  0
LINE
  5
2F0
  8
DETAIL
  6
CONTINUOUS
 62
     5
 10
0.0
 20
-101.0
 30
0.0
 11
98.0
 21
-101.0
 31
0.0
  0
LINE
  5
2F1
  8
SIZE
  6
CONTINUOUS
 62
    30
 10
-20.0
 20
78.0
 30
0.0
 11
-249.37642700000001
 21
78.0
 31
0.0
  0
LINE
  5
2F2
  8
SIZE
  6
CONTINUOUS
 62
    30
 10
-96.121677000000005
 20
-123.0
 30
0.0
 11
-249.37642700000001
 21
-123.0
 31
0.0
  0
LINE
  5
2F3
  8
SIZE
  6
CONTINUOUS
 62
    30
 10
-219.37642699999989
 20
78.0
 30
0.0
 11
-219.37642699999989
 21
-123.0
 31
0.0
  0
TEXT
  5
2F4
  8
SIZE
  6
CONTINUOUS
 62
    30
 10
-251.37642700000001
 20
-84.214285714285694
 30
0.0
 40
64.0
  1
201
 50
90.0
 41
0.9
 72
     1
 11
-251.37642700000001
 21
-22.5
 31
0.0
  0
CIRCLE
  5
2F5
  8
SIZE
  6
CONTINUOUS
 62
    30
 10
-219.37642699999989
 20
78.0
 30
0.0
 40
6.0
  0
CIRCLE
  5
2F6
  8
SIZE
  6
CONTINUOUS
 62
    30
 10
-219.37642699999989
 20
-123.0
 30
0.0
 40
6.0
  0
LINE
  5
2F7
  8
SIZE
  6
CONTINUOUS
 62
    30
 10
158.6874169999999
 20
0.0
 30
0.0
 11
332.07145400000002
 21
0.0
 31
0.0
  0
LINE
  5
2F8
  8
SIZE
  6
CONTINUOUS
 62
    30
 10
20.0
 20
78.0
 30
0.0
 11
332.07145400000002
 21
78.0
 31
0.0
  0
LINE
  5
2F9
  8
SIZE
  6
CONTINUOUS
 62
    30
 10
302.07145400000002
 20
2.0
 30
0.0
 11
302.07145400000002
 21
78.0
 31
0.0
  0
TEXT
  5
2FA
  8
SIZE
  6
CONTINUOUS
 62
    30
 10
270.07145400000002
 20
-179.5694614285714
 30
0.0
 40
64.0
  1
78
 50
90.0
 41
0.9
 72
     1
 11
270.07145400000002
 21
-132.94089
 31
0.0
  0
CIRCLE
  5
2FB
  8
SIZE
  6
CONTINUOUS
 62
    30
 10
302.07145400000002
 20
0.0
 30
0.0
 40
6.0
  0
CIRCLE
  5
2FC
  8
SIZE
  6
CONTINUOUS
 62
    30
 10
302.07145400000002
 20
78.0
 30
0.0
 40
6.0
  0
LINE
  5
2FD
  8
SIZE
  6
CONTINUOUS
 62
    30
 10
302.07145400000002
 20
2.0
 30
0.0
 11
302.07145400000002
 21
-184.99252300000001
 31
0.0
  0
LINE
  5
2FE
  8
SIZE
  6
CONTINUOUS
 62
    30
 10
-98.0
 20
-121.0
 30
0.0
 11
-98.0
 21
-318.11245099999991
 31
0.0
  0
LINE
  5
2FF
  8
SIZE
  6
CONTINUOUS
 62
    30
 10
98.0
 20
-121.0
 30
0.0
 11
98.0
 21
-318.11245099999991
 31
0.0
  0
LINE
  5
300
  8
SIZE
  6
CONTINUOUS
 62
    30
 10
-98.0
 20
-288.11245099999991
 30
0.0
 11
98.0
 21
-288.11245099999991
 31
0.0
  0
TEXT
  5
301
  8
SIZE
  6
CONTINUOUS
 62
    30
 10
-67.200000000000003
 20
-256.11245099999991
 30
0.0
 40
64.0
  1
196
 41
0.9
 72
     1
 11
0.0
 21
-256.11245099999991
 31
0.0
  0
CIRCLE
  5
302
  8
SIZE
  6
CONTINUOUS
 62
    30
 10
-98.0
 20
-288.11245099999991
 30
0.0
 40
6.0
  0
CIRCLE
  5
303
  8
SIZE
  6
CONTINUOUS
 62
    30
 10
98.0
 20
-288.11245099999991
 30
0.0
 40
6.0
  0
LINE
  5
304
  8
SIZE
  6
CONTINUOUS
 62
    30
 10
-103.0
 20
-126.637557
 30
0.0
 11
-103.0
 21
-438.85479099999981
 31
0.0
  0
LINE
  5
305
  8
SIZE
  6
CONTINUOUS
 62
    30
 10
103.0
 20
-126.637557
 30
0.0
 11
103.0
 21
-438.85479099999981
 31
0.0
  0
LINE
  5
306
  8
SIZE
  6
CONTINUOUS
 62
    30
 10
-103.0
 20
-408.85479099999992
 30
0.0
 11
103.0
 21
-408.85479099999992
 31
0.0
  0
TEXT
  5
307
  8
SIZE
  6
CONTINUOUS
 62
    30
 10
-72.685714285714283
 20
-376.85479099999992
 30
0.0
 40
64.0
  1
206
 41
0.9
 72
     1
 11
0.0
 21
-376.85479099999992
 31
0.0
  0
CIRCLE
  5
308
  8
SIZE
  6
CONTINUOUS
 62
    30
 10
-103.0
 20
-408.85479099999992
 30
0.0
 40
6.0
  0
CIRCLE
  5
309
  8
SIZE
  6
CONTINUOUS
 62
    30
 10
103.0
 20
-408.85479099999992
 30
0.0
 40
6.0
  0
CIRCLE
  5
30A
  8
FIX
  6
CONTINUOUS
 62
    11
 10
-64.0
 20
64.0
 30
0.0
 40
2.25
  0
CIRCLE
  5
30B
  8
DETAIL
  6
CONTINUOUS
 62
     5
 10
-64.0
 20
64.0
 30
0.0
 40
2.25
  0
LINE
  5
30C
  8
NOTE
  6
CONTINUOUS
 62
     4
 10
-64.0
 20
44.0
 30
0.0
 11
-64.0
 21
84.0
 31
0.0
  0
LINE
  5
30D
  8
NOTE
  6
CONTINUOUS
 62
     4
 10
-84.0
 20
64.0
 30
0.0
 11
-44.0
 21
64.0
 31
0.0
  0
CIRCLE
  5
30E
  8
FIX
  6
CONTINUOUS
 62
    11
 10
64.0
 20
64.0
 30
0.0
 40
2.25
  0
CIRCLE
  5
30F
  8
DETAIL
  6
CONTINUOUS
 62
     5
 10
64.0
 20
64.0
 30
0.0
 40
2.25
  0
LINE
  5
310
  8
NOTE
  6
CONTINUOUS
 62
     4
 10
64.0
 20
44.0
 30
0.0
 11
64.0
 21
84.0
 31
0.0
  0
LINE
  5
311
  8
NOTE
  6
CONTINUOUS
 62
     4
 10
44.0
 20
64.0
 30
0.0
 11
84.0
 21
64.0
 31
0.0
  0
CIRCLE
  5
312
  8
FIX
  6
CONTINUOUS
 62
    11
 10
-93.0
 20
-54.0
 30
0.0
 40
2.25
  0
CIRCLE
  5
313
  8
DETAIL
  6
CONTINUOUS
 62
     5
 10
-93.0
 20
-54.0
 30
0.0
 40
2.25
  0
LINE
  5
314
  8
NOTE
  6
CONTINUOUS
 62
     4
 10
-93.0
 20
-74.0
 30
0.0
 11
-93.0
 21
-34.0
 31
0.0
  0
LINE
  5
315
  8
NOTE
  6
CONTINUOUS
 62
     4
 10
-113.0
 20
-54.0
 30
0.0
 11
-73.0
 21
-54.0
 31
0.0
  0
CIRCLE
  5
316
  8
FIX
  6
CONTINUOUS
 62
    11
 10
93.0
 20
-54.0
 30
0.0
 40
2.25
  0
CIRCLE
  5
317
  8
DETAIL
  6
CONTINUOUS
 62
     5
 10
93.0
 20
-54.0
 30
0.0
 40
2.25
  0
LINE
  5
318
  8
NOTE
  6
CONTINUOUS
 62
     4
 10
93.0
 20
-74.0
 30
0.0
 11
93.0
 21
-34.0
 31
0.0
  0
LINE
  5
319
  8
NOTE
  6
CONTINUOUS
 62
     4
 10
73.0
 20
-54.0
 30
0.0
 11
113.0
 21
-54.0
 31
0.0
  0
LINE
  5
31A
  8
BASIS
  6
DASHDOT
 62
     6
 10
0.0
 20
-158.60459
 30
0.0
 11
0.0
 21
97.591667000000015
 31
0.0
  0
LINE
  5
31B
  8
BASIS
  6
DASHDOT
 62
     6
 10
-132.8753089999999
 20
0.0
 30
0.0
 11
138.68741699999981
 21
0.0
 31
0.0
  0
CIRCLE
  5
31C
  8
ARRANGE
  6
CONTINUOUS
 62
     1
 10
0.0
 20
0.0
 30
0.0
 40
40.0
  0
POINT
  5
31D
  8
ARRANGE
  6
CONTINUOUS
 62
     1
 10
0.0
 20
0.0
 30
0.0
  0
LINE
  5
31E
  8
OUTLINE
  6
CONTINUOUS
 62
     3
 10
-98.0
 20
-60.816223000000001
 30
0.0
 11
-98.0
 21
-101.0
 31
0.0
  0
LINE
  5
31F
  8
OUTLINE
  6
CONTINUOUS
 62
     3
 10
98.0
 20
-60.816223000000001
 30
0.0
 11
98.0
 21
-101.0
 31
0.0
  0
ARC
  5
320
  8
OUTLINE
  6
CONTINUOUS
 62
     3
 10
-631.0
 20
-60.816223000000001
 30
0.0
 40
729.0
 50
0.0
 51
7.6529119999999988
  0
ARC
  5
321
  8
OUTLINE
  6
CONTINUOUS
 62
     3
 10
51.863062999999997
 20
30.939088000000002
 30
0.0
 40
40.0
 50
7.6529119999999988
 51
74.494231999999982
  0
ARC
  5
322
  8
OUTLINE
  6
CONTINUOUS
 62
     3
 10
0.0
 20
-156.0
 30
0.0
 40
234.0
 50
74.494231999999982
 51
90.0
  0
ARC
  5
323
  8
OUTLINE
  6
CONTINUOUS
 62
     3
 10
631.0
 20
-60.816223000000001
 30
0.0
 40
729.0
 50
172.3470879999999
 51
180.0
  0
ARC
  5
324
  8
OUTLINE
  6
CONTINUOUS
 62
     3
 10
-51.863062999999997
 20
30.939088000000002
 30
0.0
 40
40.0
 50
105.5057679999999
 51
172.3470879999999
  0
ARC
  5
325
  8
OUTLINE
  6
CONTINUOUS
 62
     3
 10
0.0
 20
-156.0
 30
0.0
 40
234.0
 50
90.0
 51
105.5057679999999
  0
LINE
  5
326
  8
OUTLINE
  6
CONTINUOUS
 62
     3
 10
-103.0
 20
-105.4717879999998
 30
0.0
 11
-93.442184999999995
 21
-116.572124
 31
0.0
  0
ARC
  5
327
  8
OUTLINE
  6
CONTINUOUS
 62
     3
 10
-74.851246000000003
 20
-93.409934000000007
 30
0.0
 40
30.0
 50
231.70591899999999
 51
267.57293099999998
  0
ARC
  5
328
  8
OUTLINE
  6
CONTINUOUS
 62
     3
 10
-74.851246000000003
 20
-93.026911999999996
 30
0.0
 40
30.0
 50
231.70591899999999
 51
267.57293099999998
  0
LINE
  5
329
  8
OUTLINE
  6
CONTINUOUS
 62
     3
 10
-103.0
 20
-106.6375569999999
 30
0.0
 11
-93.442184999999995
 21
-116.955146
 31
0.0
  0
LINE
  5
32A
  8
OUTLINE
  6
CONTINUOUS
 62
     3
 10
-103.0
 20
-106.6375569999999
 30
0.0
 11
-103.0
 21
-101.0
 31
0.0
  0
LINE
  5
32B
  8
OUTLINE
  6
CONTINUOUS
 62
     3
 10
-98.0
 20
-101.0
 30
0.0
 11
-103.0
 21
-101.0
 31
0.0
  0
LINE
  5
32C
  8
OUTLINE
  6
CONTINUOUS
 62
     3
 10
-76.121677000000005
 20
-123.0
 30
0.0
 11
76.121677000000005
 21
-123.0
 31
0.0
  0
LINE
  5
32D
  8
OUTLINE
  6
CONTINUOUS
 62
     3
 10
-76.121677000000005
 20
-123.3830219999999
 30
0.0
 11
76.121677000000005
 21
-123.3830219999999
 31
0.0
  0
LINE
  5
32E
  8
OUTLINE
  6
CONTINUOUS
 62
     3
 10
103.0
 20
-105.4717879999998
 30
0.0
 11
93.442184999999995
 21
-116.572124
 31
0.0
  0
ARC
  5
32F
  8
OUTLINE
  6
CONTINUOUS
 62
     3
 10
74.851246000000003
 20
-93.409934000000007
 30
0.0
 40
30.0
 50
272.42706900000002
 51
308.29408100000001
  0
ARC
  5
330
  8
OUTLINE
  6
CONTINUOUS
 62
     3
 10
74.851246000000003
 20
-93.026911999999996
 30
0.0
 40
30.0
 50
272.42706900000002
 51
308.29408100000001
  0
LINE
  5
331
  8
OUTLINE
  6
CONTINUOUS
 62
     3
 10
103.0
 20
-106.6375569999999
 30
0.0
 11
93.442184999999995
 21
-116.955146
 31
0.0
  0
LINE
  5
332
  8
OUTLINE
  6
CONTINUOUS
 62
     3
 10
103.0
 20
-106.6375569999999
 30
0.0
 11
103.0
 21
-101.0
 31
0.0
  0
LINE
  5
333
  8
OUTLINE
  6
CONTINUOUS
 62
     3
 10
98.0
 20
-101.0
 30
0.0
 11
103.0
 21
-101.0
 31
0.0
  0
TEXT
  5
334
  8
NOTE
  6
CONTINUOUS
 62
     4
 10
223.43025700000001
 20
-366.34590783577181
 30
0.0
 40
64.0
  1
4×φ4.5ノックアウト取付穴
 41
0.9
  0
LINE
  5
335
  8
SIZE
  6
CONTINUOUS
 62
    30
 10
48.5
 20
20.0
 30
0.0
 11
48.5
 21
170.5822839999999
 31
0.0
  0
LINE
  5
336
  8
SIZE
  6
CONTINUOUS
 62
    30
 10
-48.5
 20
20.0
 30
0.0
 11
-48.5
 21
170.5822839999999
 31
0.0
  0
LINE
  5
337
  8
SIZE
  6
CONTINUOUS
 62
    30
 10
48.5
 20
140.5822839999999
 30
0.0
 11
-46.5
 21
140.5822839999999
 31
0.0
  0
TEXT
  5
338
  8
SIZE
  6
CONTINUOUS
 62
    30
 10
-285.81646642857152
 20
171.62138699999991
 30
0.0
 40
64.0
  1
φ97
 41
0.9
 72
     1
 11
-198.867895
 21
171.62138699999991
 31
0.0
  0
CIRCLE
  5
339
  8
SIZE
  6
CONTINUOUS
 62
    30
 10
48.5
 20
140.5822839999999
 30
0.0
 40
6.0
  0
CIRCLE
  5
33A
  8
SIZE
  6
CONTINUOUS
 62
    30
 10
-48.5
 20
140.5822839999999
 30
0.0
 40
6.0
  0
LINE
  5
33B
  8
SIZE
  6
CONTINUOUS
 62
    30
 10
64.0
 20
84.0
 30
0.0
 11
64.0
 21
293.82205099999982
 31
0.0
  0
LINE
  5
33C
  8
SIZE
  6
CONTINUOUS
 62
    30
 10
-64.0
 20
84.0
 30
0.0
 11
-64.0
 21
293.82205099999982
 31
0.0
  0
LINE
  5
33D
  8
SIZE
  6
CONTINUOUS
 62
    30
 10
64.0
 20
263.82205099999999
 30
0.0
 11
-64.0
 21
263.82205099999999
 31
0.0
  0
TEXT
  5
33E
  8
SIZE
  6
CONTINUOUS
 62
    30
 10
-69.992079571428576
 20
309.573013
 30
0.0
 40
64.0
  1
128
 41
0.9
 72
     1
 11
-1.4206510000000001
 21
309.573013
 31
0.0
  0
CIRCLE
  5
33F
  8
SIZE
  6
CONTINUOUS
 62
    30
 10
64.0
 20
263.82205099999999
 30
0.0
 40
6.0
  0
CIRCLE
  5
340
  8
SIZE
  6
CONTINUOUS
 62
    30
 10
-64.0
 20
263.82205099999999
 30
0.0
 40
6.0
  0
LINE
  5
341
  8
SIZE
  6
CONTINUOUS
 62
    30
 10
93.0
 20
-34.0
 30
0.0
 11
93.0
 21
433.53152599999987
 31
0.0
  0
LINE
  5
342
  8
SIZE
  6
CONTINUOUS
 62
    30
 10
-93.0
 20
-34.0
 30
0.0
 11
-93.0
 21
433.53152599999987
 31
0.0
  0
LINE
  5
343
  8
SIZE
  6
CONTINUOUS
 62
    30
 10
93.0
 20
403.53152599999987
 30
0.0
 11
-93.0
 21
403.53152599999987
 31
0.0
  0
TEXT
  5
344
  8
SIZE
  6
CONTINUOUS
 62
    30
 10
-67.200000000000003
 20
421.32689699999992
 30
0.0
 40
64.0
  1
186
 41
0.9
 72
     1
 11
0.0
 21
421.32689699999992
 31
0.0
  0
CIRCLE
  5
345
  8
SIZE
  6
CONTINUOUS
 62
    30
 10
93.0
 20
403.53152599999987
 30
0.0
 40
6.0
  0
CIRCLE
  5
346
  8
SIZE
  6
CONTINUOUS
 62
    30
 10
-93.0
 20
403.53152599999987
 30
0.0
 40
6.0
  0
LINE
  5
347
  8
SIZE
  6
CONTINUOUS
 62
    30
 10
-42.5
 20
140.5822839999999
 30
0.0
 11
-265.01272399999988
 21
140.5822839999999
 31
0.0
  0
LINE
  5
348
  8
SIZE
  6
CONTINUOUS
 62
    30
 10
84.0
 20
64.0
 30
0.0
 11
479.19101999999998
 21
64.0
 31
0.0
  0
LINE
  5
349
  8
SIZE
  6
CONTINUOUS
 62
    30
 10
101.909868
 20
0.0
 30
0.0
 11
479.19101999999998
 21
0.0
 31
0.0
  0
LINE
  5
34A
  8
SIZE
  6
CONTINUOUS
 62
    30
 10
449.19101999999992
 20
62.0
 30
0.0
 11
449.19101999999992
 21
2.0
 31
0.0
  0
TEXT
  5
34B
  8
SIZE
  6
CONTINUOUS
 62
    30
 10
432.38295899999991
 20
-180.94089
 30
0.0
 40
64.0
  1
64
 50
90.0
 41
0.9
 72
     1
 11
432.38295899999991
 21
-132.94089
 31
0.0
  0
CIRCLE
  5
34C
  8
SIZE
  6
CONTINUOUS
 62
    30
 10
449.19101999999992
 20
64.0
 30
0.0
 40
6.0
  0
CIRCLE
  5
34D
  8
SIZE
  6
CONTINUOUS
 62
    30
 10
449.19101999999992
 20
0.0
 30
0.0
 40
6.0
  0
LINE
  5
34E
  8
SIZE
  6
CONTINUOUS
 62
    30
 10
84.0
 20
64.0
 30
0.0
 11
619.13315799999987
 21
64.0
 31
0.0
  0
LINE
  5
34F
  8
SIZE
  6
CONTINUOUS
 62
    30
 10
113.0
 20
-54.0
 30
0.0
 11
619.13315799999987
 21
-54.0
 31
0.0
  0
LINE
  5
350
  8
SIZE
  6
CONTINUOUS
 62
    30
 10
589.13315799999998
 20
62.0
 30
0.0
 11
589.13315799999998
 21
-52.0
 31
0.0
  0
TEXT
  5
351
  8
SIZE
  6
CONTINUOUS
 62
    30
 10
571.59928500000001
 20
-199.83526228571429
 30
0.0
 40
64.0
  1
118
 50
90.0
 41
0.9
 72
     1
 11
571.59928500000001
 21
-136.749548
 31
0.0
  0
CIRCLE
  5
352
  8
SIZE
  6
CONTINUOUS
 62
    30
 10
589.13315799999998
 20
64.0
 30
0.0
 40
6.0
  0
CIRCLE
  5
353
  8
SIZE
  6
CONTINUOUS
 62
    30
 10
589.13315799999998
 20
-54.0
 30
0.0
 40
6.0
  0
LINE
  5
354
  8
SIZE
  6
CONTINUOUS
 62
    30
 10
449.19101999999992
 20
6.0
 30
0.0
 11
449.19101999999992
 21
-190.07073199999999
 31
0.0
  0
LINE
  5
355
  8
SIZE
  6
CONTINUOUS
 62
    30
 10
589.13315799999998
 20
-48.0
 30
0.0
 11
589.13315799999998
 21
-198.957595
 31
0.0
  0
LINE
  5
356
  8
NOTE
  6
CONTINUOUS
 62
     4
 10
114.88194799999999
 20
-89.829585999999964
 30
0.0
 11
93.155201999999989
 21
-56.244641000000001
 31
0.0
  0
LINE
  5
357
  8
NOTE
  6
CONTINUOUS
 62
     4
 10
93.155201999999989
 20
-56.244641000000001
 30
0.0
 11
95.178642999999994
 21
-96.193429000000023
 31
0.0
  0
LINE
  5
358
  8
NOTE
  6
CONTINUOUS
 62
     4
 10
93.155201999999989
 20
-56.244641000000001
 30
0.0
 11
206.35237900000001
 21
-394.63678499999992
 31
0.0
  0
LINE
  5
359
  8
NOTE
  6
CONTINUOUS
 62
     4
 10
206.35237900000001
 20
-394.63678499999992
 30
0.0
 11
1191.739055
 21
-394.63678499999992
 31
0.0
  0
TEXT
  5
35C
  8
ETC
  6
CONTINUOUS
 62
    61
 10
692.90986423972276
 20
431.96875218862527
 30
0.0
 40
40.0
  1
システム部材
 41
0.9
  0
TEXT
  5
35D
  8
ETC
  6
CONTINUOUS
 62
    61
 10
697.41836663972276
 20
497.06277899716542
 30
0.0
 40
40.0
  1
P-13VA3_3
 41
0.9
  0
TEXT
  5
35E
  8
ETC
  6
CONTINUOUS
 62
    61
 10
766.45256527702634
 20
177.72017650797309
 30
0.0
 40
32.0
  1
P-13VAD3-BL
 41
0.9
  0
TEXT
  5
35F
  8
ETC
  6
CONTINUOUS
 62
    61
 10
766.45256527702634
 20
283.32017650797309
 30
0.0
 40
32.0
  1
P-13VA3-BK
 41
0.9
  0
TEXT
  5
360
  8
ETC
  6
CONTINUOUS
 62
    61
 10
766.45256527702634
 20
336.12017650797299
 30
0.0
 40
32.0
  1
P-13VA3-BL
 41
0.9
  0
TEXT
  5
361
  8
ETC
  6
CONTINUOUS
 62
    61
 10
766.45256527702634
 20
230.52017650797299
 30
0.0
 40
32.0
  1
P-13VAD3
 41
0.9
  0
TEXT
  5
362
  8
ETC
  6
CONTINUOUS
 62
    61
 10
766.45256527702634
 20
384.52686515113493
 30
0.0
 40
32.0
  1
P-13VA3
 41
0.9
  0
CIRCLE
  5
365
  8
DETAIL
  6
CONTINUOUS
 62
     5
 10
0.0
 20
0.0
 30
0.0
 40
48.5
  0
TEXT
  5
3FE
  8
ETC
  6
CONTINUOUS
 62
    61
 10
765.50380255711275
 20
126.9894713250069
 30
0.0
 40
32.0
  1
P-13VAH3
 41
0.9
  0
TEXT
  5
3FF
  8
ETC
  6
CONTINUOUS
 62
    61
 10
765.50380255711275
 20
74.189471325006906
 30
0.0
 40
32.0
  1
P-13VAH3-BK
 41
0.9
  0
TEXT
  5
400
  8
ETC
  6
CONTINUOUS
 62
    61
 10
765.50380255711275
 20
24.376367426253669
 30
0.0
 40
32.0
  1
P-13VAQ3
 41
0.9
  0
TEXT
  5
401
  8
ETC
  6
CONTINUOUS
 62
    61
 10
765.50380255711275
 20
-28.42363257374635
 30
0.0
 40
32.0
  1
P-13VAQD3
 41
0.9
  0
ENDSEC
  0
EOF
