  0
SECTION
  2
HEADER
  9
$ACADVER
  1
AC1009
  9
$INSBASE
 10
0.0
 20
0.0
 30
0.0
  9
$EXTMIN
 10
-765.88438301799567
 20
-394.13450971959901
 30
-0.0007627857894761
  9
$EXTMAX
 10
640.35187879385364
 20
493.7896807605739
 30
50.000763018648549
  9
$LIMMIN
 10
-2970.0
 20
-2100.0
  9
$LIMMAX
 10
2970.0
 20
2100.0
  9
$ORTHOMODE
 70
     1
  9
$REGENMODE
 70
     1
  9
$FILLMODE
 70
     1
  9
$QTEXTMODE
 70
     0
  9
$MIRRTEXT
 70
     0
  9
$DRAGMODE
 70
     2
  9
$LTSCALE
 40
20.0
  9
$OSMODE
 70
    37
  9
$ATTMODE
 70
     1
  9
$TEXTSIZE
 40
64.0
  9
$TRACEWID
 40
0.05
  9
$TEXTSTYLE
  7
STANDARD
  9
$CLAYER
  8
ETC
  9
$CELTYPE
  6
CONTINUOUS
  9
$CECOLOR
 62
     7
  9
$DIMSCALE
 40
1.0
  9
$DIMASZ
 40
12.0
  9
$DIMEXO
 40
20.0
  9
$DIMDLI
 40
200.0
  9
$DIMRND
 40
0.0
  9
$DIMDLE
 40
0.0
  9
$DIMEXE
 40
20.0
  9
$DIMTP
 40
0.0
  9
$DIMTM
 40
0.0
  9
$DIMTXT
 40
64.0
  9
$DIMCEN
 40
0.09
  9
$DIMTSZ
 40
0.0
  9
$DIMTOL
 70
     0
  9
$DIMLIM
 70
     0
  9
$DIMTIH
 70
     0
  9
$DIMTOH
 70
     0
  9
$DIMSE1
 70
     0
  9
$DIMSE2
 70
     0
  9
$DIMTAD
 70
     1
  9
$DIMZIN
 70
     8
  9
$DIMBLK
  1
DOT1
  9
$DIMASO
 70
     1
  9
$DIMSHO
 70
     0
  9
$DIMPOST
  1

  9
$DIMAPOST
  1

  9
$DIMALT
 70
     0
  9
$DIMALTD
 70
     2
  9
$DIMALTF
 40
25.399999999999999
  9
$DIMLFAC
 40
1.0
  9
$DIMTOFL
 70
     1
  9
$DIMTVP
 40
0.0
  9
$DIMTIX
 70
     1
  9
$DIMSOXD
 70
     0
  9
$DIMSAH
 70
     1
  9
$DIMBLK1
  1
ORIGIN
  9
$DIMBLK2
  1
ORIGIN
  9
$DIMSTYLE
  2
STANDARD
  9
$DIMCLRD
 70
     7
  9
$DIMCLRE
 70
     7
  9
$DIMCLRT
 70
     7
  9
$DIMTFAC
 40
1.0
  9
$DIMGAP
 40
25.0
  9
$LUNITS
 70
     2
  9
$LUPREC
 70
     4
  9
$SKETCHINC
 40
0.1
  9
$FILLETRAD
 40
4.0
  9
$AUNITS
 70
     1
  9
$AUPREC
 70
     3
  9
$MENU
  1
ACAD
  9
$ELEVATION
 40
0.0
  9
$PELEVATION
 40
0.0
  9
$THICKNESS
 40
50.0
  9
$LIMCHECK
 70
     0
  9
$BLIPMODE
 70
     0
  9
$CHAMFERA
 40
0.0
  9
$CHAMFERB
 40
0.0
  9
$SKPOLY
 70
     0
  9
$TDCREATE
 40
2453070.5625517829
  9
$TDUPDATE
 40
2454810.617479329
  9
$TDINDWG
 40
0.0189453009
  9
$TDUSRTIMER
 40
0.0188720602
  9
$USRTIMER
 70
     1
  9
$ANGBASE
 50
0.0
  9
$ANGDIR
 70
     0
  9
$PDMODE
 70
     3
  9
$PDSIZE
 40
-2.0
  9
$PLINEWID
 40
0.0
  9
$COORDS
 70
     0
  9
$SPLFRAME
 70
     0
  9
$SPLINETYPE
 70
     6
  9
$SPLINESEGS
 70
     8
  9
$ATTDIA
 70
     0
  9
$ATTREQ
 70
     1
  9
$HANDLING
 70
     1
  9
$HANDSEED
  5
1B1
  9
$SURFTAB1
 70
     6
  9
$SURFTAB2
 70
     6
  9
$SURFTYPE
 70
     6
  9
$SURFU
 70
     6
  9
$SURFV
 70
     6
  9
$UCSNAME
  2

  9
$UCSORG
 10
0.0
 20
0.0
 30
0.0
  9
$UCSXDIR
 10
1.0
 20
0.0
 30
0.0
  9
$UCSYDIR
 10
0.0
 20
1.0
 30
0.0
  9
$PUCSNAME
  2

  9
$PUCSORG
 10
0.0
 20
0.0
 30
0.0
  9
$PUCSXDIR
 10
1.0
 20
0.0
 30
0.0
  9
$PUCSYDIR
 10
0.0
 20
1.0
 30
0.0
  9
$USERI1
 70
     0
  9
$USERI2
 70
     0
  9
$USERI3
 70
     0
  9
$USERI4
 70
     0
  9
$USERI5
 70
     0
  9
$USERR1
 40
20.0
  9
$USERR2
 40
0.0
  9
$USERR3
 40
0.0
  9
$USERR4
 40
0.0
  9
$USERR5
 40
0.0
  9
$WORLDVIEW
 70
     1
  9
$SHADEDGE
 70
     3
  9
$SHADEDIF
 70
    70
  9
$TILEMODE
 70
     1
  9
$MAXACTVP
 70
    48
  9
$PLIMCHECK
 70
     0
  9
$PEXTMIN
 10
-1.0000000000000000E+020
 20
-1.0000000000000000E+020
 30
-1.0000000000000000E+020
  9
$PEXTMAX
 10
1.0000000000000000E+020
 20
1.0000000000000000E+020
 30
1.0000000000000000E+020
  9
$PLIMMIN
 10
0.0
 20
0.0
  9
$PLIMMAX
 10
12.0
 20
9.0
  9
$UNITMODE
 70
     0
  9
$VISRETAIN
 70
     0
  9
$PLINEGEN
 70
     0
  9
$PSLTSCALE
 70
     0
  0
ENDSEC
  0
SECTION
  2
TABLES
  0
TABLE
  2
VPORT
 70
     1
  0
VPORT
  2
*ACTIVE
 70
     0
 10
0.0
 20
0.0
 11
1.0
 21
1.0
 12
-30.04341803251339
 22
34.246774028647224
 13
0.0
 23
0.0
 14
1.0
 24
1.0
 15
0.0
 25
0.0
 16
0.0
 26
0.0
 36
1.0
 17
0.0
 27
0.0
 37
0.0
 40
1165.8671654649861
 41
1.350591715976331
 42
50.0
 43
0.0
 44
0.0
 50
0.0
 51
0.0
 71
     0
 72
  1000
 73
     1
 74
     0
 75
     0
 76
     0
 77
     0
 78
     0
  0
ENDTAB
  0
TABLE
  2
LTYPE
 70
     4
  0
LTYPE
  2
CONTINUOUS
 70
     0
  3
実線
 72
    65
 73
     0
 40
0.0
  0
LTYPE
  2
DASHDOT
 70
     0
  3
____ _ ____ _ ____ _ ____ _ ____ _ ____ _ ____
 72
    65
 73
     4
 40
5.5
 49
4.0
 49
-0.6
 49
0.3
 49
-0.6
  0
ENDTAB
  0
TABLE
  2
LAYER
 70
    12
  0
LAYER
  2
0
 70
     0
 62
     7
  6
CONTINUOUS
  0
LAYER
  2
SIZE
 70
     0
 62
    30
  6
CONTINUOUS
  0
LAYER
  2
BASIS
 70
     0
 62
     6
  6
DASHDOT
  0
LAYER
  2
OUTLINE
 70
     0
 62
     3
  6
CONTINUOUS
  0
LAYER
  2
DETAIL
 70
     0
 62
     5
  6
CONTINUOUS
  0
LAYER
  2
ARRANGE
 70
     0
 62
     1
  6
CONTINUOUS
  0
LAYER
  2
DEFPOINTS
 70
     0
 62
     7
  6
CONTINUOUS
  0
LAYER
  2
ETC
 70
     0
 62
    61
  6
CONTINUOUS
  0
LAYER
  2
FIX
 70
     0
 62
    11
  6
CONTINUOUS
  0
LAYER
  2
NOTE
 70
     0
 62
     4
  6
CONTINUOUS
  0
LAYER
  2
SERVICESPACE
 70
     0
 62
     2
  6
DASHDOT
  0
LAYER
  2
SYMBOLLINE
 70
     0
 62
    15
  6
CONTINUOUS
  0
ENDTAB
  0
TABLE
  2
STYLE
 70
     2
  0
STYLE
  2
STANDARD
 70
     0
 40
64.0
 41
0.9
 50
0.0
 71
     0
 42
64.0
  3
SIMPLEX.shx
  4
BIGFONT.shx
  0
STYLE
  2
ANNOTATIVE
 70
     0
 40
0.0
 41
1.0
 50
0.0
 71
     0
 42
0.2
  3
txt
  4

  0
ENDTAB
  0
TABLE
  2
VIEW
 70
     1
  0
VIEW
  2
ALL
 70
     0
 40
4282.6198079999986
 10
0.0
 20
41.309903999999989
 41
5940.0
 11
0.0
 21
0.0
 31
1.0
 12
0.0
 22
0.0
 32
0.0
 42
50.0
 43
0.0
 44
0.0
 50
0.0
 71
     0
  0
ENDTAB
  0
TABLE
  2
UCS
 70
     0
  0
ENDTAB
  0
TABLE
  2
APPID
 70
     5
  0
APPID
  2
ACAD
 70
     0
  0
APPID
  2
ACADANNOTATIVE
 70
     0
  0
APPID
  2
ACAD_MLEADERVER
 70
     0
  0
APPID
  2
AUTOCAD_POSTSCRIPT_FIGURE
 70
     0
  0
APPID
  2
ACAD_EXEMPT_FROM_CAD_STANDARDS
 70
     0
  0
ENDTAB
  0
TABLE
  2
DIMSTYLE
 70
     3
  0
DIMSTYLE
  2
STANDARD
 70
     0
  3

  4

  5

  6

  7

 40
1.0
 41
0.18
 42
0.0625
 43
0.38
 44
0.18
 45
0.0
 46
0.0
 47
0.0
 48
0.0
140
0.18
141
0.09
142
0.0
143
25.399999999999999
144
1.0
145
0.0
146
1.0
147
0.09
 71
     0
 72
     0
 73
     1
 74
     1
 75
     0
 76
     0
 77
     0
 78
     0
170
     0
171
     2
172
     0
173
     0
174
     0
175
     0
176
     7
177
     7
178
     7
  0
DIMSTYLE
  2
ANNOTATIVE
 70
     0
  3

  4

  5

  6

  7

 40
1.0
 41
0.18
 42
0.0625
 43
0.38
 44
0.18
 45
0.0
 46
0.0
 47
0.0
 48
0.0
140
0.18
141
0.09
142
0.0
143
25.399999999999999
144
1.0
145
0.0
146
1.0
147
0.09
 71
     0
 72
     0
 73
     1
 74
     1
 75
     0
 76
     0
 77
     0
 78
     0
170
     0
171
     2
172
     0
173
     0
174
     0
175
     0
176
     0
177
     0
178
     0
  0
ENDTAB
  0
ENDSEC
  0
SECTION
  2
BLOCKS
  0
BLOCK
  8
0
  2
$MODEL_SPACE
 70
     0
 10
0.0
 20
0.0
 30
0.0
  3
$MODEL_SPACE
  1

  0
ENDBLK
  5
76
  8
0
  0
BLOCK
 67
     1
  8
0
  2
$PAPER_SPACE
 70
     0
 10
0.0
 20
0.0
 30
0.0
  3
$PAPER_SPACE
  1

  0
ENDBLK
  5
72
 67
     1
  8
0
  0
BLOCK
  8
0
  2
DOT1
 70
     0
 10
0.0
 20
0.0
 30
0.0
  3
DOT1
  1

  0
CIRCLE
  5
8C
  8
SIZE
  6
CONTINUOUS
 62
     7
 10
0.0
 20
0.0
 30
0.0
 40
3.0
  0
ENDBLK
  5
8D
  8
0
  0
BLOCK
  8
0
  2
_ORIGIN
 70
     0
 10
0.0
 20
0.0
 30
0.0
  3
_ORIGIN
  1

  0
CIRCLE
  5
90
  8
0
  6
CONTINUOUS
 62
     7
 10
0.0
 20
0.0
 30
0.0
 40
0.5
  0
LINE
  5
91
  8
0
  6
CONTINUOUS
 62
     7
 10
0.0
 20
0.0
 30
0.0
 11
-1.0
 21
0.0
 31
0.0
  0
ENDBLK
  5
92
  8
0
  0
ENDSEC
  0
SECTION
  2
ENTITIES
  0
LINE
  5
94
  8
BASIS
  6
DASHDOT
 62
     6
 10
0.0
 20
51.396149999999999
 30
0.0
 11
0.0
 21
-117.367833
 31
0.0
  0
POINT
  5
95
  8
ARRANGE
  6
CONTINUOUS
 62
     1
 10
0.0
 20
0.0
 30
0.0
  0
CIRCLE
  5
96
  8
ARRANGE
  6
CONTINUOUS
 62
     1
 10
0.0
 20
0.0
 30
0.0
 40
40.0
  0
LINE
  5
97
  8
NOTE
  6
CONTINUOUS
 62
     4
 10
-93.0
 20
-20.0
 30
0.0
 11
-93.0
 21
20.0
 31
0.0
  0
LINE
  5
98
  8
NOTE
  6
CONTINUOUS
 62
     4
 10
-113.0
 20
0.0
 30
0.0
 11
-73.0
 21
0.0
 31
0.0
  0
LINE
  5
99
  8
NOTE
  6
CONTINUOUS
 62
     4
 10
-64.0
 20
-20.0
 30
0.0
 11
-64.0
 21
20.0
 31
0.0
  0
LINE
  5
9A
  8
NOTE
  6
CONTINUOUS
 62
     4
 10
-84.0
 20
0.0
 30
0.0
 11
-44.0
 21
0.0
 31
0.0
  0
LINE
  5
9B
  8
NOTE
  6
CONTINUOUS
 62
     4
 10
64.0
 20
-20.0
 30
0.0
 11
64.0
 21
20.0
 31
0.0
  0
LINE
  5
9C
  8
NOTE
  6
CONTINUOUS
 62
     4
 10
84.0
 20
0.0
 30
0.0
 11
44.0
 21
0.0
 31
0.0
  0
LINE
  5
9D
  8
NOTE
  6
CONTINUOUS
 62
     4
 10
93.0
 20
-20.0
 30
0.0
 11
93.0
 21
20.0
 31
0.0
  0
LINE
  5
9E
  8
NOTE
  6
CONTINUOUS
 62
     4
 10
113.0
 20
0.0
 30
0.0
 11
73.0
 21
0.0
 31
0.0
  0
LINE
  5
9F
  8
NOTE
  6
CONTINUOUS
 62
     4
 10
-93.0
 20
0.0
 30
0.0
 11
-234.23648499999999
 21
115.76761999999999
 31
0.0
  0
LINE
  5
A0
  8
NOTE
  6
CONTINUOUS
 62
     4
 10
-129.46319
 20
16.444932000000001
 30
0.0
 11
-93.0
 21
0.0
 31
0.0
  0
LINE
  5
A1
  8
NOTE
  6
CONTINUOUS
 62
     4
 10
-93.0
 20
0.0
 30
0.0
 11
-116.355583
 21
32.473323999999998
 31
0.0
  0
LINE
  5
A2
  8
DETAIL
  6
CONTINUOUS
 62
     5
 10
-10.0
 20
-85.0
 30
0.0
 11
12.0
 21
-85.0
 31
0.0
  0
ARC
  5
A3
  8
DETAIL
  6
CONTINUOUS
 62
     5
 10
-78.0
 20
-12.066827
 30
0.0
 40
10.0
 50
180.0
 51
198.39226199999999
  0
ARC
  5
A4
  8
DETAIL
  6
CONTINUOUS
 62
     5
 10
66.025593000000001
 20
37.379798000000001
 30
0.0
 40
162.27673999999999
 50
198.91402199999999
 51
223.94520600000001
  0
ARC
  5
A5
  8
DETAIL
  6
CONTINUOUS
 62
     5
 10
-43.482436999999997
 20
-68.435106999999988
 30
0.0
 40
10.0
 50
222.846023
 51
252.54324800000001
  0
ARC
  5
A6
  8
DETAIL
  6
CONTINUOUS
 62
     5
 10
7.4071149999999992
 20
103.629598
 30
0.0
 40
189.43107699999999
 50
253.47221400000001
 51
264.72756399999997
  0
LINE
  5
A7
  8
DETAIL
  6
CONTINUOUS
 62
     5
 10
-88.0
 20
-12.066827
 30
0.0
 11
-88.0
 21
-8.0
 31
0.0
  0
ARC
  5
A8
  8
DETAIL
  6
CONTINUOUS
 62
     5
 10
78.0
 20
-12.066827
 30
0.0
 40
10.0
 50
341.60773799999998
 51
0.0
  0
ARC
  5
A9
  8
DETAIL
  6
CONTINUOUS
 62
     5
 10
-66.025593000000001
 20
37.379798000000001
 30
0.0
 40
162.27673999999999
 50
316.05479400000002
 51
341.08597800000001
  0
ARC
  5
AA
  8
DETAIL
  6
CONTINUOUS
 62
     5
 10
43.482436999999997
 20
-68.435106999999988
 30
0.0
 40
10.0
 50
287.45675199999999
 51
317.153977
  0
ARC
  5
AB
  8
DETAIL
  6
CONTINUOUS
 62
     5
 10
-4.5152970000000003
 20
84.195877999999993
 30
0.0
 40
170.0
 50
275.57500900000002
 51
287.45675199999999
  0
LINE
  5
AC
  8
DETAIL
  6
CONTINUOUS
 62
     5
 10
88.0
 20
-12.066827
 30
0.0
 11
88.0
 21
-8.0
 31
0.0
  0
LINE
  5
AD
  8
DETAIL
  6
CONTINUOUS
 62
     5
 10
-98.0
 20
-8.0
 30
0.0
 11
98.0
 21
-8.0
 31
0.0
  0
ARC
  5
AE
  8
DETAIL
  6
CONTINUOUS
 62
     5
 10
74.267837999999983
 20
9.8639520000000012
 30
0.0
 40
30.0
 50
294.51105899999999
 51
312.25862499999999
  0
LINE
  5
AF
  8
DETAIL
  6
CONTINUOUS
 62
     5
 10
-103.0
 20
0.0
 30
0.0
 11
103.0
 21
0.0
 31
0.0
  0
ARC
  5
B0
  8
DETAIL
  6
CONTINUOUS
 62
     5
 10
-74.267837999999983
 20
9.8639520000000012
 30
0.0
 40
30.0
 50
227.74137500000001
 51
245.48894100000001
  0
LINE
  5
B1
  8
DETAIL
  6
CONTINUOUS
 62
     5
 10
-103.0
 20
-3.0
 30
0.0
 11
-94.442184999999995
 21
-12.339556
 31
0.0
  0
LINE
  5
B2
  8
DETAIL
  6
CONTINUOUS
 62
     5
 10
-103.0
 20
0.0
 30
0.0
 11
-103.0
 21
-3.0
 31
0.0
  0
LINE
  5
B3
  8
DETAIL
  6
CONTINUOUS
 62
     5
 10
103.0
 20
0.0
 30
0.0
 11
103.0
 21
-3.0
 31
0.0
  0
LINE
  5
B4
  8
DETAIL
  6
CONTINUOUS
 62
     5
 10
98.0
 20
-8.0
 30
0.0
 11
98.0
 21
0.0
 31
0.0
  0
LINE
  5
B5
  8
DETAIL
  6
CONTINUOUS
 62
     5
 10
103.0
 20
-3.0
 30
0.0
 11
94.442184999999995
 21
-12.339556
 31
0.0
  0
LINE
  5
B6
  8
SIZE
  6
CONTINUOUS
 62
    30
 10
123.0
 20
0.0
 30
0.0
 11
301.24971299999999
 21
0.0
 31
0.0
  0
LINE
  5
B7
  8
SIZE
  6
CONTINUOUS
 62
    30
 10
67.0
 20
17.0
 30
0.0
 11
301.24971299999999
 21
17.0
 31
0.0
  0
LINE
  5
B8
  8
SIZE
  6
CONTINUOUS
 62
    30
 10
281.24971299999999
 20
-12.0
 30
0.0
 11
281.24971299999999
 21
-24.0
 31
0.0
  0
LINE
  5
B9
  8
SIZE
  6
CONTINUOUS
 62
    30
 10
281.24971299999999
 20
28.0
 30
0.0
 11
281.24971299999999
 21
40.0
 31
0.0
  0
LINE
  5
BA
  8
SIZE
  6
CONTINUOUS
 62
    30
 10
281.24971299999999
 20
169.93513899999999
 30
0.0
 11
281.24971299999999
 21
17.0
 31
0.0
  0
TEXT
  5
BB
  8
SIZE
  6
CONTINUOUS
 62
    30
 10
256.24971299999999
 20
64.02085285714287
 30
0.0
 40
64.0
  1
17
 50
90.0
 41
0.9
 72
     1
 11
256.24971299999999
 21
105.16370999999999
 31
0.0
  0
LINE
  5
BC
  8
SIZE
  6
CONTINUOUS
 62
    30
 10
281.24971299999999
 20
0.0
 30
0.0
 11
281.24971299999999
 21
16.0
 31
0.0
  0
LINE
  5
BD
  8
SIZE
  6
CONTINUOUS
 62
    30
 10
281.24971299999999
 20
0.0
 30
0.0
 11
281.24971299999999
 21
17.0
 31
0.0
  0
CIRCLE
  5
BE
  8
SIZE
  6
CONTINUOUS
 62
    30
 10
281.24971299999999
 20
0.0
 30
0.0
 40
6.0
  0
LINE
  5
BF
  8
SIZE
  6
CONTINUOUS
 62
    30
 10
281.24971299999999
 20
0.0
 30
0.0
 11
281.24971299999999
 21
-12.0
 31
0.0
  0
CIRCLE
  5
C0
  8
SIZE
  6
CONTINUOUS
 62
    30
 10
281.24971299999999
 20
17.0
 30
0.0
 40
6.0
  0
LINE
  5
C1
  8
SIZE
  6
CONTINUOUS
 62
    30
 10
281.24971299999999
 20
16.0
 30
0.0
 11
281.24971299999999
 21
28.0
 31
0.0
  0
POINT
  5
C2
  8
DEFPOINTS
  6
CONTINUOUS
 62
    30
 10
103.0
 20
0.0
 30
0.0
  0
POINT
  5
C3
  8
DEFPOINTS
  6
CONTINUOUS
 62
    30
 10
47.0
 20
16.0
 30
0.0
  0
POINT
  5
C4
  8
DEFPOINTS
  6
CONTINUOUS
 62
    30
 10
281.24971299999999
 20
16.0
 30
0.0
  0
LINE
  5
C5
  8
SIZE
  6
CONTINUOUS
 62
    30
 10
123.0
 20
0.0
 30
0.0
 11
301.24971299999999
 21
0.0
 31
0.0
  0
LINE
  5
C6
  8
SIZE
  6
CONTINUOUS
 62
    30
 10
20.0
 20
-85.0
 30
0.0
 11
301.24971299999999
 21
-85.0
 31
0.0
  0
LINE
  5
C7
  8
SIZE
  6
CONTINUOUS
 62
    30
 10
281.24971299999999
 20
-12.0
 30
0.0
 11
281.24971299999999
 21
-73.0
 31
0.0
  0
LINE
  5
C8
  8
SIZE
  6
CONTINUOUS
 62
    30
 10
281.24971299999999
 20
-249.363281
 30
0.0
 11
281.24971299999999
 21
-85.0
 31
0.0
  0
TEXT
  5
C9
  8
SIZE
  6
CONTINUOUS
 62
    30
 10
256.24971299999999
 20
-224.36328142857141
 30
0.0
 40
64.0
  1
85
 50
90.0
 41
0.9
 72
     1
 11
256.24971299999999
 21
-177.73471000000001
 31
0.0
  0
CIRCLE
  5
CA
  8
SIZE
  6
CONTINUOUS
 62
    30
 10
281.24971299999999
 20
0.0
 30
0.0
 40
6.0
  0
LINE
  5
CB
  8
SIZE
  6
CONTINUOUS
 62
    30
 10
281.24971299999999
 20
0.0
 30
0.0
 11
281.24971299999999
 21
-12.0
 31
0.0
  0
CIRCLE
  5
CC
  8
SIZE
  6
CONTINUOUS
 62
    30
 10
281.24971299999999
 20
-85.0
 30
0.0
 40
6.0
  0
LINE
  5
CD
  8
SIZE
  6
CONTINUOUS
 62
    30
 10
281.24971299999999
 20
-85.0
 30
0.0
 11
281.24971299999999
 21
-73.0
 31
0.0
  0
POINT
  5
CE
  8
DEFPOINTS
  6
CONTINUOUS
 62
    30
 10
103.0
 20
0.0
 30
0.0
  0
POINT
  5
CF
  8
DEFPOINTS
  6
CONTINUOUS
 62
    30
 10
0.0
 20
-85.0
 30
0.0
  0
POINT
  5
D0
  8
DEFPOINTS
  6
CONTINUOUS
 62
    30
 10
281.24971299999999
 20
-85.0
 30
0.0
  0
POINT
  5
DA
  8
DEFPOINTS
  6
CONTINUOUS
 62
    30
 10
0.0
 20
-85.0
 30
0.0
  0
POINT
  5
DB
  8
DEFPOINTS
  6
CONTINUOUS
 62
    30
 10
47.0
 20
16.0
 30
0.0
  0
POINT
  5
DC
  8
DEFPOINTS
  6
CONTINUOUS
 62
    30
 10
408.29710999999992
 20
16.0
 30
0.0
  0
LINE
  5
DD
  8
SIZE
  6
CONTINUOUS
 62
    30
 10
-116.0
 20
0.0
 30
0.0
 11
-208.276645
 21
0.0
 31
0.0
  0
LINE
  5
DE
  8
SIZE
  6
CONTINUOUS
 62
    30
 10
-116.0
 20
-8.0
 30
0.0
 11
-208.276645
 21
-8.0
 31
0.0
  0
LINE
  5
DF
  8
SIZE
  6
CONTINUOUS
 62
    30
 10
-188.276645
 20
12.0
 30
0.0
 11
-188.276645
 21
24.0
 31
0.0
  0
LINE
  5
E0
  8
SIZE
  6
CONTINUOUS
 62
    30
 10
-188.276645
 20
-20.0
 30
0.0
 11
-188.276645
 21
-32.0
 31
0.0
  0
TEXT
  5
E1
  8
SIZE
  6
CONTINUOUS
 62
    30
 10
-210.116783
 20
-88.927160999999984
 30
0.0
 40
64.0
  1
8
 50
90.0
 41
0.9
 72
     1
 11
-210.116783
 21
-69.727160999999995
 31
0.0
  0
LINE
  5
E2
  8
SIZE
  6
CONTINUOUS
 62
    30
 10
-188.276645
 20
0.0
 30
0.0
 11
-188.276645
 21
-8.0
 31
0.0
  0
LINE
  5
E3
  8
SIZE
  6
CONTINUOUS
 62
    30
 10
-188.276645
 20
0.0
 30
0.0
 11
-188.276645
 21
-8.0
 31
0.0
  0
CIRCLE
  5
E4
  8
SIZE
  6
CONTINUOUS
 62
    30
 10
-188.276645
 20
0.0
 30
0.0
 40
6.0
  0
LINE
  5
E5
  8
SIZE
  6
CONTINUOUS
 62
    30
 10
-188.276645
 20
0.0
 30
0.0
 11
-188.276645
 21
12.0
 31
0.0
  0
CIRCLE
  5
E6
  8
SIZE
  6
CONTINUOUS
 62
    30
 10
-188.276645
 20
-8.0
 30
0.0
 40
6.0
  0
LINE
  5
E7
  8
SIZE
  6
CONTINUOUS
 62
    30
 10
-188.276645
 20
-8.0
 30
0.0
 11
-188.276645
 21
-20.0
 31
0.0
  0
POINT
  5
E8
  8
DEFPOINTS
  6
CONTINUOUS
 62
    30
 10
-96.0
 20
0.0
 30
0.0
  0
POINT
  5
E9
  8
DEFPOINTS
  6
CONTINUOUS
 62
    30
 10
-96.0
 20
-8.0
 30
0.0
  0
POINT
  5
EA
  8
DEFPOINTS
  6
CONTINUOUS
 62
    30
 10
-188.276645
 20
-8.0
 30
0.0
  0
LINE
  5
EB
  8
SIZE
  6
CONTINUOUS
 62
    30
 10
48.5
 20
34.5
 30
0.0
 11
48.5
 21
125.58483
 31
0.0
  0
LINE
  5
EC
  8
SIZE
  6
CONTINUOUS
 62
    30
 10
-48.5
 20
34.5
 30
0.0
 11
-48.5
 21
125.58483
 31
0.0
  0
LINE
  5
ED
  8
SIZE
  6
CONTINUOUS
 62
    30
 10
60.5
 20
105.58483
 30
0.0
 11
72.5
 21
105.58483
 31
0.0
  0
LINE
  5
EE
  8
SIZE
  6
CONTINUOUS
 62
    30
 10
-60.5
 20
105.58483
 30
0.0
 11
-72.5
 21
105.58483
 31
0.0
  0
LINE
  5
EF
  8
SIZE
  6
CONTINUOUS
 62
    30
 10
48.5
 20
105.58483
 30
0.0
 11
-48.5
 21
105.58483
 31
0.0
  0
CIRCLE
  5
F0
  8
SIZE
  6
CONTINUOUS
 62
    30
 10
48.5
 20
105.58483
 30
0.0
 40
6.0
  0
LINE
  5
F1
  8
SIZE
  6
CONTINUOUS
 62
    30
 10
48.5
 20
105.58483
 30
0.0
 11
60.5
 21
105.58483
 31
0.0
  0
CIRCLE
  5
F2
  8
SIZE
  6
CONTINUOUS
 62
    30
 10
-48.5
 20
105.58483
 30
0.0
 40
6.0
  0
LINE
  5
F3
  8
SIZE
  6
CONTINUOUS
 62
    30
 10
-48.5
 20
105.58483
 30
0.0
 11
-60.5
 21
105.58483
 31
0.0
  0
TEXT
  5
F4
  8
SIZE
  6
CONTINUOUS
 62
    30
 10
-86.948571428571427
 20
130.58483000000001
 30
0.0
 40
64.0
  1
φ97
 41
0.9
 72
     1
 11
0.0
 21
130.58483000000001
 31
0.0
  0
POINT
  5
F5
  8
DEFPOINTS
  6
CONTINUOUS
 62
    30
 10
48.5
 20
14.5
 30
0.0
  0
POINT
  5
F6
  8
DEFPOINTS
  6
CONTINUOUS
 62
    30
 10
-48.5
 20
14.5
 30
0.0
  0
POINT
  5
F7
  8
DEFPOINTS
  6
CONTINUOUS
 62
    30
 10
-48.5
 20
105.58483
 30
0.0
  0
LINE
  5
F8
  8
DETAIL
  6
CONTINUOUS
 62
     5
 10
-98.0
 20
-8.0
 30
0.0
 11
-98.0
 21
0.0
 31
0.0
  0
LINE
  5
F9
  8
SIZE
  6
CONTINUOUS
 62
    30
 10
98.0
 20
20.0
 30
0.0
 11
98.0
 21
244.64004700000001
 31
0.0
  0
LINE
  5
FA
  8
SIZE
  6
CONTINUOUS
 62
    30
 10
-98.0
 20
20.0
 30
0.0
 11
-98.0
 21
244.64004700000001
 31
0.0
  0
LINE
  5
FB
  8
SIZE
  6
CONTINUOUS
 62
    30
 10
86.0
 20
224.64004700000001
 30
0.0
 11
-86.0
 21
224.64004700000001
 31
0.0
  0
CIRCLE
  5
FC
  8
SIZE
  6
CONTINUOUS
 62
    30
 10
98.0
 20
224.64004700000001
 30
0.0
 40
6.0
  0
LINE
  5
FD
  8
SIZE
  6
CONTINUOUS
 62
    30
 10
98.0
 20
224.64004700000001
 30
0.0
 11
86.0
 21
224.64004700000001
 31
0.0
  0
CIRCLE
  5
FE
  8
SIZE
  6
CONTINUOUS
 62
    30
 10
-98.0
 20
224.64004700000001
 30
0.0
 40
6.0
  0
LINE
  5
FF
  8
SIZE
  6
CONTINUOUS
 62
    30
 10
-98.0
 20
224.64004700000001
 30
0.0
 11
-86.0
 21
224.64004700000001
 31
0.0
  0
TEXT
  5
100
  8
SIZE
  6
CONTINUOUS
 62
    30
 10
-67.200000000000003
 20
249.64004700000001
 30
0.0
 40
64.0
  1
196
 41
0.9
 72
     1
 11
0.0
 21
249.64004700000001
 31
0.0
  0
POINT
  5
101
  8
DEFPOINTS
  6
CONTINUOUS
 62
    30
 10
98.0
 20
0.0
 30
0.0
  0
POINT
  5
102
  8
DEFPOINTS
  6
CONTINUOUS
 62
    30
 10
-98.0
 20
0.0
 30
0.0
  0
POINT
  5
103
  8
DEFPOINTS
  6
CONTINUOUS
 62
    30
 10
-98.0
 20
224.64004700000001
 30
0.0
  0
LINE
  5
104
  8
SIZE
  6
CONTINUOUS
 62
    30
 10
103.0
 20
20.0
 30
0.0
 11
103.0
 21
358.40391799999998
 31
0.0
  0
LINE
  5
105
  8
SIZE
  6
CONTINUOUS
 62
    30
 10
-103.0
 20
20.0
 30
0.0
 11
-103.0
 21
358.40391799999998
 31
0.0
  0
LINE
  5
106
  8
SIZE
  6
CONTINUOUS
 62
    30
 10
91.0
 20
338.40391799999998
 30
0.0
 11
-91.0
 21
338.40391799999998
 31
0.0
  0
CIRCLE
  5
107
  8
SIZE
  6
CONTINUOUS
 62
    30
 10
103.0
 20
338.40391799999998
 30
0.0
 40
6.0
  0
LINE
  5
108
  8
SIZE
  6
CONTINUOUS
 62
    30
 10
103.0
 20
338.40391799999998
 30
0.0
 11
91.0
 21
338.40391799999998
 31
0.0
  0
CIRCLE
  5
109
  8
SIZE
  6
CONTINUOUS
 62
    30
 10
-103.0
 20
338.40391799999998
 30
0.0
 40
6.0
  0
LINE
  5
10A
  8
SIZE
  6
CONTINUOUS
 62
    30
 10
-103.0
 20
338.40391799999998
 30
0.0
 11
-91.0
 21
338.40391799999998
 31
0.0
  0
TEXT
  5
10B
  8
SIZE
  6
CONTINUOUS
 62
    30
 10
-72.685714285714283
 20
363.40391799999998
 30
0.0
 40
64.0
  1
206
 41
0.9
 72
     1
 11
0.0
 21
363.40391799999998
 31
0.0
  0
POINT
  5
10C
  8
DEFPOINTS
  6
CONTINUOUS
 62
    30
 10
103.0
 20
0.0
 30
0.0
  0
POINT
  5
10D
  8
DEFPOINTS
  6
CONTINUOUS
 62
    30
 10
-103.0
 20
0.0
 30
0.0
  0
POINT
  5
10E
  8
DEFPOINTS
  6
CONTINUOUS
 62
    30
 10
-103.0
 20
338.40391799999998
 30
0.0
  0
LINE
  5
10F
  8
OUTLINE
  6
CONTINUOUS
 62
     3
 10
-103.0
 20
0.0
 30
0.0
 11
103.0
 21
0.0
 31
0.0
  0
LINE
  5
110
  8
OUTLINE
  6
CONTINUOUS
 62
     3
 10
-98.0
 20
-8.0
 30
0.0
 11
98.0
 21
-8.0
 31
0.0
  0
LINE
  5
111
  8
OUTLINE
  6
CONTINUOUS
 62
     3
 10
-10.0
 20
-85.0
 30
0.0
 11
10.0
 21
-85.0
 31
0.0
  0
ARC
  5
112
  8
OUTLINE
  6
CONTINUOUS
 62
     3
 10
7.4071149999999992
 20
103.629598
 30
0.0
 40
189.43107699999999
 50
253.47221400000001
 51
264.72756399999997
  0
ARC
  5
113
  8
OUTLINE
  6
CONTINUOUS
 62
     3
 10
66.025593000000001
 20
37.379798000000001
 30
0.0
 40
162.27673999999999
 50
198.91402199999999
 51
223.94520600000001
  0
LINE
  5
114
  8
OUTLINE
  6
CONTINUOUS
 62
     3
 10
-98.0
 20
-8.0
 30
0.0
 11
-98.0
 21
0.0
 31
0.0
  0
LINE
  5
115
  8
OUTLINE
  6
CONTINUOUS
 62
     3
 10
-103.0
 20
0.0
 30
0.0
 11
-103.0
 21
-3.0
 31
0.0
  0
LINE
  5
116
  8
OUTLINE
  6
CONTINUOUS
 62
     3
 10
-103.0
 20
-3.0
 30
0.0
 11
-94.442184999999995
 21
-12.339556
 31
0.0
  0
ARC
  5
117
  8
OUTLINE
  6
CONTINUOUS
 62
     3
 10
-74.267837999999983
 20
9.8639520000000012
 30
0.0
 40
30.0
 50
227.74137500000001
 51
245.48894100000001
  0
LINE
  5
118
  8
OUTLINE
  6
CONTINUOUS
 62
     3
 10
-88.0
 20
-12.066827
 30
0.0
 11
-88.0
 21
-8.0
 31
0.0
  0
ARC
  5
119
  8
OUTLINE
  6
CONTINUOUS
 62
     3
 10
-78.0
 20
-12.066827
 30
0.0
 40
10.0
 50
180.0
 51
198.39226199999999
  0
ARC
  5
11A
  8
OUTLINE
  6
CONTINUOUS
 62
     3
 10
-43.482436999999997
 20
-68.435106999999988
 30
0.0
 40
10.0
 50
222.846023
 51
252.54324800000001
  0
ARC
  5
11C
  8
OUTLINE
  6
CONTINUOUS
 62
     3
 10
-66.025593000000001
 20
37.379798000000001
 30
0.0
 40
162.27673999999999
 50
316.05479400000002
 51
341.08597800000001
  0
ARC
  5
11D
  8
OUTLINE
  6
CONTINUOUS
 62
     3
 10
43.482436999999997
 20
-68.435106999999988
 30
0.0
 40
10.0
 50
287.45675199999999
 51
317.153977
  0
LINE
  5
11E
  8
OUTLINE
  6
CONTINUOUS
 62
     3
 10
103.0
 20
-3.0
 30
0.0
 11
94.442184999999995
 21
-12.339556
 31
0.0
  0
LINE
  5
11F
  8
OUTLINE
  6
CONTINUOUS
 62
     3
 10
98.0
 20
-8.0
 30
0.0
 11
98.0
 21
0.0
 31
0.0
  0
LINE
  5
120
  8
OUTLINE
  6
CONTINUOUS
 62
     3
 10
103.0
 20
0.0
 30
0.0
 11
103.0
 21
-3.0
 31
0.0
  0
ARC
  5
121
  8
OUTLINE
  6
CONTINUOUS
 62
     3
 10
74.267837999999983
 20
9.8639520000000012
 30
0.0
 40
30.0
 50
294.51105899999999
 51
312.25862499999999
  0
LINE
  5
122
  8
OUTLINE
  6
CONTINUOUS
 62
     3
 10
88.0
 20
-12.066827
 30
0.0
 11
88.0
 21
-8.0
 31
0.0
  0
ARC
  5
123
  8
OUTLINE
  6
CONTINUOUS
 62
     3
 10
78.0
 20
-12.066827
 30
0.0
 40
10.0
 50
341.60773799999998
 51
0.0
  0
LINE
  5
124
  8
NOTE
  6
CONTINUOUS
 62
     4
 10
-765.82698800000003
 20
115.0
 30
0.0
 11
-234.23648499999999
 21
115.0
 31
0.0
  0
TEXT
  5
125
  8
NOTE
  6
CONTINUOUS
 62
     4
 10
-753.34571399999993
 20
146.651172
 30
0.0
 40
64.0
  1
4×φ5.5取付穴
 41
0.9
  0
CIRCLE
  5
126
  8
FIX
  6
CONTINUOUS
 62
    11
 10
-64.0
 20
0.0
 30
0.0
 40
2.75
  0
CIRCLE
  5
127
  8
FIX
  6
CONTINUOUS
 62
    11
 10
-93.0
 20
0.0
 30
0.0
 40
2.75
  0
CIRCLE
  5
128
  8
FIX
  6
CONTINUOUS
 62
    11
 10
93.0
 20
0.0
 30
0.0
 40
2.75
  0
CIRCLE
  5
129
  8
FIX
  6
CONTINUOUS
 62
    11
 10
64.0
 20
0.0
 30
0.0
 40
2.75
  0
LINE
  5
12A
  8
SIZE
  6
CONTINUOUS
 62
    30
 10
64.0
 20
-40.0
 30
0.0
 11
64.0
 21
-260.59106000000003
 31
0.0
  0
LINE
  5
12B
  8
SIZE
  6
CONTINUOUS
 62
    30
 10
-64.0
 20
-40.0
 30
0.0
 11
-64.0
 21
-260.59106000000003
 31
0.0
  0
LINE
  5
12C
  8
SIZE
  6
CONTINUOUS
 62
    30
 10
52.0
 20
-240.59106
 30
0.0
 11
-52.0
 21
-240.59106
 31
0.0
  0
LINE
  5
12D
  8
SIZE
  6
CONTINUOUS
 62
    30
 10
-283.19790499999999
 20
-240.59106
 30
0.0
 11
-64.0
 21
-240.59106
 31
0.0
  0
TEXT
  5
12E
  8
SIZE
  6
CONTINUOUS
 62
    30
 10
-258.19790457142858
 20
-215.59106
 30
0.0
 40
64.0
  1
128
 41
0.9
 72
     1
 11
-189.626476
 21
-215.59106
 31
0.0
  0
CIRCLE
  5
12F
  8
SIZE
  6
CONTINUOUS
 62
    30
 10
64.0
 20
-240.59106
 30
0.0
 40
6.0
  0
LINE
  5
130
  8
SIZE
  6
CONTINUOUS
 62
    30
 10
64.0
 20
-240.59106
 30
0.0
 11
52.0
 21
-240.59106
 31
0.0
  0
CIRCLE
  5
131
  8
SIZE
  6
CONTINUOUS
 62
    30
 10
-64.0
 20
-240.59106
 30
0.0
 40
6.0
  0
LINE
  5
132
  8
SIZE
  6
CONTINUOUS
 62
    30
 10
-64.0
 20
-240.59106
 30
0.0
 11
-52.0
 21
-240.59106
 31
0.0
  0
POINT
  5
133
  8
DEFPOINTS
  6
CONTINUOUS
 62
    30
 10
64.0
 20
-20.0
 30
0.0
  0
POINT
  5
134
  8
DEFPOINTS
  6
CONTINUOUS
 62
    30
 10
-64.0
 20
-20.0
 30
0.0
  0
POINT
  5
135
  8
DEFPOINTS
  6
CONTINUOUS
 62
    30
 10
-64.0
 20
-240.59106
 30
0.0
  0
LINE
  5
136
  8
SIZE
  6
CONTINUOUS
 62
    30
 10
93.0
 20
-40.0
 30
0.0
 11
93.0
 21
-393.82472200000001
 31
0.0
  0
LINE
  5
137
  8
SIZE
  6
CONTINUOUS
 62
    30
 10
-93.0
 20
-40.0
 30
0.0
 11
-93.0
 21
-393.82472200000001
 31
0.0
  0
LINE
  5
138
  8
SIZE
  6
CONTINUOUS
 62
    30
 10
81.0
 20
-373.82472200000001
 30
0.0
 11
-81.0
 21
-373.82472200000001
 31
0.0
  0
CIRCLE
  5
139
  8
SIZE
  6
CONTINUOUS
 62
    30
 10
93.0
 20
-373.82472200000001
 30
0.0
 40
6.0
  0
LINE
  5
13A
  8
SIZE
  6
CONTINUOUS
 62
    30
 10
93.0
 20
-373.82472200000001
 30
0.0
 11
81.0
 21
-373.82472200000001
 31
0.0
  0
CIRCLE
  5
13B
  8
SIZE
  6
CONTINUOUS
 62
    30
 10
-93.0
 20
-373.82472200000001
 30
0.0
 40
6.0
  0
LINE
  5
13C
  8
SIZE
  6
CONTINUOUS
 62
    30
 10
-93.0
 20
-373.82472200000001
 30
0.0
 11
-81.0
 21
-373.82472200000001
 31
0.0
  0
TEXT
  5
13D
  8
SIZE
  6
CONTINUOUS
 62
    30
 10
-67.200000000000003
 20
-348.82472200000001
 30
0.0
 40
64.0
  1
186
 41
0.9
 72
     1
 11
0.0
 21
-348.82472200000001
 31
0.0
  0
POINT
  5
13E
  8
DEFPOINTS
  6
CONTINUOUS
 62
    30
 10
93.0
 20
-20.0
 30
0.0
  0
POINT
  5
13F
  8
DEFPOINTS
  6
CONTINUOUS
 62
    30
 10
-93.0
 20
-20.0
 30
0.0
  0
POINT
  5
140
  8
DEFPOINTS
  6
CONTINUOUS
 62
    30
 10
-93.0
 20
-373.82472200000001
 30
0.0
  0
LINE
  5
141
  8
DETAIL
  6
CONTINUOUS
 62
     5
 10
47.0
 20
17.0
 30
0.0
 11
-47.0
 21
17.0
 31
0.0
  0
LINE
  5
142
  8
OUTLINE
  6
CONTINUOUS
 62
     3
 10
47.0
 20
17.0
 30
0.0
 11
-47.0
 21
17.0
 31
0.0
  0
LINE
  5
143
  8
DETAIL
  6
CONTINUOUS
 62
     5
 10
48.5
 20
15.0
 30
0.0
 11
-48.5
 21
15.0
 31
0.0
  0
LINE
  5
144
  8
DETAIL
  6
CONTINUOUS
 62
     5
 10
-48.5
 20
0.0
 30
0.0
 11
-48.5
 21
15.5
 31
0.0
  0
LINE
  5
145
  8
DETAIL
  6
CONTINUOUS
 62
     5
 10
-48.5
 20
0.0
 30
0.0
 11
-48.5
 21
6.0
 31
0.0
  0
ARC
  5
146
  8
DETAIL
  6
CONTINUOUS
 62
     5
 10
-47.0
 20
15.5
 30
0.0
 40
1.5
 50
90.0
 51
180.0
  0
LINE
  5
147
  8
OUTLINE
  6
CONTINUOUS
 62
     3
 10
-48.5
 20
0.0
 30
0.0
 11
-48.5
 21
15.5
 31
0.0
  0
ARC
  5
148
  8
OUTLINE
  6
CONTINUOUS
 62
     3
 10
-47.0
 20
15.5
 30
0.0
 40
1.5
 50
90.0
 51
180.0
  0
LINE
  5
149
  8
DETAIL
  6
CONTINUOUS
 62
     5
 10
48.5
 20
0.0
 30
0.0
 11
48.5
 21
15.5
 31
0.0
  0
LINE
  5
14A
  8
OUTLINE
  6
CONTINUOUS
 62
     3
 10
48.5
 20
0.0
 30
0.0
 11
48.5
 21
15.5
 31
0.0
  0
ARC
  5
14B
  8
DETAIL
  6
CONTINUOUS
 62
     5
 10
47.0
 20
15.5
 30
0.0
 40
1.5
 50
0.0
 51
90.0
  0
ARC
  5
14C
  8
OUTLINE
  6
CONTINUOUS
 62
     3
 10
47.0
 20
15.5
 30
0.0
 40
1.5
 50
0.0
 51
90.0
  0
TEXT
  5
14D
  8
ETC
  6
CONTINUOUS
 62
    61
 10
286.14636100000001
 20
453.74179199999998
 30
0.0
 40
40.0
  1
P-13VAM3_1
 41
0.9
  0
LINE
  5
14F
  8
SIZE
  6
CONTINUOUS
 62
    30
 39
50.0
 10
-188.276645
 20
-32.0
 30
0.0
 11
-188.276645
 21
-105.78917800000001
 31
0.0
  0
ARC
  5
156
  8
OUTLINE
  6
CONTINUOUS
 62
     3
 10
-7.4071149999999992
 20
103.629598
 30
0.0
 40
189.43107699999999
 50
275.27243600000003
 51
286.52778599999999
  0
TEXT
  5
173
  8
ETC
  6
CONTINUOUS
 62
    61
 10
278.89781803999813
 20
391.50909317129879
 30
0.0
 40
40.0
  1
システム部材
 41
0.9
  0
TEXT
  5
174
  8
ETC
  6
CONTINUOUS
 62
    61
 10
324.52032312635629
 20
330.83098718744458
 30
0.0
 40
40.0
  1
P-13VAM3
 41
0.9
  0
TEXT
  5
175
  8
ETC
  6
CONTINUOUS
 62
    61
 10
324.52032312635629
 20
264.83098718744458
 30
0.0
 40
40.0
  1
P-13VADM3
 41
0.9
  0
ENDSEC
  0
EOF
