  0
SECTION
  2
HEADER
  9
$ACADVER
  1
AC1009
  9
$INSBASE
 10
0.0
 20
0.0
 30
0.0
  9
$EXTMIN
 10
-619.50529349211865
 20
-425.21666307609661
 30
-0.0030518556252446
  9
$EXTMAX
 10
643.97736707932381
 20
578.70484199224109
 30
50.003052088470113
  9
$LIMMIN
 10
-2970.0
 20
-2100.0
  9
$LIMMAX
 10
2970.0
 20
2100.0
  9
$ORTHOMODE
 70
     1
  9
$REGENMODE
 70
     1
  9
$FILLMODE
 70
     1
  9
$QTEXTMODE
 70
     0
  9
$MIRRTEXT
 70
     0
  9
$DRAGMODE
 70
     2
  9
$LTSCALE
 40
20.0
  9
$OSMODE
 70
    37
  9
$ATTMODE
 70
     1
  9
$TEXTSIZE
 40
64.0
  9
$TRACEWID
 40
0.05
  9
$TEXTSTYLE
  7
STANDARD
  9
$CLAYER
  8
SIZE
  9
$CELTYPE
  6
CONTINUOUS
  9
$CECOLOR
 62
    30
  9
$DIMSCALE
 40
1.0
  9
$DIMASZ
 40
12.0
  9
$DIMEXO
 40
20.0
  9
$DIMDLI
 40
200.0
  9
$DIMRND
 40
0.0
  9
$DIMDLE
 40
0.0
  9
$DIMEXE
 40
20.0
  9
$DIMTP
 40
0.0
  9
$DIMTM
 40
0.0
  9
$DIMTXT
 40
64.0
  9
$DIMCEN
 40
0.09
  9
$DIMTSZ
 40
0.0
  9
$DIMTOL
 70
     0
  9
$DIMLIM
 70
     0
  9
$DIMTIH
 70
     0
  9
$DIMTOH
 70
     0
  9
$DIMSE1
 70
     0
  9
$DIMSE2
 70
     0
  9
$DIMTAD
 70
     1
  9
$DIMZIN
 70
     8
  9
$DIMBLK
  1
DOT1
  9
$DIMASO
 70
     1
  9
$DIMSHO
 70
     0
  9
$DIMPOST
  1

  9
$DIMAPOST
  1

  9
$DIMALT
 70
     0
  9
$DIMALTD
 70
     2
  9
$DIMALTF
 40
25.399999999999999
  9
$DIMLFAC
 40
1.0
  9
$DIMTOFL
 70
     1
  9
$DIMTVP
 40
0.0
  9
$DIMTIX
 70
     1
  9
$DIMSOXD
 70
     0
  9
$DIMSAH
 70
     1
  9
$DIMBLK1
  1
ORIGIN
  9
$DIMBLK2
  1
ORIGIN
  9
$DIMSTYLE
  2
STANDARD
  9
$DIMCLRD
 70
     7
  9
$DIMCLRE
 70
     7
  9
$DIMCLRT
 70
     7
  9
$DIMTFAC
 40
1.0
  9
$DIMGAP
 40
25.0
  9
$LUNITS
 70
     2
  9
$LUPREC
 70
     4
  9
$SKETCHINC
 40
0.1
  9
$FILLETRAD
 40
4.0
  9
$AUNITS
 70
     1
  9
$AUPREC
 70
     3
  9
$MENU
  1
ACAD
  9
$ELEVATION
 40
0.0
  9
$PELEVATION
 40
0.0
  9
$THICKNESS
 40
50.0
  9
$LIMCHECK
 70
     0
  9
$BLIPMODE
 70
     0
  9
$CHAMFERA
 40
0.0
  9
$CHAMFERB
 40
0.0
  9
$SKPOLY
 70
     0
  9
$TDCREATE
 40
2453070.5478962269
  9
$TDUPDATE
 40
2454810.6194205098
  9
$TDINDWG
 40
0.0066154861
  9
$TDUSRTIMER
 40
0.0066154861
  9
$USRTIMER
 70
     1
  9
$ANGBASE
 50
0.0
  9
$ANGDIR
 70
     0
  9
$PDMODE
 70
     3
  9
$PDSIZE
 40
-2.0
  9
$PLINEWID
 40
0.0
  9
$COORDS
 70
     0
  9
$SPLFRAME
 70
     0
  9
$SPLINETYPE
 70
     6
  9
$SPLINESEGS
 70
     8
  9
$ATTDIA
 70
     0
  9
$ATTREQ
 70
     1
  9
$HANDLING
 70
     1
  9
$HANDSEED
  5
1AD
  9
$SURFTAB1
 70
     6
  9
$SURFTAB2
 70
     6
  9
$SURFTYPE
 70
     6
  9
$SURFU
 70
     6
  9
$SURFV
 70
     6
  9
$UCSNAME
  2

  9
$UCSORG
 10
0.0
 20
0.0
 30
0.0
  9
$UCSXDIR
 10
1.0
 20
0.0
 30
0.0
  9
$UCSYDIR
 10
0.0
 20
1.0
 30
0.0
  9
$PUCSNAME
  2

  9
$PUCSORG
 10
0.0
 20
0.0
 30
0.0
  9
$PUCSXDIR
 10
1.0
 20
0.0
 30
0.0
  9
$PUCSYDIR
 10
0.0
 20
1.0
 30
0.0
  9
$USERI1
 70
     0
  9
$USERI2
 70
     0
  9
$USERI3
 70
     0
  9
$USERI4
 70
     0
  9
$USERI5
 70
     0
  9
$USERR1
 40
20.0
  9
$USERR2
 40
0.0
  9
$USERR3
 40
0.0
  9
$USERR4
 40
0.0
  9
$USERR5
 40
0.0
  9
$WORLDVIEW
 70
     1
  9
$SHADEDGE
 70
     3
  9
$SHADEDIF
 70
    70
  9
$TILEMODE
 70
     1
  9
$MAXACTVP
 70
    48
  9
$PLIMCHECK
 70
     0
  9
$PEXTMIN
 10
-1.0000000000000000E+020
 20
-1.0000000000000000E+020
 30
-1.0000000000000000E+020
  9
$PEXTMAX
 10
1.0000000000000000E+020
 20
1.0000000000000000E+020
 30
1.0000000000000000E+020
  9
$PLIMMIN
 10
0.0
 20
0.0
  9
$PLIMMAX
 10
12.0
 20
9.0
  9
$UNITMODE
 70
     0
  9
$VISRETAIN
 70
     0
  9
$PLINEGEN
 70
     0
  9
$PSLTSCALE
 70
     0
  0
ENDSEC
  0
SECTION
  2
TABLES
  0
TABLE
  2
VPORT
 70
     1
  0
VPORT
  2
*ACTIVE
 70
     0
 10
0.0
 20
0.0
 11
1.0
 21
1.0
 12
60.122689081230192
 22
50.275482624547521
 13
0.0
 23
0.0
 14
1.0
 24
1.0
 15
0.0
 25
0.0
 16
0.0
 26
0.0
 36
1.0
 17
0.0
 27
0.0
 37
0.0
 40
1136.327608545568
 41
1.350591715976331
 42
50.0
 43
0.0
 44
0.0
 50
0.0
 51
0.0
 71
     0
 72
  1000
 73
     1
 74
     0
 75
     0
 76
     0
 77
     0
 78
     0
  0
ENDTAB
  0
TABLE
  2
LTYPE
 70
     3
  0
LTYPE
  2
CONTINUOUS
 70
     0
  3
実線
 72
    65
 73
     0
 40
0.0
  0
LTYPE
  2
DASHDOT
 70
     0
  3
____ _ ____ _ ____ _ ____ _ ____ _ ____ _ ____
 72
    65
 73
     4
 40
5.5
 49
4.0
 49
-0.6
 49
0.3
 49
-0.6
  0
ENDTAB
  0
TABLE
  2
LAYER
 70
    12
  0
LAYER
  2
0
 70
     0
 62
     7
  6
CONTINUOUS
  0
LAYER
  2
SIZE
 70
     0
 62
    30
  6
CONTINUOUS
  0
LAYER
  2
BASIS
 70
     0
 62
     6
  6
DASHDOT
  0
LAYER
  2
OUTLINE
 70
     0
 62
     3
  6
CONTINUOUS
  0
LAYER
  2
DETAIL
 70
     0
 62
     5
  6
CONTINUOUS
  0
LAYER
  2
ARRANGE
 70
     0
 62
     1
  6
CONTINUOUS
  0
LAYER
  2
DEFPOINTS
 70
     0
 62
     7
  6
CONTINUOUS
  0
LAYER
  2
ETC
 70
     0
 62
    61
  6
CONTINUOUS
  0
LAYER
  2
FIX
 70
     0
 62
    11
  6
CONTINUOUS
  0
LAYER
  2
NOTE
 70
     0
 62
     4
  6
CONTINUOUS
  0
LAYER
  2
SERVICESPACE
 70
     0
 62
     2
  6
DASHDOT
  0
LAYER
  2
SYMBOLLINE
 70
     0
 62
    15
  6
CONTINUOUS
  0
ENDTAB
  0
TABLE
  2
STYLE
 70
     2
  0
STYLE
  2
STANDARD
 70
     0
 40
64.0
 41
0.9
 50
0.0
 71
     0
 42
64.0
  3
SIMPLEX.shx
  4
BIGFONT.shx
  0
STYLE
  2
ANNOTATIVE
 70
     0
 40
0.0
 41
1.0
 50
0.0
 71
     0
 42
0.2
  3
txt
  4

  0
ENDTAB
  0
TABLE
  2
VIEW
 70
     2
  0
VIEW
  2
ALL
 70
     0
 40
4282.6198079999986
 10
0.0
 20
41.309903999999989
 41
5940.0
 11
0.0
 21
0.0
 31
1.0
 12
0.0
 22
0.0
 32
0.0
 42
50.0
 43
0.0
 44
0.0
 50
0.0
 71
     0
  0
ENDTAB
  0
TABLE
  2
UCS
 70
     0
  0
ENDTAB
  0
TABLE
  2
APPID
 70
     5
  0
APPID
  2
ACAD
 70
     0
  0
APPID
  2
ACADANNOTATIVE
 70
     0
  0
APPID
  2
ACAD_MLEADERVER
 70
     0
  0
APPID
  2
AUTOCAD_POSTSCRIPT_FIGURE
 70
     0
  0
APPID
  2
ACAD_EXEMPT_FROM_CAD_STANDARDS
 70
     0
  0
ENDTAB
  0
TABLE
  2
DIMSTYLE
 70
     2
  0
DIMSTYLE
  2
STANDARD
 70
     0
  3

  4

  5

  6

  7

 40
1.0
 41
0.18
 42
0.0625
 43
0.38
 44
0.18
 45
0.0
 46
0.0
 47
0.0
 48
0.0
140
0.18
141
0.09
142
0.0
143
25.399999999999999
144
1.0
145
0.0
146
1.0
147
0.09
 71
     0
 72
     0
 73
     1
 74
     1
 75
     0
 76
     0
 77
     0
 78
     0
170
     0
171
     2
172
     0
173
     0
174
     0
175
     0
176
     7
177
     7
178
     7
  0
DIMSTYLE
  2
ANNOTATIVE
 70
     0
  3

  4

  5

  6

  7

 40
1.0
 41
0.18
 42
0.0625
 43
0.38
 44
0.18
 45
0.0
 46
0.0
 47
0.0
 48
0.0
140
0.18
141
0.09
142
0.0
143
25.399999999999999
144
1.0
145
0.0
146
1.0
147
0.09
 71
     0
 72
     0
 73
     1
 74
     1
 75
     0
 76
     0
 77
     0
 78
     0
170
     0
171
     2
172
     0
173
     0
174
     0
175
     0
176
     0
177
     0
178
     0
  0
ENDTAB
  0
ENDSEC
  0
SECTION
  2
BLOCKS
  0
BLOCK
  8
0
  2
$MODEL_SPACE
 70
     0
 10
0.0
 20
0.0
 30
0.0
  3
$MODEL_SPACE
  1

  0
ENDBLK
  5
76
  8
0
  0
BLOCK
 67
     1
  8
0
  2
$PAPER_SPACE
 70
     0
 10
0.0
 20
0.0
 30
0.0
  3
$PAPER_SPACE
  1

  0
ENDBLK
  5
72
 67
     1
  8
0
  0
BLOCK
  8
0
  2
DOT1
 70
     0
 10
0.0
 20
0.0
 30
0.0
  3
DOT1
  1

  0
CIRCLE
  5
8C
  8
SIZE
  6
CONTINUOUS
 62
     7
 10
0.0
 20
0.0
 30
0.0
 40
3.0
  0
ENDBLK
  5
8D
  8
0
  0
BLOCK
  8
0
  2
_ORIGIN
 70
     0
 10
0.0
 20
0.0
 30
0.0
  3
_ORIGIN
  1

  0
CIRCLE
  5
90
  8
0
  6
CONTINUOUS
 62
     7
 10
0.0
 20
0.0
 30
0.0
 40
0.5
  0
LINE
  5
91
  8
0
  6
CONTINUOUS
 62
     7
 10
0.0
 20
0.0
 30
0.0
 11
-1.0
 21
0.0
 31
0.0
  0
ENDBLK
  5
92
  8
0
  0
ENDSEC
  0
SECTION
  2
ENTITIES
  0
ARC
  5
93
  8
DETAIL
  6
CONTINUOUS
 62
     5
 10
31.762533999999999
 20
-39.544882000000001
 30
0.0
 40
83.302965999999998
 50
281.97947199999999
 51
312.46157499999998
  0
ARC
  5
94
  8
DETAIL
  6
CONTINUOUS
 62
     5
 10
-31.762533999999999
 20
-39.544882000000001
 30
0.0
 40
83.302965999999998
 50
227.53842499999999
 51
258.0205279999999
  0
LINE
  5
95
  8
DETAIL
  6
CONTINUOUS
 62
     5
 10
-98.0
 20
-101.0
 30
0.0
 11
-103.0
 21
-101.0
 31
0.0
  0
LINE
  5
96
  8
DETAIL
  6
CONTINUOUS
 62
     5
 10
-103.0
 20
-106.637557
 30
0.0
 11
-103.0
 21
-101.0
 31
0.0
  0
LINE
  5
97
  8
DETAIL
  6
CONTINUOUS
 62
     5
 10
-103.0
 20
-106.637557
 30
0.0
 11
-93.442184999999995
 21
-116.955146
 31
0.0
  0
ARC
  5
98
  8
DETAIL
  6
CONTINUOUS
 62
     5
 10
-74.851246000000003
 20
-93.026911999999996
 30
0.0
 40
30.0
 50
231.70591899999999
 51
267.57293099999998
  0
ARC
  5
99
  8
DETAIL
  6
CONTINUOUS
 62
     5
 10
-74.851246000000003
 20
-93.409934000000007
 30
0.0
 40
30.0
 50
231.70591899999999
 51
267.57293099999998
  0
LINE
  5
9A
  8
DETAIL
  6
CONTINUOUS
 62
     5
 10
-103.0
 20
-105.471788
 30
0.0
 11
-93.442184999999995
 21
-116.572124
 31
0.0
  0
LINE
  5
9B
  8
DETAIL
  6
CONTINUOUS
 62
     5
 10
76.121677000000005
 20
-123.383022
 30
0.0
 11
-76.121677000000005
 21
-123.383022
 31
0.0
  0
LINE
  5
9C
  8
DETAIL
  6
CONTINUOUS
 62
     5
 10
76.121677000000005
 20
-123.0
 30
0.0
 11
-76.121677000000005
 21
-123.0
 31
0.0
  0
LINE
  5
9D
  8
DETAIL
  6
CONTINUOUS
 62
     5
 10
-101.996228
 20
-106.637557
 30
0.0
 11
-81.138206999999994
 21
-106.637557
 31
0.0
  0
LINE
  5
9E
  8
DETAIL
  6
CONTINUOUS
 62
     5
 10
98.0
 20
-101.0
 30
0.0
 11
103.0
 21
-101.0
 31
0.0
  0
LINE
  5
9F
  8
DETAIL
  6
CONTINUOUS
 62
     5
 10
103.0
 20
-106.637557
 30
0.0
 11
103.0
 21
-101.0
 31
0.0
  0
LINE
  5
A0
  8
DETAIL
  6
CONTINUOUS
 62
     5
 10
103.0
 20
-106.637557
 30
0.0
 11
93.442184999999995
 21
-116.955146
 31
0.0
  0
ARC
  5
A1
  8
DETAIL
  6
CONTINUOUS
 62
     5
 10
74.851246000000003
 20
-93.026911999999996
 30
0.0
 40
30.0
 50
272.42706900000002
 51
308.29408100000001
  0
ARC
  5
A2
  8
DETAIL
  6
CONTINUOUS
 62
     5
 10
74.851246000000003
 20
-93.409934000000007
 30
0.0
 40
30.0
 50
272.42706900000002
 51
308.29408100000001
  0
LINE
  5
A3
  8
DETAIL
  6
CONTINUOUS
 62
     5
 10
103.0
 20
-105.471788
 30
0.0
 11
93.442184999999995
 21
-116.572124
 31
0.0
  0
LINE
  5
A4
  8
DETAIL
  6
CONTINUOUS
 62
     5
 10
101.996228
 20
-106.637557
 30
0.0
 11
81.138206999999994
 21
-106.637557
 31
0.0
  0
LINE
  5
A5
  8
DETAIL
  6
CONTINUOUS
 62
     5
 10
-88.0
 20
-101.0
 30
0.0
 11
-98.0
 21
-101.0
 31
0.0
  0
ARC
  5
A6
  8
DETAIL
  6
CONTINUOUS
 62
     5
 10
0.0
 20
489.83538099999993
 30
0.0
 40
612.83538099999998
 50
265.40897999999999
 51
270.0
  0
LINE
  5
A7
  8
DETAIL
  6
CONTINUOUS
 62
     5
 10
-49.052999999999997
 20
-38.752049
 30
0.0
 11
-49.052999999999997
 21
-121.03367799999999
 31
0.0
  0
LINE
  5
A8
  8
DETAIL
  6
CONTINUOUS
 62
     5
 10
-88.0
 20
-60.816223000000001
 30
0.0
 11
-88.0
 21
-101.0
 31
0.0
  0
LINE
  5
A9
  8
DETAIL
  6
CONTINUOUS
 62
     5
 10
-98.0
 20
-60.816223000000001
 30
0.0
 11
-98.0
 21
-101.0
 31
0.0
  0
ARC
  5
AA
  8
DETAIL
  6
CONTINUOUS
 62
     5
 10
-51.863062999999997
 20
30.939088000000002
 30
0.0
 40
40.0
 50
105.505768
 51
172.3470879999999
  0
ARC
  5
AB
  8
DETAIL
  6
CONTINUOUS
 62
     5
 10
631.0
 20
-60.816223000000001
 30
0.0
 40
719.0
 50
172.3470879999999
 51
180.0
  0
ARC
  5
AC
  8
DETAIL
  6
CONTINUOUS
 62
     5
 10
-51.863062999999997
 20
30.939088000000002
 30
0.0
 40
30.0
 50
105.505768
 51
172.3470879999999
  0
ARC
  5
AD
  8
DETAIL
  6
CONTINUOUS
 62
     5
 10
631.0
 20
-60.816223000000001
 30
0.0
 40
729.0
 50
172.3470879999999
 51
180.0
  0
ARC
  5
AE
  8
DETAIL
  6
CONTINUOUS
 62
     5
 10
0.0
 20
-156.0
 30
0.0
 40
234.0
 50
90.0
 51
105.505768
  0
ARC
  5
AF
  8
DETAIL
  6
CONTINUOUS
 62
     5
 10
0.0
 20
-156.0
 30
0.0
 40
224.0
 50
90.0
 51
105.505768
  0
LINE
  5
B0
  8
DETAIL
  6
CONTINUOUS
 62
     5
 10
88.0
 20
-101.0
 30
0.0
 11
98.0
 21
-101.0
 31
0.0
  0
LINE
  5
B1
  8
DETAIL
  6
CONTINUOUS
 62
     5
 10
49.052999999999997
 20
-38.752049
 30
0.0
 11
49.052999999999997
 21
-121.03367799999999
 31
0.0
  0
LINE
  5
B2
  8
DETAIL
  6
CONTINUOUS
 62
     5
 10
88.0
 20
-60.816223000000001
 30
0.0
 11
88.0
 21
-101.0
 31
0.0
  0
LINE
  5
B3
  8
DETAIL
  6
CONTINUOUS
 62
     5
 10
98.0
 20
-60.816223000000001
 30
0.0
 11
98.0
 21
-101.0
 31
0.0
  0
ARC
  5
B4
  8
DETAIL
  6
CONTINUOUS
 62
     5
 10
51.863062999999997
 20
30.939088000000002
 30
0.0
 40
40.0
 50
7.6529119999999988
 51
74.494231999999997
  0
ARC
  5
B5
  8
DETAIL
  6
CONTINUOUS
 62
     5
 10
-631.0
 20
-60.816223000000001
 30
0.0
 40
719.0
 50
0.0
 51
7.6529119999999988
  0
ARC
  5
B6
  8
DETAIL
  6
CONTINUOUS
 62
     5
 10
51.863062999999997
 20
30.939088000000002
 30
0.0
 40
30.0
 50
7.6529119999999988
 51
74.494231999999997
  0
ARC
  5
B7
  8
DETAIL
  6
CONTINUOUS
 62
     5
 10
-631.0
 20
-60.816223000000001
 30
0.0
 40
729.0
 50
0.0
 51
7.6529119999999988
  0
ARC
  5
B8
  8
DETAIL
  6
CONTINUOUS
 62
     5
 10
0.0
 20
-156.0
 30
0.0
 40
234.0
 50
74.494231999999997
 51
90.0
  0
ARC
  5
B9
  8
DETAIL
  6
CONTINUOUS
 62
     5
 10
0.0
 20
-156.0
 30
0.0
 40
224.0
 50
74.494231999999997
 51
90.0
  0
ARC
  5
BA
  8
DETAIL
  6
CONTINUOUS
 62
     5
 10
0.0
 20
489.83538099999993
 30
0.0
 40
612.83538099999998
 50
270.0
 51
274.59102000000001
  0
LINE
  5
BB
  8
BASIS
  6
DASHDOT
 62
     6
 10
-132.87530899999999
 20
0.0
 30
0.0
 11
138.68741700000001
 21
0.0
 31
0.0
  0
LINE
  5
BC
  8
BASIS
  6
DASHDOT
 62
     6
 10
0.0
 20
-158.60459
 30
0.0
 11
0.0
 21
126.874979
 31
0.0
  0
LINE
  5
BD
  8
NOTE
  6
CONTINUOUS
 62
     4
 10
-64.0
 20
44.0
 30
0.0
 11
-64.0
 21
84.0
 31
0.0
  0
LINE
  5
BE
  8
NOTE
  6
CONTINUOUS
 62
     4
 10
-84.0
 20
64.0
 30
0.0
 11
-44.0
 21
64.0
 31
0.0
  0
LINE
  5
BF
  8
NOTE
  6
CONTINUOUS
 62
     4
 10
64.0
 20
44.0
 30
0.0
 11
64.0
 21
84.0
 31
0.0
  0
LINE
  5
C0
  8
NOTE
  6
CONTINUOUS
 62
     4
 10
44.0
 20
64.0
 30
0.0
 11
84.0
 21
64.0
 31
0.0
  0
LINE
  5
C1
  8
NOTE
  6
CONTINUOUS
 62
     4
 10
93.0
 20
-74.0
 30
0.0
 11
93.0
 21
-34.0
 31
0.0
  0
LINE
  5
C2
  8
NOTE
  6
CONTINUOUS
 62
     4
 10
73.0
 20
-54.0
 30
0.0
 11
113.0
 21
-54.0
 31
0.0
  0
LINE
  5
C3
  8
NOTE
  6
CONTINUOUS
 62
     4
 10
-93.0
 20
-74.0
 30
0.0
 11
-93.0
 21
-34.0
 31
0.0
  0
LINE
  5
C4
  8
NOTE
  6
CONTINUOUS
 62
     4
 10
-113.0
 20
-54.0
 30
0.0
 11
-73.0
 21
-54.0
 31
0.0
  0
LINE
  5
C5
  8
NOTE
  6
CONTINUOUS
 62
     4
 10
64.0
 20
64.0
 30
0.0
 11
105.766766
 21
153.61874299999999
 31
0.0
  0
LINE
  5
C6
  8
NOTE
  6
CONTINUOUS
 62
     4
 10
70.426187999999996
 20
103.48042700000001
 30
0.0
 11
64.0
 21
64.0
 31
0.0
  0
LINE
  5
C7
  8
NOTE
  6
CONTINUOUS
 62
     4
 10
64.0
 20
64.0
 30
0.0
 11
89.305454999999995
 21
94.977958999999984
 31
0.0
  0
POINT
  5
C8
  8
ARRANGE
  6
CONTINUOUS
 62
     1
 10
0.0
 20
0.0
 30
0.0
  0
CIRCLE
  5
C9
  8
ARRANGE
  6
CONTINUOUS
 62
     1
 10
0.0
 20
0.0
 30
0.0
 40
40.0
  0
LINE
  5
CA
  8
OUTLINE
  6
CONTINUOUS
 62
     3
 10
-98.0
 20
-101.0
 30
0.0
 11
-103.0
 21
-101.0
 31
0.0
  0
LINE
  5
CB
  8
OUTLINE
  6
CONTINUOUS
 62
     3
 10
-103.0
 20
-106.637557
 30
0.0
 11
-103.0
 21
-101.0
 31
0.0
  0
LINE
  5
CC
  8
OUTLINE
  6
CONTINUOUS
 62
     3
 10
-103.0
 20
-106.637557
 30
0.0
 11
-93.442184999999995
 21
-116.955146
 31
0.0
  0
ARC
  5
CD
  8
OUTLINE
  6
CONTINUOUS
 62
     3
 10
-74.851246000000003
 20
-93.409934000000007
 30
0.0
 40
30.0
 50
231.70591899999999
 51
267.57293099999998
  0
LINE
  5
CE
  8
OUTLINE
  6
CONTINUOUS
 62
     3
 10
76.121677000000005
 20
-123.383022
 30
0.0
 11
-76.121677000000005
 21
-123.383022
 31
0.0
  0
LINE
  5
CF
  8
OUTLINE
  6
CONTINUOUS
 62
     3
 10
98.0
 20
-101.0
 30
0.0
 11
103.0
 21
-101.0
 31
0.0
  0
LINE
  5
D0
  8
OUTLINE
  6
CONTINUOUS
 62
     3
 10
103.0
 20
-106.637557
 30
0.0
 11
103.0
 21
-101.0
 31
0.0
  0
LINE
  5
D1
  8
OUTLINE
  6
CONTINUOUS
 62
     3
 10
103.0
 20
-106.637557
 30
0.0
 11
93.442184999999995
 21
-116.955146
 31
0.0
  0
ARC
  5
D2
  8
OUTLINE
  6
CONTINUOUS
 62
     3
 10
74.851246000000003
 20
-93.409934000000007
 30
0.0
 40
30.0
 50
272.42706900000002
 51
308.29408100000001
  0
LINE
  5
D3
  8
OUTLINE
  6
CONTINUOUS
 62
     3
 10
-98.0
 20
-60.816223000000001
 30
0.0
 11
-98.0
 21
-101.0
 31
0.0
  0
ARC
  5
D4
  8
OUTLINE
  6
CONTINUOUS
 62
     3
 10
-51.863062999999997
 20
30.939088000000002
 30
0.0
 40
40.0
 50
105.505768
 51
172.3470879999999
  0
ARC
  5
D5
  8
OUTLINE
  6
CONTINUOUS
 62
     3
 10
631.0
 20
-60.816223000000001
 30
0.0
 40
729.0
 50
172.3470879999999
 51
180.0
  0
ARC
  5
D6
  8
OUTLINE
  6
CONTINUOUS
 62
     3
 10
0.0
 20
-156.0
 30
0.0
 40
234.0
 50
90.0
 51
105.505768
  0
LINE
  5
D7
  8
OUTLINE
  6
CONTINUOUS
 62
     3
 10
98.0
 20
-60.816223000000001
 30
0.0
 11
98.0
 21
-101.0
 31
0.0
  0
ARC
  5
D8
  8
OUTLINE
  6
CONTINUOUS
 62
     3
 10
51.863062999999997
 20
30.939088000000002
 30
0.0
 40
40.0
 50
7.6529119999999988
 51
74.494231999999997
  0
ARC
  5
D9
  8
OUTLINE
  6
CONTINUOUS
 62
     3
 10
-631.0
 20
-60.816223000000001
 30
0.0
 40
729.0
 50
0.0
 51
7.6529119999999988
  0
ARC
  5
DA
  8
OUTLINE
  6
CONTINUOUS
 62
     3
 10
0.0
 20
-156.0
 30
0.0
 40
234.0
 50
74.494231999999997
 51
90.0
  0
TEXT
  5
DB
  8
NOTE
  6
CONTINUOUS
 62
     4
 10
113.91686799999999
 20
177.95867200000001
 30
0.0
 40
64.0
  1
4×φ5.5取付穴
 41
0.9
  0
LINE
  5
DC
  8
NOTE
  6
CONTINUOUS
 62
     4
 10
105.766766
 20
153.61874299999999
 30
0.0
 11
643.35142699999994
 21
153.61874299999999
 31
0.0
  0
LINE
  5
DD
  8
SIZE
  6
CONTINUOUS
 62
    30
 10
20.0
 20
78.0
 30
0.0
 11
322.07145400000002
 21
78.0
 31
0.0
  0
LINE
  5
DE
  8
SIZE
  6
CONTINUOUS
 62
    30
 10
158.6874169999999
 20
0.0
 30
0.0
 11
322.07145400000002
 21
0.0
 31
0.0
  0
LINE
  5
DF
  8
SIZE
  6
CONTINUOUS
 62
    30
 10
302.07145400000002
 20
66.0
 30
0.0
 11
302.07145400000002
 21
12.0
 31
0.0
  0
LINE
  5
E0
  8
SIZE
  6
CONTINUOUS
 62
    30
 10
302.07145400000002
 20
-161.31839199999999
 30
0.0
 11
302.07145400000002
 21
0.0
 31
0.0
  0
TEXT
  5
E1
  8
SIZE
  6
CONTINUOUS
 62
    30
 10
277.07145400000002
 20
-136.3183914285714
 30
0.0
 40
64.0
  1
78
 50
90.0
 41
0.9
 72
     1
 11
277.07145400000002
 21
-89.689819999999997
 31
0.0
  0
CIRCLE
  5
E2
  8
SIZE
  6
CONTINUOUS
 62
    30
 10
302.07145400000002
 20
78.0
 30
0.0
 40
6.0
  0
LINE
  5
E3
  8
SIZE
  6
CONTINUOUS
 62
    30
 10
302.07145400000002
 20
78.0
 30
0.0
 11
302.07145400000002
 21
66.0
 31
0.0
  0
CIRCLE
  5
E4
  8
SIZE
  6
CONTINUOUS
 62
    30
 10
302.07145400000002
 20
0.0
 30
0.0
 40
6.0
  0
LINE
  5
E5
  8
SIZE
  6
CONTINUOUS
 62
    30
 10
302.07145400000002
 20
0.0
 30
0.0
 11
302.07145400000002
 21
12.0
 31
0.0
  0
POINT
  5
E6
  8
DEFPOINTS
  6
CONTINUOUS
 62
    30
 10
0.0
 20
78.0
 30
0.0
  0
POINT
  5
E7
  8
DEFPOINTS
  6
CONTINUOUS
 62
    30
 10
138.68741700000001
 20
0.0
 30
0.0
  0
POINT
  5
E8
  8
DEFPOINTS
  6
CONTINUOUS
 62
    30
 10
302.07145400000002
 20
0.0
 30
0.0
  0
LINE
  5
E9
  8
SIZE
  6
CONTINUOUS
 62
    30
 10
98.0
 20
-121.0
 30
0.0
 11
98.0
 21
-307.29366499999998
 31
0.0
  0
LINE
  5
EA
  8
SIZE
  6
CONTINUOUS
 62
    30
 10
-98.0
 20
-121.0
 30
0.0
 11
-98.0
 21
-307.29366499999998
 31
0.0
  0
LINE
  5
EB
  8
SIZE
  6
CONTINUOUS
 62
    30
 10
86.0
 20
-287.29366499999998
 30
0.0
 11
-86.0
 21
-287.29366499999998
 31
0.0
  0
CIRCLE
  5
EC
  8
SIZE
  6
CONTINUOUS
 62
    30
 10
98.0
 20
-287.29366499999998
 30
0.0
 40
6.0
  0
LINE
  5
ED
  8
SIZE
  6
CONTINUOUS
 62
    30
 10
98.0
 20
-287.29366499999998
 30
0.0
 11
86.0
 21
-287.29366499999998
 31
0.0
  0
CIRCLE
  5
EE
  8
SIZE
  6
CONTINUOUS
 62
    30
 10
-98.0
 20
-287.29366499999998
 30
0.0
 40
6.0
  0
LINE
  5
EF
  8
SIZE
  6
CONTINUOUS
 62
    30
 10
-98.0
 20
-287.29366499999998
 30
0.0
 11
-86.0
 21
-287.29366499999998
 31
0.0
  0
TEXT
  5
F0
  8
SIZE
  6
CONTINUOUS
 62
    30
 10
-67.200000000000003
 20
-262.29366499999998
 30
0.0
 40
64.0
  1
196
 41
0.9
 72
     1
 11
0.0
 21
-262.29366499999998
 31
0.0
  0
POINT
  5
F1
  8
DEFPOINTS
  6
CONTINUOUS
 62
    30
 10
98.0
 20
-101.0
 30
0.0
  0
POINT
  5
F2
  8
DEFPOINTS
  6
CONTINUOUS
 62
    30
 10
-98.0
 20
-101.0
 30
0.0
  0
POINT
  5
F3
  8
DEFPOINTS
  6
CONTINUOUS
 62
    30
 10
-98.0
 20
-287.29366499999998
 30
0.0
  0
LINE
  5
F4
  8
SIZE
  6
CONTINUOUS
 62
    30
 10
103.0
 20
-125.471788
 30
0.0
 11
103.0
 21
-424.92827999999992
 31
0.0
  0
LINE
  5
F5
  8
SIZE
  6
CONTINUOUS
 62
    30
 10
-103.0
 20
-126.637557
 30
0.0
 11
-103.0
 21
-424.92827999999992
 31
0.0
  0
LINE
  5
F6
  8
SIZE
  6
CONTINUOUS
 62
    30
 10
91.0
 20
-404.92827999999992
 30
0.0
 11
-91.0
 21
-404.92827999999992
 31
0.0
  0
CIRCLE
  5
F7
  8
SIZE
  6
CONTINUOUS
 62
    30
 10
103.0
 20
-404.92827999999992
 30
0.0
 40
6.0
  0
LINE
  5
F8
  8
SIZE
  6
CONTINUOUS
 62
    30
 10
103.0
 20
-404.92827999999992
 30
0.0
 11
91.0
 21
-404.92827999999992
 31
0.0
  0
CIRCLE
  5
F9
  8
SIZE
  6
CONTINUOUS
 62
    30
 10
-103.0
 20
-404.92827999999992
 30
0.0
 40
6.0
  0
LINE
  5
FA
  8
SIZE
  6
CONTINUOUS
 62
    30
 10
-103.0
 20
-404.92827999999992
 30
0.0
 11
-91.0
 21
-404.92827999999992
 31
0.0
  0
TEXT
  5
FB
  8
SIZE
  6
CONTINUOUS
 62
    30
 10
-72.685714285714283
 20
-379.92827999999997
 30
0.0
 40
64.0
  1
206
 41
0.9
 72
     1
 11
0.0
 21
-379.92827999999997
 31
0.0
  0
POINT
  5
FC
  8
DEFPOINTS
  6
CONTINUOUS
 62
    30
 10
103.0
 20
-105.471788
 30
0.0
  0
POINT
  5
FD
  8
DEFPOINTS
  6
CONTINUOUS
 62
    30
 10
-103.0
 20
-106.637557
 30
0.0
  0
POINT
  5
FE
  8
DEFPOINTS
  6
CONTINUOUS
 62
    30
 10
-103.0
 20
-404.92827999999992
 30
0.0
  0
LINE
  5
FF
  8
SIZE
  6
CONTINUOUS
 62
    30
 10
-20.0
 20
68.0
 30
0.0
 11
-431.33442400000001
 21
68.0
 31
0.0
  0
LINE
  5
100
  8
SIZE
  6
CONTINUOUS
 62
    30
 10
-123.0
 20
-101.0
 30
0.0
 11
-431.33442400000001
 21
-101.0
 31
0.0
  0
LINE
  5
101
  8
SIZE
  6
CONTINUOUS
 62
    30
 10
-411.3344239999999
 20
80.0
 30
0.0
 11
-411.3344239999999
 21
92.0
 31
0.0
  0
LINE
  5
102
  8
SIZE
  6
CONTINUOUS
 62
    30
 10
-411.3344239999999
 20
-113.0
 30
0.0
 11
-411.3344239999999
 21
-125.0
 31
0.0
  0
LINE
  5
103
  8
SIZE
  6
CONTINUOUS
 62
    30
 10
-411.3344239999999
 20
68.0
 30
0.0
 11
-411.3344239999999
 21
-101.0
 31
0.0
  0
CIRCLE
  5
104
  8
SIZE
  6
CONTINUOUS
 62
    30
 10
-411.3344239999999
 20
68.0
 30
0.0
 40
6.0
  0
LINE
  5
105
  8
SIZE
  6
CONTINUOUS
 62
    30
 10
-411.3344239999999
 20
68.0
 30
0.0
 11
-411.3344239999999
 21
80.0
 31
0.0
  0
CIRCLE
  5
106
  8
SIZE
  6
CONTINUOUS
 62
    30
 10
-411.3344239999999
 20
-101.0
 30
0.0
 40
6.0
  0
LINE
  5
107
  8
SIZE
  6
CONTINUOUS
 62
    30
 10
-411.3344239999999
 20
-101.0
 30
0.0
 11
-411.3344239999999
 21
-113.0
 31
0.0
  0
TEXT
  5
108
  8
SIZE
  6
CONTINUOUS
 62
    30
 10
-436.3344239999999
 20
-83.699999999999989
 30
0.0
 40
64.0
  1
169
 50
90.0
 41
0.9
 72
     1
 11
-436.3344239999999
 21
-16.5
 31
0.0
  0
POINT
  5
109
  8
DEFPOINTS
  6
CONTINUOUS
 62
    30
 10
0.0
 20
68.0
 30
0.0
  0
POINT
  5
10A
  8
DEFPOINTS
  6
CONTINUOUS
 62
    30
 10
-103.0
 20
-101.0
 30
0.0
  0
POINT
  5
10B
  8
DEFPOINTS
  6
CONTINUOUS
 62
    30
 10
-411.3344239999999
 20
-101.0
 30
0.0
  0
LINE
  5
10C
  8
SIZE
  6
CONTINUOUS
 62
    30
 10
-20.0
 20
78.0
 30
0.0
 11
-550.47334399999988
 21
78.0
 31
0.0
  0
LINE
  5
10D
  8
SIZE
  6
CONTINUOUS
 62
    30
 10
-96.121677000000005
 20
-123.0
 30
0.0
 11
-550.47334399999988
 21
-123.0
 31
0.0
  0
LINE
  5
10E
  8
SIZE
  6
CONTINUOUS
 62
    30
 10
-530.47334399999988
 20
66.0
 30
0.0
 11
-530.47334399999988
 21
-111.0
 31
0.0
  0
CIRCLE
  5
10F
  8
SIZE
  6
CONTINUOUS
 62
    30
 10
-530.47334399999988
 20
78.0
 30
0.0
 40
6.0
  0
LINE
  5
110
  8
SIZE
  6
CONTINUOUS
 62
    30
 10
-530.47334399999988
 20
78.0
 30
0.0
 11
-530.47334399999988
 21
66.0
 31
0.0
  0
CIRCLE
  5
111
  8
SIZE
  6
CONTINUOUS
 62
    30
 10
-530.47334399999988
 20
-123.0
 30
0.0
 40
6.0
  0
LINE
  5
112
  8
SIZE
  6
CONTINUOUS
 62
    30
 10
-530.47334399999988
 20
-123.0
 30
0.0
 11
-530.47334399999988
 21
-111.0
 31
0.0
  0
TEXT
  5
113
  8
SIZE
  6
CONTINUOUS
 62
    30
 10
-555.47334399999988
 20
-84.214285714285694
 30
0.0
 40
64.0
  1
201
 50
90.0
 41
0.9
 72
     1
 11
-555.47334399999988
 21
-22.5
 31
0.0
  0
POINT
  5
114
  8
DEFPOINTS
  6
CONTINUOUS
 62
    30
 10
0.0
 20
78.0
 30
0.0
  0
POINT
  5
115
  8
DEFPOINTS
  6
CONTINUOUS
 62
    30
 10
-76.121677000000005
 20
-123.0
 30
0.0
  0
POINT
  5
116
  8
DEFPOINTS
  6
CONTINUOUS
 62
    30
 10
-530.47334399999988
 20
-123.0
 30
0.0
  0
LINE
  5
117
  8
SIZE
  6
CONTINUOUS
 62
    30
 10
-64.0
 20
104.0
 30
0.0
 11
-64.0
 21
196.358586
 31
0.0
  0
LINE
  5
118
  8
SIZE
  6
CONTINUOUS
 62
    30
 10
64.0
 20
104.0
 30
0.0
 11
64.0
 21
196.358586
 31
0.0
  0
LINE
  5
119
  8
SIZE
  6
CONTINUOUS
 62
    30
 10
-76.0
 20
176.358586
 30
0.0
 11
-88.0
 21
176.358586
 31
0.0
  0
LINE
  5
11A
  8
SIZE
  6
CONTINUOUS
 62
    30
 10
76.0
 20
176.358586
 30
0.0
 11
88.0
 21
176.358586
 31
0.0
  0
LINE
  5
11B
  8
SIZE
  6
CONTINUOUS
 62
    30
 10
-64.0
 20
176.358586
 30
0.0
 11
64.0
 21
176.358586
 31
0.0
  0
CIRCLE
  5
11C
  8
SIZE
  6
CONTINUOUS
 62
    30
 10
-64.0
 20
176.358586
 30
0.0
 40
6.0
  0
LINE
  5
11D
  8
SIZE
  6
CONTINUOUS
 62
    30
 10
-64.0
 20
176.358586
 30
0.0
 11
-76.0
 21
176.358586
 31
0.0
  0
CIRCLE
  5
11E
  8
SIZE
  6
CONTINUOUS
 62
    30
 10
64.0
 20
176.358586
 30
0.0
 40
6.0
  0
LINE
  5
11F
  8
SIZE
  6
CONTINUOUS
 62
    30
 10
64.0
 20
176.358586
 30
0.0
 11
76.0
 21
176.358586
 31
0.0
  0
TEXT
  5
120
  8
SIZE
  6
CONTINUOUS
 62
    30
 10
-68.571428571428569
 20
201.358586
 30
0.0
 40
64.0
  1
128
 41
0.9
 72
     1
 11
0.0
 21
201.358586
 31
0.0
  0
POINT
  5
121
  8
DEFPOINTS
  6
CONTINUOUS
 62
    30
 10
-64.0
 20
84.0
 30
0.0
  0
POINT
  5
122
  8
DEFPOINTS
  6
CONTINUOUS
 62
    30
 10
64.0
 20
84.0
 30
0.0
  0
POINT
  5
123
  8
DEFPOINTS
  6
CONTINUOUS
 62
    30
 10
64.0
 20
176.358586
 30
0.0
  0
LINE
  5
124
  8
SIZE
  6
CONTINUOUS
 62
    30
 10
-93.0
 20
-14.0
 30
0.0
 11
-93.0
 21
313.83703700000001
 31
0.0
  0
LINE
  5
125
  8
SIZE
  6
CONTINUOUS
 62
    30
 10
93.0
 20
-14.0
 30
0.0
 11
93.0
 21
313.83703700000001
 31
0.0
  0
LINE
  5
126
  8
SIZE
  6
CONTINUOUS
 62
    30
 10
-81.0
 20
293.83703700000001
 30
0.0
 11
81.0
 21
293.83703700000001
 31
0.0
  0
CIRCLE
  5
127
  8
SIZE
  6
CONTINUOUS
 62
    30
 10
-93.0
 20
293.83703700000001
 30
0.0
 40
6.0
  0
LINE
  5
128
  8
SIZE
  6
CONTINUOUS
 62
    30
 10
-93.0
 20
293.83703700000001
 30
0.0
 11
-81.0
 21
293.83703700000001
 31
0.0
  0
CIRCLE
  5
129
  8
SIZE
  6
CONTINUOUS
 62
    30
 10
93.0
 20
293.83703700000001
 30
0.0
 40
6.0
  0
LINE
  5
12A
  8
SIZE
  6
CONTINUOUS
 62
    30
 10
93.0
 20
293.83703700000001
 30
0.0
 11
81.0
 21
293.83703700000001
 31
0.0
  0
TEXT
  5
12B
  8
SIZE
  6
CONTINUOUS
 62
    30
 10
-67.200000000000003
 20
318.83703700000001
 30
0.0
 40
64.0
  1
186
 41
0.9
 72
     1
 11
0.0
 21
318.83703700000001
 31
0.0
  0
POINT
  5
12C
  8
DEFPOINTS
  6
CONTINUOUS
 62
    30
 10
-93.0
 20
-34.0
 30
0.0
  0
POINT
  5
12D
  8
DEFPOINTS
  6
CONTINUOUS
 62
    30
 10
93.0
 20
-34.0
 30
0.0
  0
POINT
  5
12E
  8
DEFPOINTS
  6
CONTINUOUS
 62
    30
 10
93.0
 20
293.83703700000001
 30
0.0
  0
LINE
  5
12F
  8
SIZE
  6
CONTINUOUS
 62
    30
 10
-104.0
 20
64.0
 30
0.0
 11
-220.06247400000001
 21
64.0
 31
0.0
  0
LINE
  5
130
  8
SIZE
  6
CONTINUOUS
 62
    30
 10
-152.87530899999999
 20
0.0
 30
0.0
 11
-220.06247400000001
 21
0.0
 31
0.0
  0
LINE
  5
131
  8
SIZE
  6
CONTINUOUS
 62
    30
 10
-200.06247400000001
 20
76.0
 30
0.0
 11
-200.06247400000001
 21
88.0
 31
0.0
  0
LINE
  5
132
  8
SIZE
  6
CONTINUOUS
 62
    30
 10
-200.06247400000001
 20
-12.0
 30
0.0
 11
-200.06247400000001
 21
-24.0
 31
0.0
  0
LINE
  5
133
  8
SIZE
  6
CONTINUOUS
 62
    30
 10
-200.06247400000001
 20
240.55047099999999
 30
0.0
 11
-200.06247400000001
 21
64.0
 31
0.0
  0
TEXT
  5
134
  8
SIZE
  6
CONTINUOUS
 62
    30
 10
-225.06247400000001
 20
119.550471
 30
0.0
 40
64.0
  1
64
 50
90.0
 41
0.9
 72
     1
 11
-225.06247400000001
 21
167.55047099999999
 31
0.0
  0
LINE
  5
135
  8
SIZE
  6
CONTINUOUS
 62
    30
 10
-200.06247400000001
 20
64.0
 30
0.0
 11
-200.06247400000001
 21
0.0
 31
0.0
  0
LINE
  5
136
  8
SIZE
  6
CONTINUOUS
 62
    30
 10
-200.06247400000001
 20
64.0
 30
0.0
 11
-200.06247400000001
 21
0.0
 31
0.0
  0
CIRCLE
  5
137
  8
SIZE
  6
CONTINUOUS
 62
    30
 10
-200.06247400000001
 20
64.0
 30
0.0
 40
6.0
  0
LINE
  5
138
  8
SIZE
  6
CONTINUOUS
 62
    30
 10
-200.06247400000001
 20
64.0
 30
0.0
 11
-200.06247400000001
 21
76.0
 31
0.0
  0
CIRCLE
  5
139
  8
SIZE
  6
CONTINUOUS
 62
    30
 10
-200.06247400000001
 20
0.0
 30
0.0
 40
6.0
  0
LINE
  5
13A
  8
SIZE
  6
CONTINUOUS
 62
    30
 10
-200.06247400000001
 20
0.0
 30
0.0
 11
-200.06247400000001
 21
-12.0
 31
0.0
  0
POINT
  5
13B
  8
DEFPOINTS
  6
CONTINUOUS
 62
    30
 10
-84.0
 20
64.0
 30
0.0
  0
POINT
  5
13C
  8
DEFPOINTS
  6
CONTINUOUS
 62
    30
 10
-132.87530899999999
 20
0.0
 30
0.0
  0
POINT
  5
13D
  8
DEFPOINTS
  6
CONTINUOUS
 62
    30
 10
-200.06247400000001
 20
0.0
 30
0.0
  0
LINE
  5
13E
  8
SIZE
  6
CONTINUOUS
 62
    30
 10
-104.0
 20
64.0
 30
0.0
 11
-324.37431299999997
 21
64.0
 31
0.0
  0
LINE
  5
13F
  8
SIZE
  6
CONTINUOUS
 62
    30
 10
-133.0
 20
-54.0
 30
0.0
 11
-324.37431299999997
 21
-54.0
 31
0.0
  0
LINE
  5
140
  8
SIZE
  6
CONTINUOUS
 62
    30
 10
-304.37431299999997
 20
52.0
 30
0.0
 11
-304.37431299999997
 21
-42.0
 31
0.0
  0
LINE
  5
141
  8
SIZE
  6
CONTINUOUS
 62
    30
 10
-304.37431299999997
 20
252.835791
 30
0.0
 11
-304.37431299999997
 21
64.0
 31
0.0
  0
TEXT
  5
142
  8
SIZE
  6
CONTINUOUS
 62
    30
 10
-329.37431299999997
 20
101.6643617142857
 30
0.0
 40
64.0
  1
118
 50
90.0
 41
0.9
 72
     1
 11
-329.37431299999997
 21
164.75007600000001
 31
0.0
  0
CIRCLE
  5
143
  8
SIZE
  6
CONTINUOUS
 62
    30
 10
-304.37431299999997
 20
64.0
 30
0.0
 40
6.0
  0
LINE
  5
144
  8
SIZE
  6
CONTINUOUS
 62
    30
 10
-304.37431299999997
 20
64.0
 30
0.0
 11
-304.37431299999997
 21
52.0
 31
0.0
  0
CIRCLE
  5
145
  8
SIZE
  6
CONTINUOUS
 62
    30
 10
-304.37431299999997
 20
-54.0
 30
0.0
 40
6.0
  0
LINE
  5
146
  8
SIZE
  6
CONTINUOUS
 62
    30
 10
-304.37431299999997
 20
-54.0
 30
0.0
 11
-304.37431299999997
 21
-42.0
 31
0.0
  0
POINT
  5
147
  8
DEFPOINTS
  6
CONTINUOUS
 62
    30
 10
-84.0
 20
64.0
 30
0.0
  0
POINT
  5
148
  8
DEFPOINTS
  6
CONTINUOUS
 62
    30
 10
-113.0
 20
-54.0
 30
0.0
  0
POINT
  5
149
  8
DEFPOINTS
  6
CONTINUOUS
 62
    30
 10
-304.37431299999997
 20
-54.0
 30
0.0
  0
CIRCLE
  5
14A
  8
DETAIL
  6
CONTINUOUS
 62
     5
 10
-64.0
 20
64.0
 30
0.0
 40
2.75
  0
CIRCLE
  5
14B
  8
FIX
  6
CONTINUOUS
 62
    11
 10
-64.0
 20
64.0
 30
0.0
 40
2.75
  0
CIRCLE
  5
14C
  8
FIX
  6
CONTINUOUS
 62
    11
 10
64.0
 20
64.0
 30
0.0
 40
2.75
  0
CIRCLE
  5
14D
  8
DETAIL
  6
CONTINUOUS
 62
     5
 10
64.0
 20
64.0
 30
0.0
 40
2.75
  0
CIRCLE
  5
14E
  8
FIX
  6
CONTINUOUS
 62
    11
 10
-93.0
 20
-54.0
 30
0.0
 40
2.75
  0
CIRCLE
  5
14F
  8
DETAIL
  6
CONTINUOUS
 62
     5
 10
-93.0
 20
-54.0
 30
0.0
 40
2.75
  0
CIRCLE
  5
150
  8
DETAIL
  6
CONTINUOUS
 62
     5
 10
93.0
 20
-54.0
 30
0.0
 40
2.75
  0
CIRCLE
  5
151
  8
FIX
  6
CONTINUOUS
 62
    11
 10
93.0
 20
-54.0
 30
0.0
 40
2.75
  0
LINE
  5
155
  8
SIZE
  6
CONTINUOUS
 62
    30
 10
-20.0
 20
78.0
 30
0.0
 11
-431.33442400000001
 21
78.0
 31
0.0
  0
LINE
  5
156
  8
SIZE
  6
CONTINUOUS
 62
    30
 10
-20.0
 20
68.0
 30
0.0
 11
-431.33442400000001
 21
68.0
 31
0.0
  0
LINE
  5
157
  8
SIZE
  6
CONTINUOUS
 62
    30
 10
-411.3344239999999
 20
90.0
 30
0.0
 11
-411.3344239999999
 21
102.0
 31
0.0
  0
LINE
  5
158
  8
SIZE
  6
CONTINUOUS
 62
    30
 10
-411.3344239999999
 20
56.0
 30
0.0
 11
-411.3344239999999
 21
44.0
 31
0.0
  0
TEXT
  5
159
  8
SIZE
  6
CONTINUOUS
 62
    30
 10
-437.46032200000002
 20
93.847646857142877
 30
0.0
 40
64.0
  1
10
 50
90.0
 41
0.9
 72
     1
 11
-437.46032200000002
 21
134.99050399999999
 31
0.0
  0
LINE
  5
15A
  8
SIZE
  6
CONTINUOUS
 62
    30
 10
-411.3344239999999
 20
78.0
 30
0.0
 11
-411.3344239999999
 21
68.0
 31
0.0
  0
LINE
  5
15B
  8
SIZE
  6
CONTINUOUS
 62
    30
 10
-411.3344239999999
 20
78.0
 30
0.0
 11
-411.3344239999999
 21
68.0
 31
0.0
  0
CIRCLE
  5
15C
  8
SIZE
  6
CONTINUOUS
 62
    30
 10
-411.3344239999999
 20
78.0
 30
0.0
 40
6.0
  0
LINE
  5
15D
  8
SIZE
  6
CONTINUOUS
 62
    30
 10
-411.3344239999999
 20
78.0
 30
0.0
 11
-411.3344239999999
 21
90.0
 31
0.0
  0
CIRCLE
  5
15E
  8
SIZE
  6
CONTINUOUS
 62
    30
 10
-411.3344239999999
 20
68.0
 30
0.0
 40
6.0
  0
LINE
  5
15F
  8
SIZE
  6
CONTINUOUS
 62
    30
 10
-411.3344239999999
 20
68.0
 30
0.0
 11
-411.3344239999999
 21
56.0
 31
0.0
  0
POINT
  5
160
  8
DEFPOINTS
  6
CONTINUOUS
 62
    30
 10
0.0
 20
78.0
 30
0.0
  0
POINT
  5
161
  8
DEFPOINTS
  6
CONTINUOUS
 62
    30
 10
0.0
 20
68.0
 30
0.0
  0
POINT
  5
162
  8
DEFPOINTS
  6
CONTINUOUS
 62
    30
 10
-411.3344239999999
 20
68.0
 30
0.0
  0
LINE
  5
163
  8
SIZE
  6
CONTINUOUS
 62
    30
 39
50.0
 10
-411.3344239999999
 20
102.0
 30
0.0
 11
-411.3344239999999
 21
190.71700000000001
 31
0.0
  0
TEXT
  5
16C
  8
ETC
  6
CONTINUOUS
 62
    61
 10
288.75283823257581
 20
538.42073770930494
 30
0.0
 40
40.0
  1
P-13VAM3_2
 41
0.9
  0
TEXT
  5
16D
  8
ETC
  6
CONTINUOUS
 62
    61
 10
281.50429527257393
 20
476.18803888060381
 30
0.0
 40
40.0
  1
システム部材
 41
0.9
  0
TEXT
  5
16E
  8
ETC
  6
CONTINUOUS
 62
    61
 10
327.12680035893197
 20
415.50993289674949
 30
0.0
 40
40.0
  1
P-13VAM3
 41
0.9
  0
TEXT
  5
16F
  8
ETC
  6
CONTINUOUS
 62
    61
 10
327.12680035893197
 20
349.5099328967496
 30
0.0
 40
40.0
  1
P-13VADM3
 41
0.9
  0
ENDSEC
  0
EOF
