  0
SECTION
  2
HEADER
  9
$ACADVER
  1
AC1009
  9
$INSBASE
 10
0.0
 20
0.0
 30
0.0
  9
$EXTMIN
 10
-448.60837451253241
 20
-439.13725128995418
 30
-0.0000000349181948
  9
$EXTMAX
 10
950.40895132162768
 20
784.01185210562653
 30
0.0000000814935747
  9
$LIMMIN
 10
-4200.0
 20
-2970.0
  9
$LIMMAX
 10
4200.0
 20
2970.0
  9
$ORTHOMODE
 70
     0
  9
$REGENMODE
 70
     1
  9
$FILLMODE
 70
     1
  9
$QTEXTMODE
 70
     0
  9
$MIRRTEXT
 70
     0
  9
$DRAGMODE
 70
     2
  9
$LTSCALE
 40
20.0
  9
$OSMODE
 70
    47
  9
$ATTMODE
 70
     1
  9
$TEXTSIZE
 40
64.0
  9
$TRACEWID
 40
0.05
  9
$TEXTSTYLE
  7
STANDARD
  9
$CLAYER
  8
ETC
  9
$CELTYPE
  6
CONTINUOUS
  9
$CECOLOR
 62
    30
  9
$DIMSCALE
 40
1.0
  9
$DIMASZ
 40
2.0
  9
$DIMEXO
 40
20.0
  9
$DIMDLI
 40
200.0
  9
$DIMRND
 40
0.0
  9
$DIMDLE
 40
0.0
  9
$DIMEXE
 40
30.0
  9
$DIMTP
 40
0.0
  9
$DIMTM
 40
0.0
  9
$DIMTXT
 40
64.0
  9
$DIMCEN
 40
0.09
  9
$DIMTSZ
 40
0.0
  9
$DIMTOL
 70
     0
  9
$DIMLIM
 70
     0
  9
$DIMTIH
 70
     0
  9
$DIMTOH
 70
     0
  9
$DIMSE1
 70
     0
  9
$DIMSE2
 70
     0
  9
$DIMTAD
 70
     1
  9
$DIMZIN
 70
     8
  9
$DIMBLK
  1
DOT1
  9
$DIMASO
 70
     1
  9
$DIMSHO
 70
     0
  9
$DIMPOST
  1

  9
$DIMAPOST
  1

  9
$DIMALT
 70
     0
  9
$DIMALTD
 70
     2
  9
$DIMALTF
 40
25.399999999999999
  9
$DIMLFAC
 40
1.0
  9
$DIMTOFL
 70
     1
  9
$DIMTVP
 40
0.0
  9
$DIMTIX
 70
     1
  9
$DIMSOXD
 70
     0
  9
$DIMSAH
 70
     0
  9
$DIMBLK1
  1

  9
$DIMBLK2
  1

  9
$DIMSTYLE
  2
STANDARD
  9
$DIMCLRD
 70
     7
  9
$DIMCLRE
 70
     7
  9
$DIMCLRT
 70
     7
  9
$DIMTFAC
 40
1.0
  9
$DIMGAP
 40
0.09
  9
$LUNITS
 70
     2
  9
$LUPREC
 70
     4
  9
$SKETCHINC
 40
0.1
  9
$FILLETRAD
 40
10.0
  9
$AUNITS
 70
     1
  9
$AUPREC
 70
     3
  9
$MENU
  1
ACAD
  9
$ELEVATION
 40
0.0
  9
$PELEVATION
 40
0.0
  9
$THICKNESS
 40
0.0
  9
$LIMCHECK
 70
     1
  9
$BLIPMODE
 70
     0
  9
$CHAMFERA
 40
0.0
  9
$CHAMFERB
 40
0.0
  9
$SKPOLY
 70
     0
  9
$TDCREATE
 40
2451606.6187615739
  9
$TDUPDATE
 40
2455075.4171581832
  9
$TDINDWG
 40
0.1677224421
  9
$TDUSRTIMER
 40
0.1677220718
  9
$USRTIMER
 70
     1
  9
$ANGBASE
 50
0.0
  9
$ANGDIR
 70
     0
  9
$PDMODE
 70
     3
  9
$PDSIZE
 40
-2.0
  9
$PLINEWID
 40
0.0
  9
$COORDS
 70
     0
  9
$SPLFRAME
 70
     0
  9
$SPLINETYPE
 70
     6
  9
$SPLINESEGS
 70
     8
  9
$ATTDIA
 70
     0
  9
$ATTREQ
 70
     1
  9
$HANDLING
 70
     1
  9
$HANDSEED
  5
396
  9
$SURFTAB1
 70
     6
  9
$SURFTAB2
 70
     6
  9
$SURFTYPE
 70
     6
  9
$SURFU
 70
     6
  9
$SURFV
 70
     6
  9
$UCSNAME
  2

  9
$UCSORG
 10
0.0
 20
0.0
 30
0.0
  9
$UCSXDIR
 10
1.0
 20
0.0
 30
0.0
  9
$UCSYDIR
 10
0.0
 20
1.0
 30
0.0
  9
$PUCSNAME
  2

  9
$PUCSORG
 10
0.0
 20
0.0
 30
0.0
  9
$PUCSXDIR
 10
1.0
 20
0.0
 30
0.0
  9
$PUCSYDIR
 10
0.0
 20
1.0
 30
0.0
  9
$USERI1
 70
     0
  9
$USERI2
 70
     0
  9
$USERI3
 70
     0
  9
$USERI4
 70
     0
  9
$USERI5
 70
     0
  9
$USERR1
 40
20.0
  9
$USERR2
 40
0.0
  9
$USERR3
 40
0.0
  9
$USERR4
 40
0.0
  9
$USERR5
 40
0.0
  9
$WORLDVIEW
 70
     1
  9
$SHADEDGE
 70
     3
  9
$SHADEDIF
 70
    70
  9
$TILEMODE
 70
     1
  9
$MAXACTVP
 70
    48
  9
$PLIMCHECK
 70
     0
  9
$PEXTMIN
 10
-1.0000000000000000E+020
 20
-1.0000000000000000E+020
 30
-1.0000000000000000E+020
  9
$PEXTMAX
 10
1.0000000000000000E+020
 20
1.0000000000000000E+020
 30
1.0000000000000000E+020
  9
$PLIMMIN
 10
0.0
 20
0.0
  9
$PLIMMAX
 10
12.0
 20
9.0
  9
$UNITMODE
 70
     0
  9
$VISRETAIN
 70
     0
  9
$PLINEGEN
 70
     0
  9
$PSLTSCALE
 70
     0
  0
ENDSEC
  0
SECTION
  2
TABLES
  0
TABLE
  2
VPORT
 70
     1
  0
VPORT
  2
*ACTIVE
 70
     0
 10
0.0
 20
0.0
 11
1.0
 21
1.0
 12
247.5428311201762
 22
145.85501919539161
 13
0.0
 23
0.0
 14
400.0
 24
400.0
 15
400.0
 25
400.0
 16
0.0
 26
0.0
 36
1.0
 17
0.0
 27
0.0
 37
0.0
 40
1384.571376591836
 41
1.2982954545454539
 42
50.0
 43
0.0
 44
0.0
 50
0.0
 51
0.0
 71
     0
 72
   500
 73
     1
 74
     0
 75
     0
 76
     0
 77
     0
 78
     0
  0
ENDTAB
  0
TABLE
  2
LTYPE
 70
     2
  0
LTYPE
  2
CONTINUOUS
 70
     0
  3
実線
 72
    65
 73
     0
 40
0.0
  0
LTYPE
  2
DASHDOT
 70
     0
  3
____ _ ____ _ ____ _ ____ _ ____ _ ____ _ ____
 72
    65
 73
     4
 40
5.5
 49
4.0
 49
-0.6
 49
0.3
 49
-0.6
  0
ENDTAB
  0
TABLE
  2
LAYER
 70
    12
  0
LAYER
  2
0
 70
     0
 62
     7
  6
CONTINUOUS
  0
LAYER
  2
ETC
 70
     0
 62
    61
  6
CONTINUOUS
  0
LAYER
  2
SIZE
 70
     0
 62
    30
  6
CONTINUOUS
  0
LAYER
  2
OUTLINE
 70
     0
 62
     3
  6
CONTINUOUS
  0
LAYER
  2
DETAIL
 70
     0
 62
     5
  6
CONTINUOUS
  0
LAYER
  2
BASIS
 70
     0
 62
     6
  6
DASHDOT
  0
LAYER
  2
NOTE
 70
     0
 62
     4
  6
CONTINUOUS
  0
LAYER
  2
ARRANGE
 70
     0
 62
     1
  6
CONTINUOUS
  0
LAYER
  2
FIX
 70
     0
 62
    11
  6
CONTINUOUS
  0
LAYER
  2
DEFPOINTS
 70
     0
 62
     7
  6
CONTINUOUS
  0
LAYER
  2
SERVICESPACE
 70
     0
 62
     2
  6
DASHDOT
  0
LAYER
  2
SYMBOLLINE
 70
     0
 62
    15
  6
CONTINUOUS
  0
ENDTAB
  0
TABLE
  2
STYLE
 70
     2
  0
STYLE
  2
STANDARD
 70
     0
 40
0.0
 41
0.9
 50
0.0
 71
     0
 42
64.0
  3
SIMPLEX
  4
BIGFONT
  0
STYLE
  2
ANNOTATIVE
 70
     0
 40
0.0
 41
1.0
 50
0.0
 71
     0
 42
0.2
  3
txt
  4

  0
ENDTAB
  0
TABLE
  2
VIEW
 70
     1
  0
VIEW
  2
ALL
 70
     0
 40
6374.9789810000002
 10
0.0
 20
58.11501599999999
 41
8842.1052629999976
 11
0.0
 21
0.0
 31
1.0
 12
0.0
 22
0.0
 32
0.0
 42
50.0
 43
0.0
 44
0.0
 50
0.0
 71
     0
  0
ENDTAB
  0
TABLE
  2
UCS
 70
     0
  0
ENDTAB
  0
TABLE
  2
APPID
 70
     4
  0
APPID
  2
ACAD
 70
     0
  0
APPID
  2
ACADANNOTATIVE
 70
     0
  0
APPID
  2
ACAD_MLEADERVER
 70
     0
  0
APPID
  2
ACAD_EXEMPT_FROM_CAD_STANDARDS
 70
     0
  0
ENDTAB
  0
TABLE
  2
DIMSTYLE
 70
     2
  0
DIMSTYLE
  2
STANDARD
 70
     0
  3

  4

  5

  6

  7

 40
1.0
 41
0.18
 42
0.0625
 43
0.38
 44
0.18
 45
0.0
 46
0.0
 47
0.0
 48
0.0
140
0.18
141
0.09
142
0.0
143
25.399999999999999
144
1.0
145
0.0
146
1.0
147
0.09
 71
     0
 72
     0
 73
     1
 74
     1
 75
     0
 76
     0
 77
     0
 78
     0
170
     0
171
     2
172
     0
173
     0
174
     0
175
     0
176
     7
177
     7
178
     7
  0
DIMSTYLE
  2
ANNOTATIVE
 70
     0
  3

  4

  5

  6

  7

 40
1.0
 41
0.18
 42
0.0625
 43
0.38
 44
0.18
 45
0.0
 46
0.0
 47
0.0
 48
0.0
140
0.18
141
0.09
142
0.0
143
25.399999999999999
144
1.0
145
0.0
146
1.0
147
0.09
 71
     0
 72
     0
 73
     1
 74
     1
 75
     0
 76
     0
 77
     0
 78
     0
170
     0
171
     2
172
     0
173
     0
174
     0
175
     0
176
     0
177
     0
178
     0
  0
ENDTAB
  0
ENDSEC
  0
SECTION
  2
BLOCKS
  0
BLOCK
  8
0
  2
$MODEL_SPACE
 70
     0
 10
0.0
 20
0.0
 30
0.0
  3
$MODEL_SPACE
  1

  0
ENDBLK
  5
332
  8
0
  0
BLOCK
 67
     1
  8
0
  2
$PAPER_SPACE
 70
     0
 10
0.0
 20
0.0
 30
0.0
  3
$PAPER_SPACE
  1

  0
ENDBLK
  5
32E
 67
     1
  8
0
  0
BLOCK
  8
SIZE
  2
DOT1
 70
     0
 10
0.0
 20
0.0
 30
0.0
  3
DOT1
  1

  0
CIRCLE
  5
35
  8
SIZE
  6
CONTINUOUS
 62
     8
 10
0.0
 20
0.0
 30
0.0
 40
3.0
  0
ENDBLK
  5
36
  8
SIZE
  0
ENDSEC
  0
SECTION
  2
ENTITIES
  0
ARC
  5
38
  8
DETAIL
  6
CONTINUOUS
 62
     5
 10
31.762533999999999
 20
-39.544882000000001
 30
0.0
 40
83.302965999999998
 50
281.97947199999999
 51
312.46157499999998
  0
ARC
  5
39
  8
DETAIL
  6
CONTINUOUS
 62
     5
 10
-31.762533999999999
 20
-39.544882000000001
 30
0.0
 40
83.302965999999998
 50
227.53842499999999
 51
258.0205279999999
  0
LINE
  5
3A
  8
DETAIL
  6
CONTINUOUS
 62
     5
 10
-98.0
 20
-101.0
 30
0.0
 11
-103.0
 21
-101.0
 31
0.0
  0
LINE
  5
3B
  8
DETAIL
  6
CONTINUOUS
 62
     5
 10
-103.0
 20
-106.637557
 30
0.0
 11
-103.0
 21
-101.0
 31
0.0
  0
LINE
  5
3C
  8
DETAIL
  6
CONTINUOUS
 62
     5
 10
-103.0
 20
-106.637557
 30
0.0
 11
-93.442184999999995
 21
-116.955146
 31
0.0
  0
ARC
  5
3D
  8
DETAIL
  6
CONTINUOUS
 62
     5
 10
-74.851246000000003
 20
-93.026911999999996
 30
0.0
 40
30.0
 50
231.70591899999999
 51
267.57293099999998
  0
ARC
  5
3E
  8
DETAIL
  6
CONTINUOUS
 62
     5
 10
-74.851246000000003
 20
-93.409934000000007
 30
0.0
 40
30.0
 50
231.70591899999999
 51
267.57293099999998
  0
LINE
  5
3F
  8
DETAIL
  6
CONTINUOUS
 62
     5
 10
-103.0
 20
-105.471788
 30
0.0
 11
-93.442184999999995
 21
-116.572124
 31
0.0
  0
LINE
  5
40
  8
DETAIL
  6
CONTINUOUS
 62
     5
 10
76.121677000000005
 20
-123.383022
 30
0.0
 11
-76.121677000000005
 21
-123.383022
 31
0.0
  0
LINE
  5
41
  8
DETAIL
  6
CONTINUOUS
 62
     5
 10
76.121677000000005
 20
-123.0
 30
0.0
 11
-76.121677000000005
 21
-123.0
 31
0.0
  0
LINE
  5
42
  8
DETAIL
  6
CONTINUOUS
 62
     5
 10
-101.996228
 20
-106.637557
 30
0.0
 11
-81.138206999999966
 21
-106.637557
 31
0.0
  0
LINE
  5
43
  8
DETAIL
  6
CONTINUOUS
 62
     5
 10
98.0
 20
-101.0
 30
0.0
 11
103.0
 21
-101.0
 31
0.0
  0
LINE
  5
44
  8
DETAIL
  6
CONTINUOUS
 62
     5
 10
103.0
 20
-106.637557
 30
0.0
 11
103.0
 21
-101.0
 31
0.0
  0
LINE
  5
45
  8
DETAIL
  6
CONTINUOUS
 62
     5
 10
103.0
 20
-106.637557
 30
0.0
 11
93.442184999999995
 21
-116.955146
 31
0.0
  0
ARC
  5
46
  8
DETAIL
  6
CONTINUOUS
 62
     5
 10
74.851246000000003
 20
-93.026911999999996
 30
0.0
 40
30.0
 50
272.42706900000002
 51
308.29408100000001
  0
ARC
  5
47
  8
DETAIL
  6
CONTINUOUS
 62
     5
 10
74.851246000000003
 20
-93.409934000000007
 30
0.0
 40
30.0
 50
272.42706900000002
 51
308.29408100000001
  0
LINE
  5
48
  8
DETAIL
  6
CONTINUOUS
 62
     5
 10
103.0
 20
-105.471788
 30
0.0
 11
93.442184999999995
 21
-116.572124
 31
0.0
  0
LINE
  5
49
  8
DETAIL
  6
CONTINUOUS
 62
     5
 10
101.996228
 20
-106.637557
 30
0.0
 11
81.138206999999966
 21
-106.637557
 31
0.0
  0
CIRCLE
  5
4A
  8
DETAIL
  6
CONTINUOUS
 62
     5
 10
-93.0
 20
-54.0
 30
0.0
 40
2.25
  0
CIRCLE
  5
4B
  8
DETAIL
  6
CONTINUOUS
 62
     5
 10
-64.0
 20
64.0
 30
0.0
 40
2.25
  0
LINE
  5
4C
  8
DETAIL
  6
CONTINUOUS
 62
     5
 10
-88.0
 20
-101.0
 30
0.0
 11
-98.0
 21
-101.0
 31
0.0
  0
ARC
  5
4D
  8
DETAIL
  6
CONTINUOUS
 62
     5
 10
0.0
 20
489.83538099999993
 30
0.0
 40
612.83538099999998
 50
265.40897999999999
 51
270.0
  0
LINE
  5
4E
  8
DETAIL
  6
CONTINUOUS
 62
     5
 10
-49.052999999999997
 20
-38.752049
 30
0.0
 11
-49.052999999999997
 21
-121.03367799999999
 31
0.0
  0
LINE
  5
4F
  8
DETAIL
  6
CONTINUOUS
 62
     5
 10
-88.0
 20
-60.816223000000001
 30
0.0
 11
-88.0
 21
-101.0
 31
0.0
  0
LINE
  5
50
  8
DETAIL
  6
CONTINUOUS
 62
     5
 10
-98.0
 20
-60.816223000000001
 30
0.0
 11
-98.0
 21
-101.0
 31
0.0
  0
ARC
  5
51
  8
DETAIL
  6
CONTINUOUS
 62
     5
 10
-51.863062999999997
 20
30.939088000000002
 30
0.0
 40
40.0
 50
105.505768
 51
172.3470879999999
  0
ARC
  5
52
  8
DETAIL
  6
CONTINUOUS
 62
     5
 10
631.0
 20
-60.816223000000001
 30
0.0
 40
719.0
 50
172.3470879999999
 51
180.0
  0
ARC
  5
53
  8
DETAIL
  6
CONTINUOUS
 62
     5
 10
-51.863062999999997
 20
30.939088000000002
 30
0.0
 40
30.0
 50
105.505768
 51
172.3470879999999
  0
ARC
  5
54
  8
DETAIL
  6
CONTINUOUS
 62
     5
 10
631.0
 20
-60.816223000000001
 30
0.0
 40
729.0
 50
172.3470879999999
 51
180.0
  0
ARC
  5
55
  8
DETAIL
  6
CONTINUOUS
 62
     5
 10
0.0
 20
-156.0
 30
0.0
 40
234.0
 50
90.0
 51
105.505768
  0
ARC
  5
56
  8
DETAIL
  6
CONTINUOUS
 62
     5
 10
0.0
 20
-156.0
 30
0.0
 40
224.0
 50
90.0
 51
105.505768
  0
CIRCLE
  5
57
  8
DETAIL
  6
CONTINUOUS
 62
     5
 10
64.0
 20
64.0
 30
0.0
 40
2.25
  0
CIRCLE
  5
58
  8
DETAIL
  6
CONTINUOUS
 62
     5
 10
93.0
 20
-54.0
 30
0.0
 40
2.25
  0
LINE
  5
59
  8
DETAIL
  6
CONTINUOUS
 62
     5
 10
88.0
 20
-101.0
 30
0.0
 11
98.0
 21
-101.0
 31
0.0
  0
LINE
  5
5A
  8
DETAIL
  6
CONTINUOUS
 62
     5
 10
49.052999999999997
 20
-38.752049
 30
0.0
 11
49.052999999999997
 21
-121.03367799999999
 31
0.0
  0
LINE
  5
5B
  8
DETAIL
  6
CONTINUOUS
 62
     5
 10
88.0
 20
-60.816223000000001
 30
0.0
 11
88.0
 21
-101.0
 31
0.0
  0
LINE
  5
5C
  8
DETAIL
  6
CONTINUOUS
 62
     5
 10
98.0
 20
-60.816223000000001
 30
0.0
 11
98.0
 21
-101.0
 31
0.0
  0
ARC
  5
5D
  8
DETAIL
  6
CONTINUOUS
 62
     5
 10
51.863062999999997
 20
30.939088000000002
 30
0.0
 40
40.0
 50
7.6529119999999988
 51
74.494231999999982
  0
ARC
  5
5E
  8
DETAIL
  6
CONTINUOUS
 62
     5
 10
-631.0
 20
-60.816223000000001
 30
0.0
 40
719.0
 50
0.0
 51
7.6529119999999988
  0
ARC
  5
5F
  8
DETAIL
  6
CONTINUOUS
 62
     5
 10
51.863062999999997
 20
30.939088000000002
 30
0.0
 40
30.0
 50
7.6529119999999988
 51
74.494231999999982
  0
ARC
  5
60
  8
DETAIL
  6
CONTINUOUS
 62
     5
 10
-631.0
 20
-60.816223000000001
 30
0.0
 40
729.0
 50
0.0
 51
7.6529119999999988
  0
ARC
  5
61
  8
DETAIL
  6
CONTINUOUS
 62
     5
 10
0.0
 20
-156.0
 30
0.0
 40
234.0
 50
74.494231999999982
 51
90.0
  0
ARC
  5
62
  8
DETAIL
  6
CONTINUOUS
 62
     5
 10
0.0
 20
-156.0
 30
0.0
 40
224.0
 50
74.494231999999982
 51
90.0
  0
ARC
  5
63
  8
DETAIL
  6
CONTINUOUS
 62
     5
 10
0.0
 20
489.83538099999993
 30
0.0
 40
612.83538099999998
 50
270.0
 51
274.59102000000001
  0
LINE
  5
64
  8
BASIS
  6
DASHDOT
 62
     6
 10
-132.87530899999999
 20
0.0
 30
0.0
 11
138.68741700000001
 21
0.0
 31
0.0
  0
LINE
  5
65
  8
BASIS
  6
DASHDOT
 62
     6
 10
0.0
 20
-158.60459
 30
0.0
 11
0.0
 21
126.874979
 31
0.0
  0
LINE
  5
66
  8
NOTE
  6
CONTINUOUS
 62
     4
 10
-64.0
 20
44.0
 30
0.0
 11
-64.0
 21
84.0
 31
0.0
  0
LINE
  5
67
  8
NOTE
  6
CONTINUOUS
 62
     4
 10
-84.0
 20
64.0
 30
0.0
 11
-44.0
 21
64.0
 31
0.0
  0
LINE
  5
68
  8
NOTE
  6
CONTINUOUS
 62
     4
 10
64.0
 20
44.0
 30
0.0
 11
64.0
 21
84.0
 31
0.0
  0
LINE
  5
69
  8
NOTE
  6
CONTINUOUS
 62
     4
 10
44.0
 20
64.0
 30
0.0
 11
84.0
 21
64.0
 31
0.0
  0
LINE
  5
6A
  8
NOTE
  6
CONTINUOUS
 62
     4
 10
93.0
 20
-74.0
 30
0.0
 11
93.0
 21
-34.0
 31
0.0
  0
LINE
  5
6B
  8
NOTE
  6
CONTINUOUS
 62
     4
 10
73.0
 20
-54.0
 30
0.0
 11
113.0
 21
-54.0
 31
0.0
  0
LINE
  5
6C
  8
NOTE
  6
CONTINUOUS
 62
     4
 10
-93.0
 20
-74.0
 30
0.0
 11
-93.0
 21
-34.0
 31
0.0
  0
LINE
  5
6D
  8
NOTE
  6
CONTINUOUS
 62
     4
 10
-113.0
 20
-54.0
 30
0.0
 11
-73.0
 21
-54.0
 31
0.0
  0
CIRCLE
  5
6E
  8
FIX
  6
CONTINUOUS
 62
    11
 10
-64.0
 20
64.0
 30
0.0
 40
2.25
  0
CIRCLE
  5
6F
  8
FIX
  6
CONTINUOUS
 62
    11
 10
64.0
 20
64.0
 30
0.0
 40
2.25
  0
CIRCLE
  5
70
  8
FIX
  6
CONTINUOUS
 62
    11
 10
-93.0
 20
-54.0
 30
0.0
 40
2.25
  0
CIRCLE
  5
71
  8
FIX
  6
CONTINUOUS
 62
    11
 10
93.0
 20
-54.0
 30
0.0
 40
2.25
  0
LINE
  5
72
  8
SIZE
  6
CONTINUOUS
 62
    30
 10
-20.999995999999999
 20
77.999998000000005
 30
0.0
 11
-263.360139
 21
77.999998000000005
 31
0.0
  0
LINE
  5
73
  8
SIZE
  6
CONTINUOUS
 62
    30
 10
-20.0
 20
68.0
 30
0.0
 11
-263.360139
 21
68.0
 31
0.0
  0
LINE
  5
74
  8
SIZE
  6
CONTINUOUS
 62
    30
 10
-233.360139
 20
75.999998000000005
 30
0.0
 11
-233.360139
 21
70.0
 31
0.0
  0
TEXT
  5
75
  8
SIZE
  6
CONTINUOUS
 62
    30
 10
-265.360139
 20
108.80236485714281
 30
0.0
 40
64.0
  1
10
 50
90.0
 41
0.9
 72
     1
 11
-265.360139
 21
149.945222
 31
0.0
  0
CIRCLE
  5
76
  8
SIZE
  6
CONTINUOUS
 62
    30
 10
-233.360139
 20
77.999998000000005
 30
0.0
 40
6.0
  0
CIRCLE
  5
77
  8
SIZE
  6
CONTINUOUS
 62
    30
 10
-233.360139
 20
68.0
 30
0.0
 40
6.0
  0
LINE
  5
7B
  8
SIZE
  6
CONTINUOUS
 62
    30
 10
-20.0
 20
78.0
 30
0.0
 11
-382.34910200000002
 21
78.0
 31
0.0
  0
LINE
  5
7C
  8
SIZE
  6
CONTINUOUS
 62
    30
 10
-96.121677000000005
 20
-123.0
 30
0.0
 11
-382.34910200000002
 21
-123.0
 31
0.0
  0
LINE
  5
7D
  8
SIZE
  6
CONTINUOUS
 62
    30
 10
-352.34910200000002
 20
78.0
 30
0.0
 11
-352.34910200000002
 21
-123.0
 31
0.0
  0
TEXT
  5
7E
  8
SIZE
  6
CONTINUOUS
 62
    30
 10
-384.34910200000002
 20
-84.214285714285694
 30
0.0
 40
64.0
  1
201
 50
90.0
 41
0.9
 72
     1
 11
-384.34910200000002
 21
-22.5
 31
0.0
  0
CIRCLE
  5
7F
  8
SIZE
  6
CONTINUOUS
 62
    30
 10
-352.34910200000002
 20
78.0
 30
0.0
 40
6.0
  0
CIRCLE
  5
80
  8
SIZE
  6
CONTINUOUS
 62
    30
 10
-352.34910200000002
 20
-123.0
 30
0.0
 40
6.0
  0
LINE
  5
84
  8
SIZE
  6
CONTINUOUS
 62
    30
 10
-123.0
 20
-101.0
 30
0.0
 11
-263.360139
 21
-101.0
 31
0.0
  0
LINE
  5
85
  8
SIZE
  6
CONTINUOUS
 62
    30
 10
-20.0
 20
68.0
 30
0.0
 11
-263.360139
 21
68.0
 31
0.0
  0
LINE
  5
86
  8
SIZE
  6
CONTINUOUS
 62
    30
 10
-233.360139
 20
-101.0
 30
0.0
 11
-233.360139
 21
78.0
 31
0.0
  0
TEXT
  5
87
  8
SIZE
  6
CONTINUOUS
 62
    30
 10
-265.360139
 20
-83.699999999999989
 30
0.0
 40
64.0
  1
169
 50
90.0
 41
0.9
 72
     1
 11
-265.360139
 21
-16.5
 31
0.0
  0
CIRCLE
  5
88
  8
SIZE
  6
CONTINUOUS
 62
    30
 10
-233.360139
 20
-101.0
 30
0.0
 40
6.0
  0
CIRCLE
  5
89
  8
SIZE
  6
CONTINUOUS
 62
    30
 10
-233.360139
 20
68.0
 30
0.0
 40
6.0
  0
LINE
  5
8D
  8
SIZE
  6
CONTINUOUS
 62
    30
 10
-233.360139
 20
77.999998000000005
 30
0.0
 11
-233.360139
 21
200.124539
 31
0.0
  0
LINE
  5
8E
  8
SIZE
  6
CONTINUOUS
 62
    30
 10
-103.0
 20
-126.637557
 30
0.0
 11
-103.0
 21
-438.85479099999981
 31
0.0
  0
LINE
  5
8F
  8
SIZE
  6
CONTINUOUS
 62
    30
 10
103.0
 20
-126.637557
 30
0.0
 11
103.0
 21
-438.85479099999981
 31
0.0
  0
LINE
  5
90
  8
SIZE
  6
CONTINUOUS
 62
    30
 10
-103.0
 20
-408.85479099999992
 30
0.0
 11
103.0
 21
-408.85479099999992
 31
0.0
  0
TEXT
  5
91
  8
SIZE
  6
CONTINUOUS
 62
    30
 10
-72.685714285714283
 20
-376.85479099999998
 30
0.0
 40
64.0
  1
206
 41
0.9
 72
     1
 11
0.0
 21
-376.85479099999998
 31
0.0
  0
CIRCLE
  5
92
  8
SIZE
  6
CONTINUOUS
 62
    30
 10
-103.0
 20
-408.85479099999992
 30
0.0
 40
6.0
  0
CIRCLE
  5
93
  8
SIZE
  6
CONTINUOUS
 62
    30
 10
103.0
 20
-408.85479099999992
 30
0.0
 40
6.0
  0
LINE
  5
97
  8
SIZE
  6
CONTINUOUS
 62
    30
 10
-98.0
 20
-121.0
 30
0.0
 11
-98.0
 21
-318.11245100000002
 31
0.0
  0
LINE
  5
98
  8
SIZE
  6
CONTINUOUS
 62
    30
 10
98.0
 20
-121.0
 30
0.0
 11
98.0
 21
-318.11245100000002
 31
0.0
  0
LINE
  5
99
  8
SIZE
  6
CONTINUOUS
 62
    30
 10
-98.0
 20
-288.11245100000002
 30
0.0
 11
98.0
 21
-288.11245100000002
 31
0.0
  0
TEXT
  5
9A
  8
SIZE
  6
CONTINUOUS
 62
    30
 10
-67.200000000000003
 20
-256.11245099999991
 30
0.0
 40
64.0
  1
196
 41
0.9
 72
     1
 11
0.0
 21
-256.11245099999991
 31
0.0
  0
CIRCLE
  5
9B
  8
SIZE
  6
CONTINUOUS
 62
    30
 10
-98.0
 20
-288.11245100000002
 30
0.0
 40
6.0
  0
CIRCLE
  5
9C
  8
SIZE
  6
CONTINUOUS
 62
    30
 10
98.0
 20
-288.11245100000002
 30
0.0
 40
6.0
  0
LINE
  5
A0
  8
NOTE
  6
CONTINUOUS
 62
     4
 10
64.0
 20
64.0
 30
0.0
 11
105.766766
 21
153.61874299999999
 31
0.0
  0
LINE
  5
A1
  8
NOTE
  6
CONTINUOUS
 62
     4
 10
70.426187999999996
 20
103.48042700000001
 30
0.0
 11
64.0
 21
64.0
 31
0.0
  0
LINE
  5
A2
  8
NOTE
  6
CONTINUOUS
 62
     4
 10
64.0
 20
64.0
 30
0.0
 11
89.305454999999995
 21
94.977958999999984
 31
0.0
  0
POINT
  5
A3
  8
ARRANGE
  6
CONTINUOUS
 62
     1
 10
0.0
 20
0.0
 30
0.0
  0
CIRCLE
  5
A4
  8
ARRANGE
  6
CONTINUOUS
 62
     1
 10
0.0
 20
0.0
 30
0.0
 40
40.0
  0
LINE
  5
A5
  8
OUTLINE
  6
CONTINUOUS
 62
     3
 10
-98.0
 20
-101.0
 30
0.0
 11
-103.0
 21
-101.0
 31
0.0
  0
LINE
  5
A6
  8
OUTLINE
  6
CONTINUOUS
 62
     3
 10
-103.0
 20
-106.637557
 30
0.0
 11
-103.0
 21
-101.0
 31
0.0
  0
LINE
  5
A7
  8
OUTLINE
  6
CONTINUOUS
 62
     3
 10
-103.0
 20
-106.637557
 30
0.0
 11
-93.442184999999995
 21
-116.955146
 31
0.0
  0
ARC
  5
A8
  8
OUTLINE
  6
CONTINUOUS
 62
     3
 10
-74.851246000000003
 20
-93.409934000000007
 30
0.0
 40
30.0
 50
231.70591899999999
 51
267.57293099999998
  0
LINE
  5
A9
  8
OUTLINE
  6
CONTINUOUS
 62
     3
 10
76.121677000000005
 20
-123.383022
 30
0.0
 11
-76.121677000000005
 21
-123.383022
 31
0.0
  0
LINE
  5
AA
  8
OUTLINE
  6
CONTINUOUS
 62
     3
 10
98.0
 20
-101.0
 30
0.0
 11
103.0
 21
-101.0
 31
0.0
  0
LINE
  5
AB
  8
OUTLINE
  6
CONTINUOUS
 62
     3
 10
103.0
 20
-106.637557
 30
0.0
 11
103.0
 21
-101.0
 31
0.0
  0
LINE
  5
AC
  8
OUTLINE
  6
CONTINUOUS
 62
     3
 10
103.0
 20
-106.637557
 30
0.0
 11
93.442184999999995
 21
-116.955146
 31
0.0
  0
ARC
  5
AD
  8
OUTLINE
  6
CONTINUOUS
 62
     3
 10
74.851246000000003
 20
-93.409934000000007
 30
0.0
 40
30.0
 50
272.42706900000002
 51
308.29408100000001
  0
LINE
  5
AE
  8
OUTLINE
  6
CONTINUOUS
 62
     3
 10
-98.0
 20
-60.816223000000001
 30
0.0
 11
-98.0
 21
-101.0
 31
0.0
  0
ARC
  5
AF
  8
OUTLINE
  6
CONTINUOUS
 62
     3
 10
-51.863062999999997
 20
30.939088000000002
 30
0.0
 40
40.0
 50
105.505768
 51
172.3470879999999
  0
ARC
  5
B0
  8
OUTLINE
  6
CONTINUOUS
 62
     3
 10
631.0
 20
-60.816223000000001
 30
0.0
 40
729.0
 50
172.3470879999999
 51
180.0
  0
ARC
  5
B1
  8
OUTLINE
  6
CONTINUOUS
 62
     3
 10
0.0
 20
-156.0
 30
0.0
 40
234.0
 50
90.0
 51
105.505768
  0
LINE
  5
B2
  8
OUTLINE
  6
CONTINUOUS
 62
     3
 10
98.0
 20
-60.816223000000001
 30
0.0
 11
98.0
 21
-101.0
 31
0.0
  0
ARC
  5
B3
  8
OUTLINE
  6
CONTINUOUS
 62
     3
 10
51.863062999999997
 20
30.939088000000002
 30
0.0
 40
40.0
 50
7.6529119999999988
 51
74.494231999999982
  0
ARC
  5
B4
  8
OUTLINE
  6
CONTINUOUS
 62
     3
 10
-631.0
 20
-60.816223000000001
 30
0.0
 40
729.0
 50
0.0
 51
7.6529119999999988
  0
ARC
  5
B5
  8
OUTLINE
  6
CONTINUOUS
 62
     3
 10
0.0
 20
-156.0
 30
0.0
 40
234.0
 50
74.494231999999982
 51
90.0
  0
TEXT
  5
B6
  8
NOTE
  6
CONTINUOUS
 62
     4
 10
166.63667357700521
 20
184.04190896911129
 30
0.0
 40
50.0
  1
4×φ4.5ノックアウト取付穴
 41
0.9
  0
LINE
  5
B7
  8
NOTE
  6
CONTINUOUS
 62
     4
 10
105.766766
 20
153.61874299999999
 30
0.0
 11
950.0
 21
153.61874299999999
 31
0.0
  0
LINE
  5
B8
  8
SIZE
  6
CONTINUOUS
 62
    30
 10
-64.0
 20
84.0
 30
0.0
 11
-64.0
 21
182.97132099999999
 31
0.0
  0
LINE
  5
B9
  8
SIZE
  6
CONTINUOUS
 62
    30
 10
64.0
 20
84.0
 30
0.0
 11
64.0
 21
182.97132099999999
 31
0.0
  0
LINE
  5
BA
  8
SIZE
  6
CONTINUOUS
 62
    30
 10
-64.0
 20
152.97132099999999
 30
0.0
 11
64.0
 21
152.97132099999999
 31
0.0
  0
TEXT
  5
BB
  8
SIZE
  6
CONTINUOUS
 62
    30
 10
-68.571428571428569
 20
200.42787000000001
 30
0.0
 40
64.0
  1
128
 41
0.9
 72
     1
 11
0.0
 21
200.42787000000001
 31
0.0
  0
CIRCLE
  5
BC
  8
SIZE
  6
CONTINUOUS
 62
    30
 10
-64.0
 20
152.97132099999999
 30
0.0
 40
6.0
  0
CIRCLE
  5
BD
  8
SIZE
  6
CONTINUOUS
 62
    30
 10
64.0
 20
152.97132099999999
 30
0.0
 40
6.0
  0
LINE
  5
C1
  8
SIZE
  6
CONTINUOUS
 62
    30
 10
-93.0
 20
-34.0
 30
0.0
 11
-93.0
 21
343.80961400000001
 31
0.0
  0
LINE
  5
C2
  8
SIZE
  6
CONTINUOUS
 62
    30
 10
93.0
 20
-34.0
 30
0.0
 11
93.0
 21
343.80961400000001
 31
0.0
  0
LINE
  5
C3
  8
SIZE
  6
CONTINUOUS
 62
    30
 10
-93.0
 20
313.80961400000001
 30
0.0
 11
93.0
 21
313.80961400000001
 31
0.0
  0
TEXT
  5
C4
  8
SIZE
  6
CONTINUOUS
 62
    30
 10
-67.200000000000003
 20
337.81932599999999
 30
0.0
 40
64.0
  1
186
 41
0.9
 72
     1
 11
0.0
 21
337.81932599999999
 31
0.0
  0
CIRCLE
  5
C5
  8
SIZE
  6
CONTINUOUS
 62
    30
 10
-93.0
 20
313.80961400000001
 30
0.0
 40
6.0
  0
CIRCLE
  5
C6
  8
SIZE
  6
CONTINUOUS
 62
    30
 10
93.0
 20
313.80961400000001
 30
0.0
 40
6.0
  0
LINE
  5
CA
  8
SIZE
  6
CONTINUOUS
 62
    30
 10
84.0
 20
64.0
 30
0.0
 11
270.879751
 21
64.0
 31
0.0
  0
LINE
  5
CB
  8
SIZE
  6
CONTINUOUS
 62
    30
 10
94.974350000000015
 20
0.0
 30
0.0
 11
270.879751
 21
0.0
 31
0.0
  0
LINE
  5
CC
  8
SIZE
  6
CONTINUOUS
 62
    30
 10
240.87975099999991
 20
64.0
 30
0.0
 11
240.879751
 21
2.0
 31
0.0
  0
TEXT
  5
CD
  8
SIZE
  6
CONTINUOUS
 62
    30
 10
227.655766
 20
-184.77828600000001
 30
0.0
 40
64.0
  1
64
 50
90.0
 41
0.9
 72
     1
 11
227.655766
 21
-136.77828600000001
 31
0.0
  0
CIRCLE
  5
CE
  8
SIZE
  6
CONTINUOUS
 62
    30
 10
240.879751
 20
64.0
 30
0.0
 40
6.0
  0
CIRCLE
  5
CF
  8
SIZE
  6
CONTINUOUS
 62
    30
 10
240.879751
 20
0.0
 30
0.0
 40
6.0
  0
LINE
  5
D3
  8
SIZE
  6
CONTINUOUS
 62
    30
 10
20.0
 20
78.0
 30
0.0
 11
401.89454599999999
 21
78.0
 31
0.0
  0
LINE
  5
D4
  8
SIZE
  6
CONTINUOUS
 62
    30
 10
105.423329
 20
0.0
 30
0.0
 11
401.89454599999999
 21
0.0
 31
0.0
  0
LINE
  5
D5
  8
SIZE
  6
CONTINUOUS
 62
    30
 10
371.89454599999999
 20
78.0
 30
0.0
 11
371.89454599999999
 21
2.0
 31
0.0
  0
TEXT
  5
D6
  8
SIZE
  6
CONTINUOUS
 62
    30
 10
357.24293799999998
 20
-187.10775442857141
 30
0.0
 40
64.0
  1
78
 50
90.0
 41
0.9
 72
     1
 11
357.24293799999998
 21
-140.47918300000001
 31
0.0
  0
CIRCLE
  5
D7
  8
SIZE
  6
CONTINUOUS
 62
    30
 10
371.89454599999999
 20
78.0
 30
0.0
 40
6.0
  0
CIRCLE
  5
D8
  8
SIZE
  6
CONTINUOUS
 62
    30
 10
371.89454599999999
 20
0.0
 30
0.0
 40
6.0
  0
LINE
  5
DC
  8
SIZE
  6
CONTINUOUS
 62
    30
 10
84.0
 20
64.0
 30
0.0
 11
555.20702100000005
 21
64.0
 31
0.0
  0
LINE
  5
DD
  8
SIZE
  6
CONTINUOUS
 62
    30
 10
113.0
 20
-54.0
 30
0.0
 11
555.20702100000005
 21
-54.0
 31
0.0
  0
LINE
  5
DE
  8
SIZE
  6
CONTINUOUS
 62
    30
 10
525.20702100000005
 20
64.0
 30
0.0
 11
525.20702100000005
 21
-52.0
 31
0.0
  0
TEXT
  5
DF
  8
SIZE
  6
CONTINUOUS
 62
    30
 10
507.81088799999998
 20
-212.20031728571431
 30
0.0
 40
64.0
  1
118
 50
90.0
 41
0.9
 72
     1
 11
507.81088799999998
 21
-149.11460299999999
 31
0.0
  0
CIRCLE
  5
E0
  8
SIZE
  6
CONTINUOUS
 62
    30
 10
525.20702100000005
 20
64.0
 30
0.0
 40
6.0
  0
CIRCLE
  5
E1
  8
SIZE
  6
CONTINUOUS
 62
    30
 10
525.20702100000005
 20
-54.0
 30
0.0
 40
6.0
  0
LINE
  5
E5
  8
SIZE
  6
CONTINUOUS
 62
    30
 10
240.879751
 20
2.0
 30
0.0
 11
240.879751
 21
-195.932253
 31
0.0
  0
LINE
  5
E6
  8
SIZE
  6
CONTINUOUS
 62
    30
 10
371.89454599999999
 20
2.0
 30
0.0
 11
371.89454599999999
 21
-211.83253099999999
 31
0.0
  0
LINE
  5
E7
  8
SIZE
  6
CONTINUOUS
 62
    30
 10
525.20702100000005
 20
-52.0
 30
0.0
 11
525.20702100000005
 21
-225.66295700000001
 31
0.0
  0
TEXT
  5
357
  8
ETC
  6
CONTINUOUS
 62
    61
 10
364.87433028647177
 20
651.98043929077778
 30
0.0
 40
50.0
  1
システム部材
 41
0.9
  0
TEXT
  5
358
  8
ETC
  6
CONTINUOUS
 62
    61
 10
376.76999481509438
 20
733.69927072745361
 30
0.0
 40
50.0
  1
P-13VSD3_2
 41
0.9
  0
TEXT
  5
359
  8
ETC
  6
CONTINUOUS
 62
    61
 10
487.0173575882668
 20
588.77379560943575
 30
0.0
 40
40.0
  1
P-13VSD3
 41
0.9
  0
TEXT
  5
35A
  8
ETC
  6
CONTINUOUS
 62
    61
 10
487.0173575882668
 20
522.1071296094359
 30
0.0
 40
40.0
  1
P-13VSD3-BL
 41
0.9
  0
TEXT
  5
35B
  8
ETC
  6
CONTINUOUS
 62
    61
 10
487.02096388432761
 20
324.89778474134607
 30
0.0
 40
40.0
  1
P-13VSSQD3-AF
 41
0.9
  0
TEXT
  5
35C
  8
ETC
  6
CONTINUOUS
 62
    61
 10
487.02096388432761
 20
452.41170952374648
 30
0.0
 40
40.0
  1
P-13VSQD3
 41
0.9
  0
TEXT
  5
35D
  8
ETC
  6
CONTINUOUS
 62
    61
 10
487.02096388432761
 20
389.92950688951481
 30
0.0
 40
40.0
  1
P-13VSD3-AF
 41
0.9
  0
ENDSEC
  0
EOF
