  0
SECTION
  2
HEADER
  9
$ACADVER
  1
AC1009
  9
$INSBASE
 10
0.0
 20
0.0
 30
0.0
  9
$EXTMIN
 10
-931.1828379649487
 20
-389.73997340041751
 30
-0.0000000000112498
  9
$EXTMAX
 10
792.11427340297075
 20
760.44617825006753
 30
0.0000000000002956
  9
$LIMMIN
 10
-4200.0
 20
-2970.0
  9
$LIMMAX
 10
4200.0
 20
2970.0
  9
$ORTHOMODE
 70
     1
  9
$REGENMODE
 70
     1
  9
$FILLMODE
 70
     1
  9
$QTEXTMODE
 70
     0
  9
$MIRRTEXT
 70
     0
  9
$DRAGMODE
 70
     2
  9
$LTSCALE
 40
20.0
  9
$OSMODE
 70
    47
  9
$ATTMODE
 70
     1
  9
$TEXTSIZE
 40
64.0
  9
$TRACEWID
 40
0.05
  9
$TEXTSTYLE
  7
STANDARD
  9
$CLAYER
  8
ETC
  9
$CELTYPE
  6
CONTINUOUS
  9
$CECOLOR
 62
     3
  9
$DIMSCALE
 40
1.0
  9
$DIMASZ
 40
2.0
  9
$DIMEXO
 40
20.0
  9
$DIMDLI
 40
200.0
  9
$DIMRND
 40
0.0
  9
$DIMDLE
 40
0.0
  9
$DIMEXE
 40
30.0
  9
$DIMTP
 40
0.0
  9
$DIMTM
 40
0.0
  9
$DIMTXT
 40
64.0
  9
$DIMCEN
 40
0.09
  9
$DIMTSZ
 40
0.0
  9
$DIMTOL
 70
     0
  9
$DIMLIM
 70
     0
  9
$DIMTIH
 70
     0
  9
$DIMTOH
 70
     0
  9
$DIMSE1
 70
     0
  9
$DIMSE2
 70
     0
  9
$DIMTAD
 70
     1
  9
$DIMZIN
 70
     8
  9
$DIMBLK
  1
DOT1
  9
$DIMASO
 70
     1
  9
$DIMSHO
 70
     0
  9
$DIMPOST
  1

  9
$DIMAPOST
  1

  9
$DIMALT
 70
     0
  9
$DIMALTD
 70
     2
  9
$DIMALTF
 40
25.399999999999999
  9
$DIMLFAC
 40
1.0
  9
$DIMTOFL
 70
     1
  9
$DIMTVP
 40
0.0
  9
$DIMTIX
 70
     1
  9
$DIMSOXD
 70
     0
  9
$DIMSAH
 70
     0
  9
$DIMBLK1
  1

  9
$DIMBLK2
  1

  9
$DIMSTYLE
  2
STANDARD
  9
$DIMCLRD
 70
     7
  9
$DIMCLRE
 70
     7
  9
$DIMCLRT
 70
     7
  9
$DIMTFAC
 40
1.0
  9
$DIMGAP
 40
0.09
  9
$LUNITS
 70
     2
  9
$LUPREC
 70
     4
  9
$SKETCHINC
 40
0.1
  9
$FILLETRAD
 40
10.0
  9
$AUNITS
 70
     1
  9
$AUPREC
 70
     3
  9
$MENU
  1
ACAD
  9
$ELEVATION
 40
0.0
  9
$PELEVATION
 40
0.0
  9
$THICKNESS
 40
0.0
  9
$LIMCHECK
 70
     1
  9
$BLIPMODE
 70
     0
  9
$CHAMFERA
 40
0.0
  9
$CHAMFERB
 40
0.0
  9
$SKPOLY
 70
     0
  9
$TDCREATE
 40
2451606.621631945
  9
$TDUPDATE
 40
2455075.4158454281
  9
$TDINDWG
 40
0.3207269444
  9
$TDUSRTIMER
 40
0.3207267708
  9
$USRTIMER
 70
     1
  9
$ANGBASE
 50
0.0
  9
$ANGDIR
 70
     0
  9
$PDMODE
 70
     3
  9
$PDSIZE
 40
-2.0
  9
$PLINEWID
 40
0.0
  9
$COORDS
 70
     0
  9
$SPLFRAME
 70
     0
  9
$SPLINETYPE
 70
     6
  9
$SPLINESEGS
 70
     8
  9
$ATTDIA
 70
     0
  9
$ATTREQ
 70
     1
  9
$HANDLING
 70
     1
  9
$HANDSEED
  5
4B8
  9
$SURFTAB1
 70
     6
  9
$SURFTAB2
 70
     6
  9
$SURFTYPE
 70
     6
  9
$SURFU
 70
     6
  9
$SURFV
 70
     6
  9
$UCSNAME
  2

  9
$UCSORG
 10
0.0
 20
0.0
 30
0.0
  9
$UCSXDIR
 10
1.0
 20
0.0
 30
0.0
  9
$UCSYDIR
 10
0.0
 20
1.0
 30
0.0
  9
$PUCSNAME
  2

  9
$PUCSORG
 10
0.0
 20
0.0
 30
0.0
  9
$PUCSXDIR
 10
1.0
 20
0.0
 30
0.0
  9
$PUCSYDIR
 10
0.0
 20
1.0
 30
0.0
  9
$USERI1
 70
     0
  9
$USERI2
 70
     0
  9
$USERI3
 70
     0
  9
$USERI4
 70
     0
  9
$USERI5
 70
     0
  9
$USERR1
 40
20.0
  9
$USERR2
 40
0.0
  9
$USERR3
 40
0.0
  9
$USERR4
 40
0.0
  9
$USERR5
 40
0.0
  9
$WORLDVIEW
 70
     1
  9
$SHADEDGE
 70
     3
  9
$SHADEDIF
 70
    70
  9
$TILEMODE
 70
     1
  9
$MAXACTVP
 70
    48
  9
$PLIMCHECK
 70
     0
  9
$PEXTMIN
 10
-1.0000000000000000E+020
 20
-1.0000000000000000E+020
 30
-1.0000000000000000E+020
  9
$PEXTMAX
 10
1.0000000000000000E+020
 20
1.0000000000000000E+020
 30
1.0000000000000000E+020
  9
$PLIMMIN
 10
0.0
 20
0.0
  9
$PLIMMAX
 10
12.0
 20
9.0
  9
$UNITMODE
 70
     0
  9
$VISRETAIN
 70
     0
  9
$PLINEGEN
 70
     0
  9
$PSLTSCALE
 70
     0
  0
ENDSEC
  0
SECTION
  2
TABLES
  0
TABLE
  2
VPORT
 70
     1
  0
VPORT
  2
*ACTIVE
 70
     0
 10
0.0
 20
0.0
 11
1.0
 21
1.0
 12
-62.913424173170817
 22
150.86455092181171
 13
0.0
 23
0.0
 14
400.0
 24
400.0
 15
400.0
 25
400.0
 16
0.0
 26
0.0
 36
1.0
 17
0.0
 27
0.0
 37
0.0
 40
1499.6147551459969
 41
1.2982954545454539
 42
50.0
 43
0.0
 44
0.0
 50
0.0
 51
0.0
 71
     0
 72
   500
 73
     1
 74
     0
 75
     0
 76
     0
 77
     0
 78
     0
  0
ENDTAB
  0
TABLE
  2
LTYPE
 70
     3
  0
LTYPE
  2
CONTINUOUS
 70
     0
  3
実線
 72
    65
 73
     0
 40
0.0
  0
LTYPE
  2
DASHDOT
 70
     0
  3
____ _ ____ _ ____ _ ____ _ ____ _ ____ _ ____
 72
    65
 73
     4
 40
5.5
 49
4.0
 49
-0.6
 49
0.3
 49
-0.6
  0
ENDTAB
  0
TABLE
  2
LAYER
 70
    12
  0
LAYER
  2
0
 70
     0
 62
     7
  6
CONTINUOUS
  0
LAYER
  2
ETC
 70
     0
 62
    61
  6
CONTINUOUS
  0
LAYER
  2
OUTLINE
 70
     0
 62
     3
  6
CONTINUOUS
  0
LAYER
  2
SIZE
 70
     0
 62
    30
  6
CONTINUOUS
  0
LAYER
  2
DETAIL
 70
     0
 62
     5
  6
CONTINUOUS
  0
LAYER
  2
BASIS
 70
     0
 62
     6
  6
DASHDOT
  0
LAYER
  2
NOTE
 70
     0
 62
     4
  6
CONTINUOUS
  0
LAYER
  2
ARRANGE
 70
     0
 62
     1
  6
CONTINUOUS
  0
LAYER
  2
FIX
 70
     0
 62
    11
  6
CONTINUOUS
  0
LAYER
  2
DEFPOINTS
 70
     0
 62
     7
  6
CONTINUOUS
  0
LAYER
  2
SERVICESPACE
 70
     0
 62
     2
  6
DASHDOT
  0
LAYER
  2
SYMBOLLINE
 70
     0
 62
    15
  6
CONTINUOUS
  0
ENDTAB
  0
TABLE
  2
STYLE
 70
     2
  0
STYLE
  2
STANDARD
 70
     0
 40
0.0
 41
0.9
 50
0.0
 71
     0
 42
64.0
  3
SIMPLEX
  4
BIGFONT
  0
STYLE
  2
ANNOTATIVE
 70
     0
 40
0.0
 41
1.0
 50
0.0
 71
     0
 42
0.2
  3
txt
  4

  0
ENDTAB
  0
TABLE
  2
VIEW
 70
     1
  0
VIEW
  2
ALL
 70
     0
 40
6374.9789810000002
 10
0.0
 20
58.11501599999999
 41
8842.1052629999976
 11
0.0
 21
0.0
 31
1.0
 12
0.0
 22
0.0
 32
0.0
 42
50.0
 43
0.0
 44
0.0
 50
0.0
 71
     0
  0
ENDTAB
  0
TABLE
  2
UCS
 70
     0
  0
ENDTAB
  0
TABLE
  2
APPID
 70
     4
  0
APPID
  2
ACAD
 70
     0
  0
APPID
  2
ACADANNOTATIVE
 70
     0
  0
APPID
  2
ACAD_MLEADERVER
 70
     0
  0
APPID
  2
ACAD_EXEMPT_FROM_CAD_STANDARDS
 70
     0
  0
ENDTAB
  0
TABLE
  2
DIMSTYLE
 70
     3
  0
DIMSTYLE
  2
STANDARD
 70
     0
  3

  4

  5

  6

  7

 40
1.0
 41
0.18
 42
0.0625
 43
0.38
 44
0.18
 45
0.0
 46
0.0
 47
0.0
 48
0.0
140
0.18
141
0.09
142
0.0
143
25.399999999999999
144
1.0
145
0.0
146
1.0
147
0.09
 71
     0
 72
     0
 73
     1
 74
     1
 75
     0
 76
     0
 77
     0
 78
     0
170
     0
171
     2
172
     0
173
     0
174
     0
175
     0
176
     7
177
     7
178
     7
  0
DIMSTYLE
  2
ANNOTATIVE
 70
     0
  3

  4

  5

  6

  7

 40
1.0
 41
0.18
 42
0.0625
 43
0.38
 44
0.18
 45
0.0
 46
0.0
 47
0.0
 48
0.0
140
0.18
141
0.09
142
0.0
143
25.399999999999999
144
1.0
145
0.0
146
1.0
147
0.09
 71
     0
 72
     0
 73
     1
 74
     1
 75
     0
 76
     0
 77
     0
 78
     0
170
     0
171
     2
172
     0
173
     0
174
     0
175
     0
176
     0
177
     0
178
     0
  0
ENDTAB
  0
ENDSEC
  0
SECTION
  2
BLOCKS
  0
BLOCK
  8
0
  2
$MODEL_SPACE
 70
     0
 10
0.0
 20
0.0
 30
0.0
  3
$MODEL_SPACE
  1

  0
ENDBLK
  5
44B
  8
0
  0
BLOCK
 67
     1
  8
0
  2
$PAPER_SPACE
 70
     0
 10
0.0
 20
0.0
 30
0.0
  3
$PAPER_SPACE
  1

  0
ENDBLK
  5
447
 67
     1
  8
0
  0
BLOCK
  8
SIZE
  2
DOT1
 70
     0
 10
0.0
 20
0.0
 30
0.0
  3
DOT1
  1

  0
CIRCLE
  5
169
  8
SIZE
  6
CONTINUOUS
 62
     8
 10
0.0
 20
0.0
 30
0.0
 40
3.0
  0
ENDBLK
  5
16A
  8
SIZE
  0
ENDSEC
  0
SECTION
  2
ENTITIES
  0
LINE
  5
16B
  8
DETAIL
  6
CONTINUOUS
 62
     5
 10
-3.0
 20
-101.0
 30
0.0
 11
-3.0
 21
-105.4717879999999
 31
0.0
  0
LINE
  5
16C
  8
DETAIL
  6
CONTINUOUS
 62
     5
 10
-3.0
 20
-105.4717879999999
 30
0.0
 11
-12.339556
 21
-116.572124
 31
0.0
  0
LINE
  5
16D
  8
DETAIL
  6
CONTINUOUS
 62
     5
 10
-20.0
 20
-123.0
 30
0.0
 11
-19.678605999999991
 21
-123.3830219999999
 31
0.0
  0
LINE
  5
16E
  8
DETAIL
  6
CONTINUOUS
 62
     5
 10
0.0
 20
-106.870711
 30
0.0
 11
-19.678605999999991
 21
-123.3830219999999
 31
0.0
  0
LINE
  5
16F
  8
DETAIL
  6
CONTINUOUS
 62
     5
 10
-12.339556
 20
-116.572124
 30
0.0
 11
-20.0
 21
-123.0
 31
0.0
  0
LINE
  5
170
  8
DETAIL
  6
CONTINUOUS
 62
     5
 10
-7.1452159999999987
 20
-102.08960399999999
 30
0.0
 11
-5.9629769999999986
 21
-101.0
 31
0.0
  0
LINE
  5
171
  8
DETAIL
  6
CONTINUOUS
 62
     5
 10
-7.1452159999999987
 20
-102.08960399999999
 30
0.0
 11
-83.65398399999998
 21
-124.172725
 31
0.0
  0
LINE
  5
172
  8
DETAIL
  6
CONTINUOUS
 62
     5
 10
0.0
 20
-100.775092
 30
0.0
 11
0.0
 21
-106.870711
 31
0.0
  0
ARC
  5
173
  8
DETAIL
  6
CONTINUOUS
 62
     5
 10
-6.0
 20
76.0
 30
0.0
 40
2.0
 50
90.0
 51
180.0
  0
LINE
  5
174
  8
DETAIL
  6
CONTINUOUS
 62
     5
 10
-6.0
 20
-101.0
 30
0.0
 11
0.0
 21
-101.0
 31
0.0
  0
ARC
  5
175
  8
DETAIL
  6
CONTINUOUS
 62
     5
 10
185.0
 20
-38.752048999999992
 30
0.0
 40
263.18751800000001
 50
169.41113899999991
 51
180.0
  0
LINE
  5
176
  8
DETAIL
  6
CONTINUOUS
 62
     5
 10
-78.187518000000026
 20
-38.752048999999992
 30
0.0
 11
-78.187518000000026
 21
-121.03367799999999
 31
0.0
  0
ARC
  5
177
  8
DETAIL
  6
CONTINUOUS
 62
     5
 10
185.0
 20
-38.752048999999992
 30
0.0
 40
270.0
 50
169.41113899999991
 51
180.0
  0
ARC
  5
178
  8
DETAIL
  6
CONTINUOUS
 62
     5
 10
-11.594219000000001
 20
-2.0
 30
0.0
 40
70.0
 50
90.0
 51
169.41113899999991
  0
LINE
  5
179
  8
DETAIL
  6
CONTINUOUS
 62
     5
 10
-11.594219000000001
 20
68.0
 30
0.0
 11
-8.0
 21
68.0
 31
0.0
  0
LINE
  5
17A
  8
DETAIL
  6
CONTINUOUS
 62
     5
 10
-85.0
 20
-123.0
 30
0.0
 11
-85.0
 21
-38.752048999999992
 31
0.0
  0
LINE
  5
17B
  8
DETAIL
  6
CONTINUOUS
 62
     5
 10
-6.0
 20
78.0
 30
0.0
 11
0.0
 21
78.0
 31
0.0
  0
LINE
  5
17C
  8
DETAIL
  6
CONTINUOUS
 62
     5
 10
-8.0
 20
-99.0
 30
0.0
 11
-8.0
 21
76.0
 31
0.0
  0
LINE
  5
17D
  8
DETAIL
  6
CONTINUOUS
 62
     5
 10
0.0
 20
-100.775092
 30
0.0
 11
0.0
 21
0.0
 31
0.0
  0
LINE
  5
17E
  8
DETAIL
  6
CONTINUOUS
 62
     5
 10
0.0
 20
0.0
 30
0.0
 11
0.0
 21
78.0
 31
0.0
  0
LINE
  5
17F
  8
DETAIL
  6
CONTINUOUS
 62
     5
 10
-7.2524149999999983
 20
-100.559313
 30
0.0
 11
-85.0
 21
-123.0
 31
0.0
  0
ARC
  5
180
  8
DETAIL
  6
CONTINUOUS
 62
     5
 10
-6.0
 20
-99.0
 30
0.0
 40
2.0
 50
180.0
 51
270.0
  0
LINE
  5
181
  8
DETAIL
  6
CONTINUOUS
 62
     5
 10
54.0
 20
-49.0
 30
0.0
 11
54.0
 21
48.0
 31
0.0
  0
LINE
  5
182
  8
DETAIL
  6
CONTINUOUS
 62
     5
 10
0.0
 20
48.0
 30
0.0
 11
54.0
 21
48.0
 31
0.0
  0
LINE
  5
183
  8
DETAIL
  6
CONTINUOUS
 62
     5
 10
0.0
 20
-49.0
 30
0.0
 11
54.0
 21
-49.0
 31
0.0
  0
LINE
  5
184
  8
DETAIL
  6
CONTINUOUS
 62
     5
 10
-84.070088999999996
 20
-122.736462
 30
0.0
 11
-75.041363000000004
 21
-120.1207209999999
 31
0.0
  0
LINE
  5
185
  8
DETAIL
  6
CONTINUOUS
 62
     5
 10
-84.070088999999996
 20
-122.736462
 30
0.0
 11
-83.65398399999998
 21
-124.172725
 31
0.0
  0
LINE
  5
186
  8
BASIS
  6
DASHDOT
 62
     6
 10
-136.314266
 20
0.0
 30
0.0
 11
90.203762999999995
 21
0.0
 31
0.0
  0
LINE
  5
187
  8
SIZE
  6
CONTINUOUS
 62
    30
 10
-105.0
 20
-123.0
 30
0.0
 11
-315.20351799999997
 21
-123.0
 31
0.0
  0
LINE
  5
188
  8
SIZE
  6
CONTINUOUS
 62
    30
 10
-20.0
 20
78.0
 30
0.0
 11
-315.20351799999997
 21
78.0
 31
0.0
  0
LINE
  5
189
  8
SIZE
  6
CONTINUOUS
 62
    30
 10
-285.20351799999997
 20
-123.0
 30
0.0
 11
-285.20351799999997
 21
78.0
 31
0.0
  0
TEXT
  5
18A
  8
SIZE
  6
CONTINUOUS
 62
    30
 10
-317.20351799999997
 20
-83.048049714285696
 30
0.0
 40
64.0
  1
201
 50
90.0
 41
0.9
 72
     1
 11
-317.20351799999997
 21
-21.333763999999999
 31
0.0
  0
CIRCLE
  5
18B
  8
SIZE
  6
CONTINUOUS
 62
    30
 10
-285.20351799999997
 20
-123.0
 30
0.0
 40
6.0
  0
CIRCLE
  5
18C
  8
SIZE
  6
CONTINUOUS
 62
    30
 10
-285.20351799999997
 20
78.0
 30
0.0
 40
6.0
  0
LINE
  5
18D
  8
SIZE
  6
CONTINUOUS
 62
    30
 10
0.0
 20
98.0
 30
0.0
 11
0.0
 21
204.66712699999999
 31
0.0
  0
LINE
  5
18E
  8
SIZE
  6
CONTINUOUS
 62
    30
 10
-8.0
 20
96.0
 30
0.0
 11
-8.0
 21
204.66712699999999
 31
0.0
  0
LINE
  5
18F
  8
SIZE
  6
CONTINUOUS
 62
    30
 10
-2.0
 20
174.66712699999999
 30
0.0
 11
-6.0
 21
174.66712699999999
 31
0.0
  0
TEXT
  5
190
  8
SIZE
  6
CONTINUOUS
 62
    30
 10
-72.773922999999996
 20
189.27700200000001
 30
0.0
 40
64.0
  1
8
 41
0.9
 72
     1
 11
-53.573923000000001
 21
189.27700200000001
 31
0.0
  0
CIRCLE
  5
191
  8
SIZE
  6
CONTINUOUS
 62
    30
 10
0.0
 20
174.66712699999999
 30
0.0
 40
6.0
  0
CIRCLE
  5
192
  8
SIZE
  6
CONTINUOUS
 62
    30
 10
-8.0
 20
174.66712699999999
 30
0.0
 40
6.0
  0
LINE
  5
193
  8
SIZE
  6
CONTINUOUS
 62
    30
 10
-85.0
 20
-143.0
 30
0.0
 11
-85.0
 21
-389.71425899999991
 31
0.0
  0
LINE
  5
194
  8
SIZE
  6
CONTINUOUS
 62
    30
 10
0.0
 20
-126.870711
 30
0.0
 11
0.0
 21
-389.71425899999991
 31
0.0
  0
LINE
  5
195
  8
SIZE
  6
CONTINUOUS
 62
    30
 10
-85.0
 20
-359.71425899999991
 30
0.0
 11
-2.0
 21
-359.71425899999991
 31
0.0
  0
TEXT
  5
196
  8
SIZE
  6
CONTINUOUS
 62
    30
 10
-213.58080642857141
 20
-327.71425899999991
 30
0.0
 40
64.0
  1
85
 41
0.9
 72
     1
 11
-166.952235
 21
-327.71425899999991
 31
0.0
  0
CIRCLE
  5
197
  8
SIZE
  6
CONTINUOUS
 62
    30
 10
-85.0
 20
-359.71425899999991
 30
0.0
 40
6.0
  0
CIRCLE
  5
198
  8
SIZE
  6
CONTINUOUS
 62
    30
 10
0.0
 20
-359.71425899999991
 30
0.0
 40
6.0
  0
LINE
  5
199
  8
SIZE
  6
CONTINUOUS
 62
    30
 10
45.0
 20
-359.71425899999991
 30
0.0
 11
181.7722039999999
 21
-359.71425899999991
 31
0.0
  0
LINE
  5
19A
  8
SIZE
  6
CONTINUOUS
 62
    30
 10
-85.0
 20
-359.71425899999991
 30
0.0
 11
-223.404673
 21
-359.71425899999991
 31
0.0
  0
LINE
  5
19B
  8
SIZE
  6
CONTINUOUS
 62
    30
 10
0.0
 20
-126.870711
 30
0.0
 11
0.0
 21
-266.078034
 31
0.0
  0
LINE
  5
19C
  8
SIZE
  6
CONTINUOUS
 62
    30
 10
-20.0
 20
-143.0
 30
0.0
 11
-20.0
 21
-266.078034
 31
0.0
  0
LINE
  5
19D
  8
SIZE
  6
CONTINUOUS
 62
    30
 10
-2.0
 20
-236.07803399999989
 30
0.0
 11
-20.0
 21
-236.07803399999989
 31
0.0
  0
TEXT
  5
19E
  8
SIZE
  6
CONTINUOUS
 62
    30
 10
81.275228571428585
 20
-204.07803399999989
 30
0.0
 40
64.0
  1
20
 41
0.9
 72
     1
 11
127.9038
 21
-204.07803399999989
 31
0.0
  0
CIRCLE
  5
19F
  8
SIZE
  6
CONTINUOUS
 62
    30
 10
0.0
 20
-236.07803399999989
 30
0.0
 40
6.0
  0
CIRCLE
  5
1A0
  8
SIZE
  6
CONTINUOUS
 62
    30
 10
-20.0
 20
-236.07803399999989
 30
0.0
 40
6.0
  0
LINE
  5
1A1
  8
SIZE
  6
CONTINUOUS
 62
    30
 10
-2.776586999999997
 20
-236.07803399999989
 30
0.0
 11
183.501249
 21
-236.07803399999989
 31
0.0
  0
LINE
  5
1A2
  8
NOTE
  6
CONTINUOUS
 62
     4
 10
-4.0
 20
44.0
 30
0.0
 11
-4.0
 21
84.0
 31
0.0
  0
LINE
  5
1A3
  8
NOTE
  6
CONTINUOUS
 62
     4
 10
-24.0
 20
64.0
 30
0.0
 11
16.0
 21
64.0
 31
0.0
  0
LINE
  5
1A4
  8
NOTE
  6
CONTINUOUS
 62
     4
 10
-4.0
 20
-74.0
 30
0.0
 11
-4.0
 21
-34.0
 31
0.0
  0
LINE
  5
1A5
  8
NOTE
  6
CONTINUOUS
 62
     4
 10
-24.0
 20
-54.0
 30
0.0
 11
16.0
 21
-54.0
 31
0.0
  0
CIRCLE
  5
1A6
  8
FIX
  6
CONTINUOUS
 62
    11
 10
-4.0
 20
64.0
 30
0.0
 40
2.25
  0
CIRCLE
  5
1A7
  8
FIX
  6
CONTINUOUS
 62
    11
 10
-4.0
 20
-54.0
 30
0.0
 40
2.25
  0
LINE
  5
1A8
  8
NOTE
  6
CONTINUOUS
 62
     4
 10
-4.0
 20
64.0
 30
0.0
 11
-195.7010667088671
 21
366.39215882298498
 31
0.0
  0
LINE
  5
1A9
  8
NOTE
  6
CONTINUOUS
 62
     4
 10
-12.09849799999999
 20
103.171601
 30
0.0
 11
-4.0
 21
64.0
 31
0.0
  0
LINE
  5
1AA
  8
NOTE
  6
CONTINUOUS
 62
     4
 10
-4.0
 20
64.0
 30
0.0
 11
-30.599305999999991
 21
93.874352000000002
 31
0.0
  0
POINT
  5
1AB
  8
ARRANGE
  6
CONTINUOUS
 62
     1
 10
0.0
 20
0.0
 30
0.0
  0
CIRCLE
  5
1AC
  8
ARRANGE
  6
CONTINUOUS
 62
     1
 10
0.0
 20
0.0
 30
0.0
 40
40.0
  0
LINE
  5
1AD
  8
OUTLINE
  6
CONTINUOUS
 62
     3
 10
-84.070088999999996
 20
-122.736462
 30
0.0
 11
-83.65398399999998
 21
-124.172725
 31
0.0
  0
ARC
  5
1AE
  8
OUTLINE
  6
CONTINUOUS
 62
     3
 10
-6.0
 20
-99.0
 30
0.0
 40
2.0
 50
180.0
 51
270.0
  0
LINE
  5
1AF
  8
OUTLINE
  6
CONTINUOUS
 62
     3
 10
0.0
 20
0.0
 30
0.0
 11
0.0
 21
78.0
 31
0.0
  0
LINE
  5
1B0
  8
OUTLINE
  6
CONTINUOUS
 62
     3
 10
0.0
 20
-101.0
 30
0.0
 11
0.0
 21
0.0
 31
0.0
  0
LINE
  5
1B1
  8
OUTLINE
  6
CONTINUOUS
 62
     3
 10
-8.0
 20
-99.0
 30
0.0
 11
-8.0
 21
76.0
 31
0.0
  0
LINE
  5
1B2
  8
OUTLINE
  6
CONTINUOUS
 62
     3
 10
-6.0
 20
78.0
 30
0.0
 11
0.0
 21
78.0
 31
0.0
  0
LINE
  5
1B3
  8
OUTLINE
  6
CONTINUOUS
 62
     3
 10
-85.0
 20
-123.0
 30
0.0
 11
-85.0
 21
-38.752048999999992
 31
0.0
  0
LINE
  5
1B4
  8
OUTLINE
  6
CONTINUOUS
 62
     3
 10
-11.594219000000001
 20
68.0
 30
0.0
 11
-8.0
 21
68.0
 31
0.0
  0
ARC
  5
1B5
  8
OUTLINE
  6
CONTINUOUS
 62
     3
 10
-11.594219000000001
 20
-2.0
 30
0.0
 40
70.0
 50
90.0
 51
169.41113899999991
  0
ARC
  5
1B6
  8
OUTLINE
  6
CONTINUOUS
 62
     3
 10
185.0
 20
-38.752048999999992
 30
0.0
 40
270.0
 50
169.41113899999991
 51
180.0
  0
LINE
  5
1B7
  8
OUTLINE
  6
CONTINUOUS
 62
     3
 10
-6.0
 20
-101.0
 30
0.0
 11
0.0
 21
-101.0
 31
0.0
  0
ARC
  5
1B8
  8
OUTLINE
  6
CONTINUOUS
 62
     3
 10
-6.0
 20
76.0
 30
0.0
 40
2.0
 50
90.0
 51
180.0
  0
LINE
  5
1B9
  8
OUTLINE
  6
CONTINUOUS
 62
     3
 10
-7.1452159999999987
 20
-102.08960399999999
 30
0.0
 11
-83.65398399999998
 21
-124.172725
 31
0.0
  0
LINE
  5
1BA
  8
OUTLINE
  6
CONTINUOUS
 62
     3
 10
-7.1452159999999987
 20
-102.08960399999999
 30
0.0
 11
-5.9629769999999986
 21
-101.0
 31
0.0
  0
LINE
  5
1BB
  8
OUTLINE
  6
CONTINUOUS
 62
     3
 10
-85.0
 20
-123.0
 30
0.0
 11
-84.070088999999996
 21
-122.736462
 31
0.0
  0
LINE
  5
1BC
  8
SIZE
  6
CONTINUOUS
 62
    30
 10
12.0
 20
68.0
 30
0.0
 11
250.57082699999989
 21
68.0
 31
0.0
  0
LINE
  5
1BD
  8
SIZE
  6
CONTINUOUS
 62
    30
 10
220.57082700000001
 20
70.0
 30
0.0
 11
220.57082700000001
 21
76.0
 31
0.0
  0
TEXT
  5
1BE
  8
SIZE
  6
CONTINUOUS
 62
    30
 10
188.57082700000001
 20
106.85510485714261
 30
0.0
 40
64.0
  1
10
 50
90.0
 41
0.9
 72
     1
 11
188.57082700000001
 21
147.9979619999998
 31
0.0
  0
CIRCLE
  5
1BF
  8
SIZE
  6
CONTINUOUS
 62
    30
 10
220.57082700000001
 20
68.0
 30
0.0
 40
6.0
  0
CIRCLE
  5
1C0
  8
SIZE
  6
CONTINUOUS
 62
    30
 10
220.57082700000001
 20
78.5
 30
0.0
 40
6.0
  0
LINE
  5
1C1
  8
SIZE
  6
CONTINUOUS
 62
    30
 10
220.57082700000001
 20
68.0
 30
0.0
 11
220.57082700000001
 21
193.403986
 31
0.0
  0
TEXT
  5
1C2
  8
NOTE
  6
CONTINUOUS
 62
     4
 10
-921.24146560841916
 20
391.8071201040712
 30
0.0
 40
50.0
  1
4×φ4.5ノックアウト取付穴
 41
0.9
  0
LINE
  5
1C3
  8
NOTE
  6
CONTINUOUS
 62
     4
 10
-195.7010667088671
 20
366.39215882298498
 30
0.0
 11
-931.01963568689462
 21
366.39215882298498
 31
0.0
  0
LINE
  5
1C4
  8
SIZE
  6
CONTINUOUS
 62
    30
 10
-20.0
 20
78.0
 30
0.0
 11
-224.89107299999989
 21
78.0
 31
0.0
  0
LINE
  5
1C5
  8
SIZE
  6
CONTINUOUS
 62
    30
 10
-156.314266
 20
0.0
 30
0.0
 11
-224.89107299999989
 21
0.0
 31
0.0
  0
LINE
  5
1C6
  8
SIZE
  6
CONTINUOUS
 62
    30
 10
-194.89107300000001
 20
78.0
 30
0.0
 11
-194.89107300000001
 21
0.0
 31
0.0
  0
TEXT
  5
1C7
  8
SIZE
  6
CONTINUOUS
 62
    30
 10
-226.89107299999989
 20
108.5105415714284
 30
0.0
 40
64.0
  1
78
 50
90.0
 41
0.9
 72
     1
 11
-226.89107299999989
 21
155.1391129999999
 31
0.0
  0
CIRCLE
  5
1C8
  8
SIZE
  6
CONTINUOUS
 62
    30
 10
-194.89107300000001
 20
78.0
 30
0.0
 40
6.0
  0
CIRCLE
  5
1C9
  8
SIZE
  6
CONTINUOUS
 62
    30
 10
-194.89107300000001
 20
0.0
 30
0.0
 40
6.0
  0
LINE
  5
1CA
  8
SIZE
  6
CONTINUOUS
 62
    30
 10
-194.89107300000001
 20
78.0
 30
0.0
 11
-194.89107300000001
 21
214.46507399999999
 31
0.0
  0
LINE
  5
1CB
  8
SIZE
  6
CONTINUOUS
 62
    30
 10
0.0
 20
-126.870711
 30
0.0
 11
0.0
 21
-389.71425899999991
 31
0.0
  0
LINE
  5
1CC
  8
SIZE
  6
CONTINUOUS
 62
    30
 10
54.0
 20
-67.0
 30
0.0
 11
54.0
 21
-389.71425899999991
 31
0.0
  0
LINE
  5
1CD
  8
SIZE
  6
CONTINUOUS
 62
    30
 10
-2.0
 20
-359.71425899999991
 30
0.0
 11
51.0
 21
-359.71425899999991
 31
0.0
  0
TEXT
  5
1CE
  8
SIZE
  6
CONTINUOUS
 62
    30
 10
84.942957999999777
 20
-327.71425899999991
 30
0.0
 40
64.0
  1
54
 41
0.9
 72
     1
 11
132.94295799999981
 21
-327.71425899999991
 31
0.0
  0
CIRCLE
  5
1CF
  8
SIZE
  6
CONTINUOUS
 62
    30
 10
0.0
 20
-359.71425899999991
 30
0.0
 40
6.0
  0
CIRCLE
  5
1D0
  8
SIZE
  6
CONTINUOUS
 62
    30
 10
54.0
 20
-359.71425899999991
 30
0.0
 40
6.0
  0
LINE
  5
1D1
  8
SIZE
  6
CONTINUOUS
 62
    30
 10
20.0
 20
78.0
 30
0.0
 11
385.14322299999992
 21
78.0
 31
0.0
  0
LINE
  5
1D2
  8
SIZE
  6
CONTINUOUS
 62
    30
 10
355.14322299999992
 20
76.0
 30
0.0
 11
355.14322299999992
 21
50.0
 31
0.0
  0
TEXT
  5
1D3
  8
SIZE
  6
CONTINUOUS
 62
    30
 10
333.89761681946538
 20
103.1378697938554
 30
0.0
 40
64.0
  1
30
 50
90.0
 41
0.9
 72
     1
 11
333.89761681946538
 21
149.76644122242681
 31
0.0
  0
CIRCLE
  5
1D4
  8
SIZE
  6
CONTINUOUS
 62
    30
 10
355.14322299999992
 20
78.0
 30
0.0
 40
6.0
  0
CIRCLE
  5
1D5
  8
SIZE
  6
CONTINUOUS
 62
    30
 10
355.14322299999992
 20
48.0
 30
0.0
 40
6.0
  0
LINE
  5
1D6
  8
SIZE
  6
CONTINUOUS
 62
    30
 10
73.0
 20
48.0
 30
0.0
 11
385.14322299999992
 21
48.0
 31
0.0
  0
LINE
  5
1D7
  8
SIZE
  6
CONTINUOUS
 62
    30
 10
73.0
 20
-49.0
 30
0.0
 11
385.14322299999992
 21
-49.0
 31
0.0
  0
LINE
  5
1D8
  8
SIZE
  6
CONTINUOUS
 62
    30
 10
355.14322299999992
 20
50.0
 30
0.0
 11
355.14322299999992
 21
-47.0
 31
0.0
  0
TEXT
  5
1D9
  8
SIZE
  6
CONTINUOUS
 62
    30
 10
331.80773483646283
 20
-239.2439554285715
 30
0.0
 40
64.0
  1
φ97
 50
90.0
 41
0.9
 72
     1
 11
331.80773483646283
 21
-152.29538400000001
 31
0.0
  0
CIRCLE
  5
1DA
  8
SIZE
  6
CONTINUOUS
 62
    30
 10
355.14322299999992
 20
48.0
 30
0.0
 40
6.0
  0
CIRCLE
  5
1DB
  8
SIZE
  6
CONTINUOUS
 62
    30
 10
355.14322299999992
 20
-49.0
 30
0.0
 40
6.0
  0
LINE
  5
1DC
  8
SIZE
  6
CONTINUOUS
 62
    30
 10
355.14322299999992
 20
-43.0
 30
0.0
 11
355.14322299999992
 21
-229.22512399999999
 31
0.0
  0
LINE
  5
1DD
  8
SIZE
  6
CONTINUOUS
 62
    30
 10
355.14322299999992
 20
72.0
 30
0.0
 11
355.14322299999992
 21
191.02742799999999
 31
0.0
  0
LINE
  5
1DE
  8
SIZE
  6
CONTINUOUS
 62
    30
 10
0.0
 20
174.66712699999999
 30
0.0
 11
-81.857763000000006
 21
174.66712699999999
 31
0.0
  0
LINE
  5
1EA
  8
OUTLINE
  6
CONTINUOUS
 62
     3
 10
0.0
 20
-49.0
 30
0.0
 11
54.0
 21
-49.0
 31
0.0
  0
LINE
  5
1EB
  8
OUTLINE
  6
CONTINUOUS
 62
     3
 10
54.0
 20
-49.0
 30
0.0
 11
54.0
 21
48.0
 31
0.0
  0
LINE
  5
1EC
  8
OUTLINE
  6
CONTINUOUS
 62
     3
 10
54.0
 20
48.0
 30
0.0
 11
0.0
 21
48.0
 31
0.0
  0
TEXT
  5
476
  8
ETC
  6
CONTINUOUS
 62
    61
 10
211.75015759830171
 20
628.64152021672226
 30
0.0
 40
50.0
  1
システム部材
 41
0.9
  0
TEXT
  5
477
  8
ETC
  6
CONTINUOUS
 62
    61
 10
223.64582212692449
 20
710.36035165339831
 30
0.0
 40
50.0
  1
P-13VSD3_4
 41
0.9
  0
TEXT
  5
478
  8
ETC
  6
CONTINUOUS
 62
    61
 10
333.89318490009703
 20
565.43487653538045
 30
0.0
 40
40.0
  1
P-13VSD3
 41
0.9
  0
TEXT
  5
479
  8
ETC
  6
CONTINUOUS
 62
    61
 10
333.89318490009703
 20
498.7682105353806
 30
0.0
 40
40.0
  1
P-13VSD3-BL
 41
0.9
  0
TEXT
  5
47A
  8
ETC
  6
CONTINUOUS
 62
    61
 10
333.89679119615778
 20
301.55886566729072
 30
0.0
 40
40.0
  1
P-13VSSQD3-AF
 41
0.9
  0
TEXT
  5
47B
  8
ETC
  6
CONTINUOUS
 62
    61
 10
333.89679119615778
 20
429.07279044969113
 30
0.0
 40
40.0
  1
P-13VSQD3
 41
0.9
  0
TEXT
  5
47C
  8
ETC
  6
CONTINUOUS
 62
    61
 10
333.89679119615778
 20
366.59058781545951
 30
0.0
 40
40.0
  1
P-13VSD3-AF
 41
0.9
  0
ENDSEC
  0
EOF
