  0
SECTION
  2
HEADER
  9
$ACADVER
  1
AC1009
  9
$INSBASE
 10
0.0
 20
0.0
 30
0.0
  9
$EXTMIN
 10
-202.25714300000001
 20
-154.845034
 30
0.0
  9
$EXTMAX
 10
916.10204228571376
 20
413.07565199999999
 30
50.0
  9
$LIMMIN
 10
-2970.0
 20
-2100.0
  9
$LIMMAX
 10
2970.0
 20
2100.0
  9
$ORTHOMODE
 70
     1
  9
$REGENMODE
 70
     1
  9
$FILLMODE
 70
     1
  9
$QTEXTMODE
 70
     0
  9
$MIRRTEXT
 70
     0
  9
$DRAGMODE
 70
     2
  9
$LTSCALE
 40
20.0
  9
$OSMODE
 70
    55
  9
$ATTMODE
 70
     1
  9
$TEXTSIZE
 40
64.0
  9
$TRACEWID
 40
0.05
  9
$TEXTSTYLE
  7
STANDARD
  9
$CLAYER
  8
SIZE
  9
$CELTYPE
  6
CONTINUOUS
  9
$CECOLOR
 62
     7
  9
$DIMSCALE
 40
1.0
  9
$DIMASZ
 40
12.0
  9
$DIMEXO
 40
20.0
  9
$DIMDLI
 40
200.0
  9
$DIMRND
 40
0.0
  9
$DIMDLE
 40
0.0
  9
$DIMEXE
 40
20.0
  9
$DIMTP
 40
0.0
  9
$DIMTM
 40
0.0
  9
$DIMTXT
 40
64.0
  9
$DIMCEN
 40
0.09
  9
$DIMTSZ
 40
0.0
  9
$DIMTOL
 70
     0
  9
$DIMLIM
 70
     0
  9
$DIMTIH
 70
     0
  9
$DIMTOH
 70
     0
  9
$DIMSE1
 70
     0
  9
$DIMSE2
 70
     0
  9
$DIMTAD
 70
     1
  9
$DIMZIN
 70
     8
  9
$DIMBLK
  1
DOT1
  9
$DIMASO
 70
     1
  9
$DIMSHO
 70
     0
  9
$DIMPOST
  1

  9
$DIMAPOST
  1

  9
$DIMALT
 70
     0
  9
$DIMALTD
 70
     2
  9
$DIMALTF
 40
25.399999999999999
  9
$DIMLFAC
 40
1.0
  9
$DIMTOFL
 70
     1
  9
$DIMTVP
 40
0.0
  9
$DIMTIX
 70
     1
  9
$DIMSOXD
 70
     0
  9
$DIMSAH
 70
     1
  9
$DIMBLK1
  1
ORIGIN
  9
$DIMBLK2
  1
ORIGIN
  9
$DIMSTYLE
  2
STANDARD
  9
$DIMCLRD
 70
     7
  9
$DIMCLRE
 70
     7
  9
$DIMCLRT
 70
     7
  9
$DIMTFAC
 40
1.0
  9
$DIMGAP
 40
25.0
  9
$LUNITS
 70
     2
  9
$LUPREC
 70
     4
  9
$SKETCHINC
 40
0.1
  9
$FILLETRAD
 40
1.0
  9
$AUNITS
 70
     1
  9
$AUPREC
 70
     3
  9
$MENU
  1
ACAD
  9
$ELEVATION
 40
0.0
  9
$PELEVATION
 40
0.0
  9
$THICKNESS
 40
50.0
  9
$LIMCHECK
 70
     0
  9
$BLIPMODE
 70
     0
  9
$CHAMFERA
 40
0.0
  9
$CHAMFERB
 40
0.0
  9
$SKPOLY
 70
     0
  9
$TDCREATE
 40
2453019.6230103709
  9
$TDUPDATE
 40
2456391.574492651
  9
$TDINDWG
 40
1.6534755903
  9
$TDUSRTIMER
 40
1.6534754051
  9
$USRTIMER
 70
     1
  9
$ANGBASE
 50
0.0
  9
$ANGDIR
 70
     0
  9
$PDMODE
 70
     3
  9
$PDSIZE
 40
-2.0
  9
$PLINEWID
 40
0.0
  9
$COORDS
 70
     1
  9
$SPLFRAME
 70
     0
  9
$SPLINETYPE
 70
     6
  9
$SPLINESEGS
 70
     8
  9
$ATTDIA
 70
     0
  9
$ATTREQ
 70
     1
  9
$HANDLING
 70
     1
  9
$HANDSEED
  5
16F
  9
$SURFTAB1
 70
     6
  9
$SURFTAB2
 70
     6
  9
$SURFTYPE
 70
     6
  9
$SURFU
 70
     6
  9
$SURFV
 70
     6
  9
$UCSNAME
  2

  9
$UCSORG
 10
0.0
 20
0.0
 30
0.0
  9
$UCSXDIR
 10
1.0
 20
0.0
 30
0.0
  9
$UCSYDIR
 10
0.0
 20
1.0
 30
0.0
  9
$PUCSNAME
  2

  9
$PUCSORG
 10
0.0
 20
0.0
 30
0.0
  9
$PUCSXDIR
 10
1.0
 20
0.0
 30
0.0
  9
$PUCSYDIR
 10
0.0
 20
1.0
 30
0.0
  9
$USERI1
 70
     0
  9
$USERI2
 70
     0
  9
$USERI3
 70
     0
  9
$USERI4
 70
     0
  9
$USERI5
 70
     0
  9
$USERR1
 40
20.0
  9
$USERR2
 40
0.0
  9
$USERR3
 40
0.0
  9
$USERR4
 40
0.0
  9
$USERR5
 40
0.0
  9
$WORLDVIEW
 70
     1
  9
$SHADEDGE
 70
     3
  9
$SHADEDIF
 70
    70
  9
$TILEMODE
 70
     1
  9
$MAXACTVP
 70
    48
  9
$PLIMCHECK
 70
     0
  9
$PEXTMIN
 10
-1.0000000000000000E+020
 20
-1.0000000000000000E+020
 30
-1.0000000000000000E+020
  9
$PEXTMAX
 10
1.0000000000000000E+020
 20
1.0000000000000000E+020
 30
1.0000000000000000E+020
  9
$PLIMMIN
 10
0.0
 20
0.0
  9
$PLIMMAX
 10
12.0
 20
9.0
  9
$UNITMODE
 70
     0
  9
$VISRETAIN
 70
     0
  9
$PLINEGEN
 70
     0
  9
$PSLTSCALE
 70
     0
  0
ENDSEC
  0
SECTION
  2
TABLES
  0
TABLE
  2
VPORT
 70
     1
  0
VPORT
  2
*ACTIVE
 70
     0
 10
0.0
 20
0.0
 11
1.0
 21
1.0
 12
381.49793264189452
 22
158.8128680229625
 13
0.0
 23
0.0
 14
1.0
 24
1.0
 15
0.0
 25
0.0
 16
0.0
 26
0.0
 36
1.0
 17
0.0
 27
0.0
 37
0.0
 40
787.54852142970344
 41
1.6865079365079361
 42
50.0
 43
0.0
 44
0.0
 50
0.0
 51
0.0
 71
     0
 72
  1000
 73
     1
 74
     0
 75
     0
 76
     0
 77
     0
 78
     0
  0
ENDTAB
  0
TABLE
  2
LTYPE
 70
     3
  0
LTYPE
  2
CONTINUOUS
 70
     0
  3
実線
 72
    65
 73
     0
 40
0.0
  0
LTYPE
  2
DASHDOT
 70
     0
  3
____ _ ____ _ ____ _ ____ _ ____ _ ____ _ ____
 72
    65
 73
     4
 40
5.5
 49
4.0
 49
-0.6
 49
0.3
 49
-0.6
  0
ENDTAB
  0
TABLE
  2
LAYER
 70
    12
  0
LAYER
  2
0
 70
     0
 62
     7
  6
CONTINUOUS
  0
LAYER
  2
SIZE
 70
     0
 62
    30
  6
CONTINUOUS
  0
LAYER
  2
BASIS
 70
     0
 62
     6
  6
DASHDOT
  0
LAYER
  2
OUTLINE
 70
     0
 62
     3
  6
CONTINUOUS
  0
LAYER
  2
DETAIL
 70
     0
 62
     5
  6
CONTINUOUS
  0
LAYER
  2
ARRANGE
 70
     0
 62
     1
  6
CONTINUOUS
  0
LAYER
  2
DEFPOINTS
 70
     0
 62
     7
  6
CONTINUOUS
  0
LAYER
  2
ETC
 70
     0
 62
    61
  6
CONTINUOUS
  0
LAYER
  2
FIX
 70
     0
 62
    11
  6
CONTINUOUS
  0
LAYER
  2
NOTE
 70
     0
 62
     4
  6
CONTINUOUS
  0
LAYER
  2
SERVICESPACE
 70
     0
 62
     2
  6
DASHDOT
  0
LAYER
  2
SYMBOLLINE
 70
     0
 62
    15
  6
CONTINUOUS
  0
ENDTAB
  0
TABLE
  2
STYLE
 70
     2
  0
STYLE
  2
STANDARD
 70
     0
 40
64.0
 41
0.9
 50
0.0
 71
     0
 42
64.0
  3
SIMPLEX.shx
  4
BIGFONT.shx
  0
STYLE
  2
ANNOTATIVE
 70
     0
 40
0.0
 41
1.0
 50
0.0
 71
     0
 42
0.2
  3
txt
  4

  0
ENDTAB
  0
TABLE
  2
VIEW
 70
     1
  0
VIEW
  2
ALL
 70
     0
 40
4282.6198080000004
 10
0.0
 20
41.309904000000003
 41
5940.0
 11
0.0
 21
0.0
 31
1.0
 12
0.0
 22
0.0
 32
0.0
 42
50.0
 43
0.0
 44
0.0
 50
0.0
 71
     0
  0
ENDTAB
  0
TABLE
  2
UCS
 70
     0
  0
ENDTAB
  0
TABLE
  2
APPID
 70
    18
  0
APPID
  2
ACAD
 70
     0
  0
APPID
  2
ACADANNOTATIVE
 70
     0
  0
APPID
  2
AUTOCAD_POSTSCRIPT_FIGURE
 70
     0
  0
APPID
  2
ACAD_EXEMPT_FROM_CAD_STANDARDS
 70
     0
  0
APPID
  2
ACAD_PSEXT
 70
     0
  0
APPID
  2
ACAUTHENVIRON
 70
     0
  0
APPID
  2
GENIUS_GENOENT_13
 70
     0
  0
APPID
  2
GENIUS_GENCFG_13
 70
     0
  0
APPID
  2
GENIUS_GENCFG0_13
 70
     0
  0
APPID
  2
GENIUS_GENCFG1_13
 70
     0
  0
APPID
  2
GENIUS_GENCFG2_13
 70
     0
  0
APPID
  2
GENIUS_GENCFG3_13
 70
     0
  0
APPID
  2
GENIUS_GENCFG4_13
 70
     0
  0
APPID
  2
GENIUS_GEVCFG0_13
 70
     0
  0
APPID
  2
CONTENTBLOCKICON
 70
     0
  0
APPID
  2
CONTENTBLOCKDESCRIPTION
 70
     0
  0
APPID
  2
ACAD_NAV_VCDISPLAY
 70
     0
  0
APPID
  2
ACAD_MLEADERVER
 70
     0
  0
ENDTAB
  0
TABLE
  2
DIMSTYLE
 70
     2
  0
DIMSTYLE
  2
STANDARD
 70
     0
  3

  4

  5

  6

  7

 40
1.0
 41
0.18
 42
0.0625
 43
0.38
 44
0.18
 45
0.0
 46
0.0
 47
0.0
 48
0.0
140
0.18
141
0.09
142
0.0
143
25.399999999999999
144
1.0
145
0.0
146
1.0
147
0.09
 71
     0
 72
     0
 73
     1
 74
     1
 75
     0
 76
     0
 77
     0
 78
     0
170
     0
171
     2
172
     0
173
     0
174
     0
175
     0
176
     7
177
     7
178
     7
  0
DIMSTYLE
  2
ANNOTATIVE
 70
     0
  3

  4

  5

  6

  7

 40
1.0
 41
0.18
 42
0.0625
 43
0.38
 44
0.18
 45
0.0
 46
0.0
 47
0.0
 48
0.0
140
0.18
141
0.09
142
0.0
143
25.399999999999999
144
1.0
145
0.0
146
1.0
147
0.09
 71
     0
 72
     0
 73
     1
 74
     1
 75
     0
 76
     0
 77
     0
 78
     0
170
     0
171
     2
172
     0
173
     0
174
     0
175
     0
176
     0
177
     0
178
     0
  0
ENDTAB
  0
ENDSEC
  0
SECTION
  2
BLOCKS
  0
BLOCK
  8
0
  2
$MODEL_SPACE
 70
     0
 10
0.0
 20
0.0
 30
0.0
  3
$MODEL_SPACE
  1

  0
ENDBLK
  5
6D
  8
0
  0
BLOCK
 67
     1
  8
0
  2
$PAPER_SPACE
 70
     0
 10
0.0
 20
0.0
 30
0.0
  3
$PAPER_SPACE
  1

  0
ENDBLK
  5
69
 67
     1
  8
0
  0
BLOCK
  8
0
  2
DOT1
 70
     0
 10
0.0
 20
0.0
 30
0.0
  3
DOT1
  1

  0
CIRCLE
  5
90
  8
SIZE
  6
CONTINUOUS
 62
     7
 10
0.0
 20
0.0
 30
0.0
 40
3.0
  0
ENDBLK
  5
91
  8
0
  0
BLOCK
  8
0
  2
_ORIGIN
 70
     0
 10
0.0
 20
0.0
 30
0.0
  3
_ORIGIN
  1

  0
CIRCLE
  5
94
  8
0
  6
CONTINUOUS
 62
     7
 10
0.0
 20
0.0
 30
0.0
 40
0.5
  0
LINE
  5
95
  8
0
  6
CONTINUOUS
 62
     7
 10
0.0
 20
0.0
 30
0.0
 11
-1.0
 21
0.0
 31
0.0
  0
ENDBLK
  5
96
  8
0
  0
ENDSEC
  0
SECTION
  2
ENTITIES
  0
TEXT
  5
97
  8
ETC
  6
CONTINUOUS
 62
    61
 10
277.01632799999999
 20
349.07565199999999
 30
0.0
 40
64.0
  1
P-1600SWL2_1
 41
0.9
  0
TEXT
  5
98
  8
ETC
  6
CONTINUOUS
 62
    61
 10
272.83033399999999
 20
231.12034199999999
 30
0.0
 40
64.0
  1
システム部材
 41
0.9
  0
TEXT
  5
99
  8
ETC
  6
CONTINUOUS
 62
    61
 10
323.437837
 20
124.19940699999999
 30
0.0
 40
40.0
  1
P-1600SWL2
 41
0.9
  0
CIRCLE
  5
9A
  8
ARRANGE
  6
CONTINUOUS
 62
     1
 10
0.0
 20
0.0
 30
0.0
 40
40.0
  0
POINT
  5
9B
  8
ARRANGE
  6
CONTINUOUS
 62
     1
 10
0.0
 20
0.0
 30
0.0
 39
50.0
  0
LINE
  5
9C
  8
BASIS
  6
DASHDOT
 62
     6
 10
0.0
 20
-33.857788999999997
 30
0.0
 11
0.0
 21
41.605207
 31
0.0
  0
LINE
  5
9D
  8
SIZE
  6
CONTINUOUS
 62
    30
 10
-35.0
 20
-27.5
 30
0.0
 11
-35.0
 21
-154.845034
 31
0.0
  0
LINE
  5
9E
  8
SIZE
  6
CONTINUOUS
 62
    30
 10
35.0
 20
-27.5
 30
0.0
 11
35.0
 21
-154.845034
 31
0.0
  0
LINE
  5
9F
  8
SIZE
  6
CONTINUOUS
 62
    30
 10
47.0
 20
-134.845034
 30
0.0
 11
59.0
 21
-134.845034
 31
0.0
  0
LINE
  5
A0
  8
SIZE
  6
CONTINUOUS
 62
    30
 10
-47.0
 20
-134.845034
 30
0.0
 11
-202.25714300000001
 21
-134.845034
 31
0.0
  0
LINE
  5
A1
  8
SIZE
  6
CONTINUOUS
 62
    30
 10
35.0
 20
-134.845034
 30
0.0
 11
-35.0
 21
-134.845034
 31
0.0
  0
CIRCLE
  5
A2
  8
SIZE
  6
CONTINUOUS
 62
    30
 10
35.0
 20
-134.845034
 30
0.0
 40
6.0
  0
LINE
  5
A3
  8
SIZE
  6
CONTINUOUS
 62
    30
 10
35.0
 20
-134.845034
 30
0.0
 11
47.0
 21
-134.845034
 31
0.0
  0
CIRCLE
  5
A4
  8
SIZE
  6
CONTINUOUS
 62
    30
 10
-35.0
 20
-134.845034
 30
0.0
 40
6.0
  0
LINE
  5
A5
  8
SIZE
  6
CONTINUOUS
 62
    30
 10
-35.0
 20
-134.845034
 30
0.0
 11
-47.0
 21
-134.845034
 31
0.0
  0
TEXT
  5
A6
  8
SIZE
  6
CONTINUOUS
 62
    30
 10
-177.2571424285714
 20
-109.845034
 30
0.0
 40
64.0
  1
70
 41
0.9
 72
     1
 11
-130.62857099999999
 21
-109.845034
 31
0.0
  0
POINT
  5
A7
  8
DEFPOINTS
  6
CONTINUOUS
 62
    30
 10
-35.0
 20
-7.5
 30
0.0
  0
POINT
  5
A8
  8
DEFPOINTS
  6
CONTINUOUS
 62
    30
 10
35.0
 20
-7.5
 30
0.0
  0
POINT
  5
A9
  8
DEFPOINTS
  6
CONTINUOUS
 62
    30
 10
35.0
 20
-134.845034
 30
0.0
  0
LINE
  5
AA
  8
SIZE
  6
CONTINUOUS
 62
    30
 10
55.0
 20
0.0
 30
0.0
 11
138.645183
 21
0.0
 31
0.0
  0
LINE
  5
AB
  8
SIZE
  6
CONTINUOUS
 62
    30
 10
52.0
 20
-10.5
 30
0.0
 11
138.645183
 21
-10.5
 31
0.0
  0
LINE
  5
AC
  8
SIZE
  6
CONTINUOUS
 62
    30
 10
118.645183
 20
-22.5
 30
0.0
 11
118.645183
 21
-34.5
 31
0.0
  0
LINE
  5
AD
  8
SIZE
  6
CONTINUOUS
 62
    30
 10
118.645183
 20
12.0
 30
0.0
 11
118.645183
 21
238.57142899999999
 31
0.0
  0
LINE
  5
AE
  8
SIZE
  6
CONTINUOUS
 62
    30
 10
118.645183
 20
-10.5
 30
0.0
 11
118.645183
 21
0.0
 31
0.0
  0
CIRCLE
  5
AF
  8
SIZE
  6
CONTINUOUS
 62
    30
 10
118.645183
 20
-10.5
 30
0.0
 40
6.0
  0
LINE
  5
B0
  8
SIZE
  6
CONTINUOUS
 62
    30
 10
118.645183
 20
-10.5
 30
0.0
 11
118.645183
 21
-22.5
 31
0.0
  0
CIRCLE
  5
B1
  8
SIZE
  6
CONTINUOUS
 62
    30
 10
118.645183
 20
0.0
 30
0.0
 40
6.0
  0
LINE
  5
B2
  8
SIZE
  6
CONTINUOUS
 62
    30
 10
118.645183
 20
0.0
 30
0.0
 11
118.645183
 21
12.0
 31
0.0
  0
TEXT
  5
B3
  8
SIZE
  6
CONTINUOUS
 62
    30
 10
93.645183000000003
 20
48.999999714285721
 30
0.0
 40
64.0
  1
10.5
 50
90.0
 41
0.9
 72
     1
 11
93.645183000000003
 21
131.28571400000001
 31
0.0
  0
POINT
  5
B4
  8
DEFPOINTS
  6
CONTINUOUS
 62
    30
 10
35.0
 20
0.0
 30
0.0
  0
POINT
  5
B5
  8
DEFPOINTS
  6
CONTINUOUS
 62
    30
 10
32.0
 20
-10.5
 30
0.0
  0
POINT
  5
B6
  8
DEFPOINTS
  6
CONTINUOUS
 62
    30
 10
118.645183
 20
-10.5
 30
0.0
  0
LINE
  5
B7
  8
SIZE
  6
CONTINUOUS
 62
    30
 10
55.0
 20
0.0
 30
0.0
 11
258.64518299999997
 21
0.0
 31
0.0
  0
LINE
  5
B8
  8
SIZE
  6
CONTINUOUS
 62
    30
 10
40.0
 20
-14.300000000000001
 30
0.0
 11
258.64518299999997
 21
-14.300000000000001
 31
0.0
  0
LINE
  5
B9
  8
SIZE
  6
CONTINUOUS
 62
    30
 10
238.645183
 20
-26.300000000000001
 30
0.0
 11
238.645183
 21
-38.299999999999997
 31
0.0
  0
LINE
  5
BA
  8
SIZE
  6
CONTINUOUS
 62
    30
 10
238.645183
 20
12.0
 30
0.0
 11
238.645183
 21
238.57142899999999
 31
0.0
  0
LINE
  5
BB
  8
SIZE
  6
CONTINUOUS
 62
    30
 10
238.645183
 20
-14.300000000000001
 30
0.0
 11
238.645183
 21
0.0
 31
0.0
  0
CIRCLE
  5
BC
  8
SIZE
  6
CONTINUOUS
 62
    30
 10
238.645183
 20
-14.300000000000001
 30
0.0
 40
6.0
  0
LINE
  5
BD
  8
SIZE
  6
CONTINUOUS
 62
    30
 10
238.645183
 20
-14.300000000000001
 30
0.0
 11
238.645183
 21
-26.300000000000001
 31
0.0
  0
CIRCLE
  5
BE
  8
SIZE
  6
CONTINUOUS
 62
    30
 10
238.645183
 20
0.0
 30
0.0
 40
6.0
  0
LINE
  5
BF
  8
SIZE
  6
CONTINUOUS
 62
    30
 10
238.645183
 20
0.0
 30
0.0
 11
238.645183
 21
12.0
 31
0.0
  0
TEXT
  5
C0
  8
SIZE
  6
CONTINUOUS
 62
    30
 10
213.645183
 20
48.999999714285721
 30
0.0
 40
64.0
  1
14.3
 50
90.0
 41
0.9
 72
     1
 11
213.645183
 21
131.28571400000001
 31
0.0
  0
POINT
  5
C1
  8
DEFPOINTS
  6
CONTINUOUS
 62
    30
 10
35.0
 20
0.0
 30
0.0
  0
POINT
  5
C2
  8
DEFPOINTS
  6
CONTINUOUS
 62
    30
 10
20.0
 20
-14.300000000000001
 30
0.0
  0
POINT
  5
C3
  8
DEFPOINTS
  6
CONTINUOUS
 62
    30
 10
238.645183
 20
-14.300000000000001
 30
0.0
  0
LINE
  5
C4
  8
OUTLINE
  6
CONTINUOUS
 62
     3
 39
50.0
 10
-35.0
 20
0.0
 30
0.0
 11
-22.0
 21
0.0
 31
0.0
  0
LINE
  5
C5
  8
OUTLINE
  6
CONTINUOUS
 62
     3
 39
50.0
 10
-32.0
 20
-10.5
 30
0.0
 11
-21.0
 21
-10.5
 31
0.0
  0
LINE
  5
C6
  8
OUTLINE
  6
CONTINUOUS
 62
     3
 39
50.0
 10
-20.0
 20
-14.300000000000001
 30
0.0
 11
20.0
 21
-14.300000000000001
 31
0.0
  0
LINE
  5
C7
  8
OUTLINE
  6
CONTINUOUS
 62
     3
 10
35.0
 20
-7.5
 30
0.0
 11
35.0
 21
0.0
 31
0.0
  0
LINE
  5
C8
  8
OUTLINE
  6
CONTINUOUS
 62
     3
 10
-35.0
 20
-7.5
 30
0.0
 11
-35.0
 21
0.0
 31
0.0
  0
LINE
  5
C9
  8
OUTLINE
  6
CONTINUOUS
 62
     3
 10
21.0
 20
-13.300000000000001
 30
0.0
 11
21.0
 21
-10.5
 31
0.0
  0
LINE
  5
CA
  8
OUTLINE
  6
CONTINUOUS
 62
     3
 10
-21.0
 20
-13.300000000000001
 30
0.0
 11
-21.0
 21
-10.5
 31
0.0
  0
ARC
  5
CB
  8
OUTLINE
  6
CONTINUOUS
 62
     3
 10
-32.0
 20
-7.5
 30
0.0
 40
3.0
 50
180.0
 51
270.0
  0
ARC
  5
CC
  8
OUTLINE
  6
CONTINUOUS
 62
     3
 10
32.0
 20
-7.5
 30
0.0
 40
3.0
 50
270.0
 51
0.0
  0
ARC
  5
CD
  8
OUTLINE
  6
CONTINUOUS
 62
     3
 10
-20.0
 20
-13.300000000000001
 30
0.0
 40
1.0
 50
180.0
 51
270.0
  0
ARC
  5
CE
  8
OUTLINE
  6
CONTINUOUS
 62
     3
 10
20.0
 20
-13.300000000000001
 30
0.0
 40
1.0
 50
270.0
 51
0.0
  0
LINE
  5
CF
  8
OUTLINE
  6
CONTINUOUS
 62
     3
 39
50.0
 10
-9.5
 20
28.0
 30
0.0
 11
9.5
 21
28.0
 31
0.0
  0
LINE
  5
D0
  8
OUTLINE
  6
CONTINUOUS
 62
     3
 39
50.0
 10
13.0
 20
25.0
 30
0.0
 11
13.0
 21
25.0
 31
0.0
  0
LINE
  5
D1
  8
OUTLINE
  6
CONTINUOUS
 62
     3
 10
22.0
 20
0.0
 30
0.0
 11
22.0
 21
7.0
 31
0.0
  0
LINE
  5
D2
  8
OUTLINE
  6
CONTINUOUS
 62
     3
 10
-22.0
 20
0.0
 30
0.0
 11
-22.0
 21
7.0
 31
0.0
  0
LINE
  5
D3
  8
OUTLINE
  6
CONTINUOUS
 62
     3
 39
50.0
 10
-21.0
 20
8.0
 30
0.0
 11
-20.0
 21
8.0
 31
0.0
  0
LINE
  5
D4
  8
OUTLINE
  6
CONTINUOUS
 62
     3
 10
20.0
 20
8.0
 30
0.0
 11
20.0
 21
20.0
 31
0.0
  0
LINE
  5
D5
  8
OUTLINE
  6
CONTINUOUS
 62
     3
 10
-10.5
 20
21.0
 30
0.0
 11
-10.5
 21
27.0
 31
0.0
  0
LINE
  5
D6
  8
OUTLINE
  6
CONTINUOUS
 62
     3
 10
10.5
 20
21.0
 30
0.0
 11
10.5
 21
27.0
 31
0.0
  0
LINE
  5
D7
  8
OUTLINE
  6
CONTINUOUS
 62
     3
 39
50.0
 10
10.5
 20
21.0
 30
0.0
 11
19.0
 21
21.0
 31
0.0
  0
LINE
  5
D8
  8
OUTLINE
  6
CONTINUOUS
 62
     3
 10
12.0
 20
21.0
 30
0.0
 11
12.0
 21
24.0
 31
0.0
  0
LINE
  5
D9
  8
OUTLINE
  6
CONTINUOUS
 62
     3
 10
14.0
 20
21.0
 30
0.0
 11
14.0
 21
24.0
 31
0.0
  0
ARC
  5
DA
  8
OUTLINE
  6
CONTINUOUS
 62
     3
 39
50.0
 10
-9.5
 20
27.0
 30
0.0
 40
1.0
 50
90.0
 51
180.0
  0
ARC
  5
DB
  8
OUTLINE
  6
CONTINUOUS
 62
     3
 10
9.5
 20
27.0
 30
0.0
 40
1.0
 50
0.0
 51
90.0
  0
ARC
  5
DC
  8
OUTLINE
  6
CONTINUOUS
 62
     3
 10
19.0
 20
20.0
 30
0.0
 40
1.0
 50
0.0
 51
90.0
  0
ARC
  5
DD
  8
OUTLINE
  6
CONTINUOUS
 62
     3
 39
50.0
 10
13.0
 20
24.0
 30
0.0
 40
1.0
 50
0.0
 51
90.0
  0
ARC
  5
DE
  8
OUTLINE
  6
CONTINUOUS
 62
     3
 39
50.0
 10
13.0
 20
24.0
 30
0.0
 40
1.0
 50
90.0
 51
180.0
  0
ARC
  5
DF
  8
OUTLINE
  6
CONTINUOUS
 62
     3
 39
50.0
 10
21.0
 20
7.0
 30
0.0
 40
1.0
 50
0.0
 51
90.0
  0
ARC
  5
E0
  8
OUTLINE
  6
CONTINUOUS
 62
     3
 39
50.0
 10
-21.0
 20
7.0
 30
0.0
 40
1.0
 50
90.0
 51
180.0
  0
LINE
  5
E1
  8
OUTLINE
  6
CONTINUOUS
 62
     3
 10
-20.0
 20
8.0
 30
0.0
 11
-20.0
 21
20.0
 31
0.0
  0
LINE
  5
E2
  8
OUTLINE
  6
CONTINUOUS
 62
     3
 39
50.0
 10
-10.5
 20
21.0
 30
0.0
 11
-19.0
 21
21.0
 31
0.0
  0
ARC
  5
E3
  8
OUTLINE
  6
CONTINUOUS
 62
     3
 10
-19.0
 20
20.0
 30
0.0
 40
1.0
 50
90.0
 51
180.0
  0
LINE
  5
E4
  8
DETAIL
  6
CONTINUOUS
 62
     5
 39
50.0
 10
-35.0
 20
0.0
 30
0.0
 11
35.0
 21
0.0
 31
0.0
  0
LINE
  5
E5
  8
DETAIL
  6
CONTINUOUS
 62
     5
 39
50.0
 10
-32.0
 20
-10.5
 30
0.0
 11
32.0
 21
-10.5
 31
0.0
  0
LINE
  5
E6
  8
DETAIL
  6
CONTINUOUS
 62
     5
 39
50.0
 10
-20.0
 20
-14.300000000000001
 30
0.0
 11
20.0
 21
-14.300000000000001
 31
0.0
  0
LINE
  5
E7
  8
DETAIL
  6
CONTINUOUS
 62
     5
 10
35.0
 20
-7.5
 30
0.0
 11
35.0
 21
0.0
 31
0.0
  0
LINE
  5
E8
  8
DETAIL
  6
CONTINUOUS
 62
     5
 10
-35.0
 20
-7.5
 30
0.0
 11
-35.0
 21
0.0
 31
0.0
  0
LINE
  5
E9
  8
DETAIL
  6
CONTINUOUS
 62
     5
 10
21.0
 20
-13.300000000000001
 30
0.0
 11
21.0
 21
-10.5
 31
0.0
  0
LINE
  5
EA
  8
DETAIL
  6
CONTINUOUS
 62
     5
 10
-21.0
 20
-13.300000000000001
 30
0.0
 11
-21.0
 21
-10.5
 31
0.0
  0
ARC
  5
EB
  8
DETAIL
  6
CONTINUOUS
 62
     5
 10
-32.0
 20
-7.5
 30
0.0
 40
3.0
 50
180.0
 51
270.0
  0
ARC
  5
EC
  8
DETAIL
  6
CONTINUOUS
 62
     5
 10
32.0
 20
-7.5
 30
0.0
 40
3.0
 50
270.0
 51
0.0
  0
ARC
  5
ED
  8
DETAIL
  6
CONTINUOUS
 62
     5
 10
-20.0
 20
-13.300000000000001
 30
0.0
 40
1.0
 50
180.0
 51
270.0
  0
ARC
  5
EE
  8
DETAIL
  6
CONTINUOUS
 62
     5
 10
20.0
 20
-13.300000000000001
 30
0.0
 40
1.0
 50
270.0
 51
0.0
  0
LINE
  5
EF
  8
DETAIL
  6
CONTINUOUS
 62
     5
 39
50.0
 10
-9.5
 20
28.0
 30
0.0
 11
9.5
 21
28.0
 31
0.0
  0
LINE
  5
F0
  8
DETAIL
  6
CONTINUOUS
 62
     5
 39
50.0
 10
13.0
 20
25.0
 30
0.0
 11
13.0
 21
25.0
 31
0.0
  0
LINE
  5
F1
  8
DETAIL
  6
CONTINUOUS
 62
     5
 10
22.0
 20
0.0
 30
0.0
 11
22.0
 21
7.0
 31
0.0
  0
LINE
  5
F2
  8
DETAIL
  6
CONTINUOUS
 62
     5
 10
-22.0
 20
0.0
 30
0.0
 11
-22.0
 21
7.0
 31
0.0
  0
LINE
  5
F3
  8
DETAIL
  6
CONTINUOUS
 62
     5
 39
50.0
 10
-21.0
 20
8.0
 30
0.0
 11
21.0
 21
8.0
 31
0.0
  0
LINE
  5
F4
  8
DETAIL
  6
CONTINUOUS
 62
     5
 10
20.0
 20
8.0
 30
0.0
 11
20.0
 21
20.0
 31
0.0
  0
LINE
  5
F5
  8
DETAIL
  6
CONTINUOUS
 62
     5
 10
-10.5
 20
8.0
 30
0.0
 11
-10.5
 21
27.0
 31
0.0
  0
LINE
  5
F6
  8
DETAIL
  6
CONTINUOUS
 62
     5
 10
10.5
 20
8.0
 30
0.0
 11
10.5
 21
27.0
 31
0.0
  0
LINE
  5
F7
  8
DETAIL
  6
CONTINUOUS
 62
     5
 39
50.0
 10
10.5
 20
21.0
 30
0.0
 11
19.0
 21
21.0
 31
0.0
  0
LINE
  5
F8
  8
DETAIL
  6
CONTINUOUS
 62
     5
 10
12.0
 20
21.0
 30
0.0
 11
12.0
 21
24.0
 31
0.0
  0
LINE
  5
F9
  8
DETAIL
  6
CONTINUOUS
 62
     5
 10
14.0
 20
21.0
 30
0.0
 11
14.0
 21
24.0
 31
0.0
  0
ARC
  5
FA
  8
DETAIL
  6
CONTINUOUS
 62
     5
 39
50.0
 10
-9.5
 20
27.0
 30
0.0
 40
1.0
 50
90.0
 51
180.0
  0
ARC
  5
FB
  8
DETAIL
  6
CONTINUOUS
 62
     5
 10
9.5
 20
27.0
 30
0.0
 40
1.0
 50
0.0
 51
90.0
  0
ARC
  5
FC
  8
DETAIL
  6
CONTINUOUS
 62
     5
 10
19.0
 20
20.0
 30
0.0
 40
1.0
 50
0.0
 51
90.0
  0
ARC
  5
FD
  8
DETAIL
  6
CONTINUOUS
 62
     5
 39
50.0
 10
13.0
 20
24.0
 30
0.0
 40
1.0
 50
0.0
 51
90.0
  0
ARC
  5
FE
  8
DETAIL
  6
CONTINUOUS
 62
     5
 39
50.0
 10
13.0
 20
24.0
 30
0.0
 40
1.0
 50
90.0
 51
180.0
  0
ARC
  5
FF
  8
DETAIL
  6
CONTINUOUS
 62
     5
 39
50.0
 10
21.0
 20
7.0
 30
0.0
 40
1.0
 50
0.0
 51
90.0
  0
ARC
  5
100
  8
DETAIL
  6
CONTINUOUS
 62
     5
 39
50.0
 10
-21.0
 20
7.0
 30
0.0
 40
1.0
 50
90.0
 51
180.0
  0
LINE
  5
101
  8
DETAIL
  6
CONTINUOUS
 62
     5
 10
-20.0
 20
8.0
 30
0.0
 11
-20.0
 21
20.0
 31
0.0
  0
LINE
  5
102
  8
DETAIL
  6
CONTINUOUS
 62
     5
 39
50.0
 10
-10.5
 20
21.0
 30
0.0
 11
-19.0
 21
21.0
 31
0.0
  0
ARC
  5
103
  8
DETAIL
  6
CONTINUOUS
 62
     5
 10
-19.0
 20
20.0
 30
0.0
 40
1.0
 50
90.0
 51
180.0
  0
LINE
  5
104
  8
OUTLINE
  6
CONTINUOUS
 62
     3
 39
50.0
 10
20.0
 20
8.0
 30
0.0
 11
21.0
 21
8.0
 31
0.0
  0
LINE
  5
105
  8
OUTLINE
  6
CONTINUOUS
 62
     3
 39
50.0
 10
22.0
 20
0.0
 30
0.0
 11
35.0
 21
0.0
 31
0.0
  0
LINE
  5
106
  8
OUTLINE
  6
CONTINUOUS
 62
     3
 39
50.0
 10
21.0
 20
-10.5
 30
0.0
 11
32.0
 21
-10.5
 31
0.0
  0
TEXT
  5
10F
  8
ETC
  6
CONTINUOUS
 62
    61
 10
325.8090078989008
 20
62.059879196470249
 30
0.0
 40
40.0
  1
P-1600SWL
 41
0.9
  0
ENDSEC
  0
EOF
