  0
SECTION
  2
HEADER
  9
$ACADVER
  1
AC1009
  9
$INSBASE
 10
0.0
 20
0.0
 30
0.0
  9
$EXTMIN
 10
-293.19525499999997
 20
-259.14285699999999
 30
0.0
  9
$EXTMAX
 10
808.31222357142792
 20
413.07565199999999
 30
50.0
  9
$LIMMIN
 10
-2970.0
 20
-2100.0
  9
$LIMMAX
 10
2970.0
 20
2100.0
  9
$ORTHOMODE
 70
     1
  9
$REGENMODE
 70
     1
  9
$FILLMODE
 70
     1
  9
$QTEXTMODE
 70
     0
  9
$MIRRTEXT
 70
     0
  9
$DRAGMODE
 70
     2
  9
$LTSCALE
 40
20.0
  9
$OSMODE
 70
    55
  9
$ATTMODE
 70
     1
  9
$TEXTSIZE
 40
64.0
  9
$TRACEWID
 40
0.05
  9
$TEXTSTYLE
  7
STANDARD
  9
$CLAYER
  8
SIZE
  9
$CELTYPE
  6
CONTINUOUS
  9
$CECOLOR
 62
     7
  9
$DIMSCALE
 40
1.0
  9
$DIMASZ
 40
12.0
  9
$DIMEXO
 40
20.0
  9
$DIMDLI
 40
200.0
  9
$DIMRND
 40
0.0
  9
$DIMDLE
 40
0.0
  9
$DIMEXE
 40
20.0
  9
$DIMTP
 40
0.0
  9
$DIMTM
 40
0.0
  9
$DIMTXT
 40
64.0
  9
$DIMCEN
 40
0.09
  9
$DIMTSZ
 40
0.0
  9
$DIMTOL
 70
     0
  9
$DIMLIM
 70
     0
  9
$DIMTIH
 70
     0
  9
$DIMTOH
 70
     0
  9
$DIMSE1
 70
     0
  9
$DIMSE2
 70
     0
  9
$DIMTAD
 70
     1
  9
$DIMZIN
 70
     8
  9
$DIMBLK
  1
DOT1
  9
$DIMASO
 70
     1
  9
$DIMSHO
 70
     0
  9
$DIMPOST
  1

  9
$DIMAPOST
  1

  9
$DIMALT
 70
     0
  9
$DIMALTD
 70
     2
  9
$DIMALTF
 40
25.399999999999999
  9
$DIMLFAC
 40
1.0
  9
$DIMTOFL
 70
     1
  9
$DIMTVP
 40
0.0
  9
$DIMTIX
 70
     1
  9
$DIMSOXD
 70
     0
  9
$DIMSAH
 70
     1
  9
$DIMBLK1
  1
ORIGIN
  9
$DIMBLK2
  1
ORIGIN
  9
$DIMSTYLE
  2
STANDARD
  9
$DIMCLRD
 70
     7
  9
$DIMCLRE
 70
     7
  9
$DIMCLRT
 70
     7
  9
$DIMTFAC
 40
1.0
  9
$DIMGAP
 40
25.0
  9
$LUNITS
 70
     2
  9
$LUPREC
 70
     4
  9
$SKETCHINC
 40
0.1
  9
$FILLETRAD
 40
3.0
  9
$AUNITS
 70
     1
  9
$AUPREC
 70
     3
  9
$MENU
  1
ACAD
  9
$ELEVATION
 40
0.0
  9
$PELEVATION
 40
0.0
  9
$THICKNESS
 40
50.0
  9
$LIMCHECK
 70
     0
  9
$BLIPMODE
 70
     0
  9
$CHAMFERA
 40
0.0
  9
$CHAMFERB
 40
0.0
  9
$SKPOLY
 70
     0
  9
$TDCREATE
 40
2453019.6230103709
  9
$TDUPDATE
 40
2456391.5952626741
  9
$TDINDWG
 40
1.6675764930999999
  9
$TDUSRTIMER
 40
1.6675763079000001
  9
$USRTIMER
 70
     1
  9
$ANGBASE
 50
0.0
  9
$ANGDIR
 70
     0
  9
$PDMODE
 70
     3
  9
$PDSIZE
 40
-2.0
  9
$PLINEWID
 40
0.0
  9
$COORDS
 70
     1
  9
$SPLFRAME
 70
     0
  9
$SPLINETYPE
 70
     6
  9
$SPLINESEGS
 70
     8
  9
$ATTDIA
 70
     0
  9
$ATTREQ
 70
     1
  9
$HANDLING
 70
     1
  9
$HANDSEED
  5
1D3
  9
$SURFTAB1
 70
     6
  9
$SURFTAB2
 70
     6
  9
$SURFTYPE
 70
     6
  9
$SURFU
 70
     6
  9
$SURFV
 70
     6
  9
$UCSNAME
  2

  9
$UCSORG
 10
0.0
 20
0.0
 30
0.0
  9
$UCSXDIR
 10
1.0
 20
0.0
 30
0.0
  9
$UCSYDIR
 10
0.0
 20
1.0
 30
0.0
  9
$PUCSNAME
  2

  9
$PUCSORG
 10
0.0
 20
0.0
 30
0.0
  9
$PUCSXDIR
 10
1.0
 20
0.0
 30
0.0
  9
$PUCSYDIR
 10
0.0
 20
1.0
 30
0.0
  9
$USERI1
 70
     0
  9
$USERI2
 70
     0
  9
$USERI3
 70
     0
  9
$USERI4
 70
     0
  9
$USERI5
 70
     0
  9
$USERR1
 40
20.0
  9
$USERR2
 40
0.0
  9
$USERR3
 40
0.0
  9
$USERR4
 40
0.0
  9
$USERR5
 40
0.0
  9
$WORLDVIEW
 70
     1
  9
$SHADEDGE
 70
     3
  9
$SHADEDIF
 70
    70
  9
$TILEMODE
 70
     1
  9
$MAXACTVP
 70
    48
  9
$PLIMCHECK
 70
     0
  9
$PEXTMIN
 10
-1.0000000000000000E+020
 20
-1.0000000000000000E+020
 30
-1.0000000000000000E+020
  9
$PEXTMAX
 10
1.0000000000000000E+020
 20
1.0000000000000000E+020
 30
1.0000000000000000E+020
  9
$PLIMMIN
 10
0.0
 20
0.0
  9
$PLIMMAX
 10
12.0
 20
9.0
  9
$UNITMODE
 70
     0
  9
$VISRETAIN
 70
     0
  9
$PLINEGEN
 70
     0
  9
$PSLTSCALE
 70
     0
  0
ENDSEC
  0
SECTION
  2
TABLES
  0
TABLE
  2
VPORT
 70
     1
  0
VPORT
  2
*ACTIVE
 70
     0
 10
0.0
 20
0.0
 11
1.0
 21
1.0
 12
282.81650146746318
 22
163.43182378868019
 13
0.0
 23
0.0
 14
1.0
 24
1.0
 15
0.0
 25
0.0
 16
0.0
 26
0.0
 36
1.0
 17
0.0
 27
0.0
 37
0.0
 40
924.28419137394087
 41
1.6865079365079361
 42
50.0
 43
0.0
 44
0.0
 50
0.0
 51
0.0
 71
     0
 72
  1000
 73
     1
 74
     0
 75
     0
 76
     0
 77
     0
 78
     0
  0
ENDTAB
  0
TABLE
  2
LTYPE
 70
     3
  0
LTYPE
  2
CONTINUOUS
 70
     0
  3
実線
 72
    65
 73
     0
 40
0.0
  0
LTYPE
  2
DASHDOT
 70
     0
  3
____ _ ____ _ ____ _ ____ _ ____ _ ____ _ ____
 72
    65
 73
     4
 40
5.5
 49
4.0
 49
-0.6
 49
0.3
 49
-0.6
  0
ENDTAB
  0
TABLE
  2
LAYER
 70
    12
  0
LAYER
  2
0
 70
     0
 62
     7
  6
CONTINUOUS
  0
LAYER
  2
SIZE
 70
     0
 62
    30
  6
CONTINUOUS
  0
LAYER
  2
BASIS
 70
     0
 62
     6
  6
DASHDOT
  0
LAYER
  2
OUTLINE
 70
     0
 62
     3
  6
CONTINUOUS
  0
LAYER
  2
DETAIL
 70
     0
 62
     5
  6
CONTINUOUS
  0
LAYER
  2
ARRANGE
 70
     0
 62
     1
  6
CONTINUOUS
  0
LAYER
  2
DEFPOINTS
 70
     0
 62
     7
  6
CONTINUOUS
  0
LAYER
  2
ETC
 70
     0
 62
    61
  6
CONTINUOUS
  0
LAYER
  2
FIX
 70
     0
 62
    11
  6
CONTINUOUS
  0
LAYER
  2
NOTE
 70
     0
 62
     4
  6
CONTINUOUS
  0
LAYER
  2
SERVICESPACE
 70
     0
 62
     2
  6
DASHDOT
  0
LAYER
  2
SYMBOLLINE
 70
     0
 62
    15
  6
CONTINUOUS
  0
ENDTAB
  0
TABLE
  2
STYLE
 70
     2
  0
STYLE
  2
STANDARD
 70
     0
 40
64.0
 41
0.9
 50
0.0
 71
     0
 42
64.0
  3
SIMPLEX.shx
  4
BIGFONT.shx
  0
STYLE
  2
ANNOTATIVE
 70
     0
 40
0.0
 41
1.0
 50
0.0
 71
     0
 42
0.2
  3
txt
  4

  0
ENDTAB
  0
TABLE
  2
VIEW
 70
     1
  0
VIEW
  2
ALL
 70
     0
 40
4282.6198080000004
 10
0.0
 20
41.309904000000003
 41
5940.0
 11
0.0
 21
0.0
 31
1.0
 12
0.0
 22
0.0
 32
0.0
 42
50.0
 43
0.0
 44
0.0
 50
0.0
 71
     0
  0
ENDTAB
  0
TABLE
  2
UCS
 70
     0
  0
ENDTAB
  0
TABLE
  2
APPID
 70
    18
  0
APPID
  2
ACAD
 70
     0
  0
APPID
  2
ACADANNOTATIVE
 70
     0
  0
APPID
  2
AUTOCAD_POSTSCRIPT_FIGURE
 70
     0
  0
APPID
  2
ACAD_EXEMPT_FROM_CAD_STANDARDS
 70
     0
  0
APPID
  2
ACAD_PSEXT
 70
     0
  0
APPID
  2
ACAUTHENVIRON
 70
     0
  0
APPID
  2
GENIUS_GENOENT_13
 70
     0
  0
APPID
  2
GENIUS_GENCFG_13
 70
     0
  0
APPID
  2
GENIUS_GENCFG0_13
 70
     0
  0
APPID
  2
GENIUS_GENCFG1_13
 70
     0
  0
APPID
  2
GENIUS_GENCFG2_13
 70
     0
  0
APPID
  2
GENIUS_GENCFG3_13
 70
     0
  0
APPID
  2
GENIUS_GENCFG4_13
 70
     0
  0
APPID
  2
GENIUS_GEVCFG0_13
 70
     0
  0
APPID
  2
CONTENTBLOCKICON
 70
     0
  0
APPID
  2
CONTENTBLOCKDESCRIPTION
 70
     0
  0
APPID
  2
ACAD_NAV_VCDISPLAY
 70
     0
  0
APPID
  2
ACAD_MLEADERVER
 70
     0
  0
ENDTAB
  0
TABLE
  2
DIMSTYLE
 70
     2
  0
DIMSTYLE
  2
STANDARD
 70
     0
  3

  4

  5

  6

  7

 40
1.0
 41
0.18
 42
0.0625
 43
0.38
 44
0.18
 45
0.0
 46
0.0
 47
0.0
 48
0.0
140
0.18
141
0.09
142
0.0
143
25.399999999999999
144
1.0
145
0.0
146
1.0
147
0.09
 71
     0
 72
     0
 73
     1
 74
     1
 75
     0
 76
     0
 77
     0
 78
     0
170
     0
171
     2
172
     0
173
     0
174
     0
175
     0
176
     7
177
     7
178
     7
  0
DIMSTYLE
  2
ANNOTATIVE
 70
     0
  3

  4

  5

  6

  7

 40
1.0
 41
0.18
 42
0.0625
 43
0.38
 44
0.18
 45
0.0
 46
0.0
 47
0.0
 48
0.0
140
0.18
141
0.09
142
0.0
143
25.399999999999999
144
1.0
145
0.0
146
1.0
147
0.09
 71
     0
 72
     0
 73
     1
 74
     1
 75
     0
 76
     0
 77
     0
 78
     0
170
     0
171
     2
172
     0
173
     0
174
     0
175
     0
176
     0
177
     0
178
     0
  0
ENDTAB
  0
ENDSEC
  0
SECTION
  2
BLOCKS
  0
BLOCK
  8
0
  2
$MODEL_SPACE
 70
     0
 10
0.0
 20
0.0
 30
0.0
  3
$MODEL_SPACE
  1

  0
ENDBLK
  5
6D
  8
0
  0
BLOCK
 67
     1
  8
0
  2
$PAPER_SPACE
 70
     0
 10
0.0
 20
0.0
 30
0.0
  3
$PAPER_SPACE
  1

  0
ENDBLK
  5
69
 67
     1
  8
0
  0
BLOCK
  8
0
  2
DOT1
 70
     0
 10
0.0
 20
0.0
 30
0.0
  3
DOT1
  1

  0
CIRCLE
  5
90
  8
SIZE
  6
CONTINUOUS
 62
     7
 10
0.0
 20
0.0
 30
0.0
 40
3.0
  0
ENDBLK
  5
91
  8
0
  0
BLOCK
  8
0
  2
_ORIGIN
 70
     0
 10
0.0
 20
0.0
 30
0.0
  3
_ORIGIN
  1

  0
CIRCLE
  5
94
  8
0
  6
CONTINUOUS
 62
     7
 10
0.0
 20
0.0
 30
0.0
 40
0.5
  0
LINE
  5
95
  8
0
  6
CONTINUOUS
 62
     7
 10
0.0
 20
0.0
 30
0.0
 11
-1.0
 21
0.0
 31
0.0
  0
ENDBLK
  5
96
  8
0
  0
ENDSEC
  0
SECTION
  2
ENTITIES
  0
TEXT
  5
97
  8
ETC
  6
CONTINUOUS
 62
    61
 10
144.540795
 20
349.07565199999999
 30
0.0
 40
64.0
  1
P-1600SWL2_5
 41
0.9
  0
TEXT
  5
98
  8
ETC
  6
CONTINUOUS
 62
    61
 10
140.35480100000001
 20
231.12034199999999
 30
0.0
 40
64.0
  1
システム部材
 41
0.9
  0
TEXT
  5
99
  8
ETC
  6
CONTINUOUS
 62
    61
 10
190.96230299999999
 20
124.19940699999999
 30
0.0
 40
40.0
  1
P-1600SWL2
 41
0.9
  0
CIRCLE
  5
9A
  8
ARRANGE
  6
CONTINUOUS
 62
     1
 10
0.0
 20
0.0
 30
0.0
 40
40.0
  0
POINT
  5
9B
  8
ARRANGE
  6
CONTINUOUS
 62
     1
 10
0.0
 20
0.0
 30
0.0
 39
50.0
  0
LINE
  5
9C
  8
BASIS
  6
DASHDOT
 62
     6
 10
-34.879069999999999
 20
0.0
 30
0.0
 11
24.556753
 21
0.0
 31
0.0
  0
ARC
  5
9D
  8
OUTLINE
  6
CONTINUOUS
 62
     3
 10
-20.352
 20
-30.576000000000001
 30
0.0
 40
0.9599999999999999
 50
180.0
 51
270.0
  0
ARC
  5
9E
  8
OUTLINE
  6
CONTINUOUS
 62
     3
 10
-20.352
 20
-13.584
 30
0.0
 40
0.9599999999999999
 50
90.0
 51
180.0
  0
LINE
  5
9F
  8
OUTLINE
  6
CONTINUOUS
 62
     3
 10
-7.6799999999999979
 20
32.975999999999999
 30
0.0
 11
-24.672000000000001
 21
32.975999999999999
 31
0.0
  0
LINE
  5
A0
  8
OUTLINE
  6
CONTINUOUS
 62
     3
 10
-7.6799999999999979
 20
11.183999999999999
 30
0.0
 11
-22.271999999999998
 21
11.183999999999999
 31
0.0
  0
LINE
  5
A1
  8
OUTLINE
  6
CONTINUOUS
 62
     3
 10
0.0
 20
60.0
 30
0.0
 11
0.0
 21
-60.0
 31
0.0
  0
LINE
  5
A2
  8
OUTLINE
  6
CONTINUOUS
 62
     3
 10
10.48
 20
56.640000000000001
 30
0.0
 11
10.48
 21
-56.640000000000001
 31
0.0
  0
LINE
  5
A3
  8
OUTLINE
  6
CONTINUOUS
 62
     3
 10
14.300000000000001
 20
40.655999999999992
 30
0.0
 11
14.300000000000001
 21
0.7440000000000002
 31
0.0
  0
LINE
  5
A4
  8
OUTLINE
  6
CONTINUOUS
 62
     3
 10
-7.6799999999999979
 20
32.159999999999997
 30
0.0
 11
-7.6799999999999979
 21
-32.159999999999997
 31
0.0
  0
LINE
  5
A5
  8
OUTLINE
  6
CONTINUOUS
 62
     3
 10
14.300000000000001
 20
-0.7440000000000002
 30
0.0
 11
14.300000000000001
 21
-40.655999999999992
 31
0.0
  0
LINE
  5
A6
  8
OUTLINE
  6
CONTINUOUS
 62
     3
 10
7.1200000000000001
 20
-60.0
 30
0.0
 11
0.0
 21
-60.0
 31
0.0
  0
ARC
  5
A7
  8
OUTLINE
  6
CONTINUOUS
 62
     3
 10
7.1200000000000001
 20
-56.640000000000001
 30
0.0
 40
3.359999999999999
 50
270.0
 51
0.0
  0
LINE
  5
A8
  8
OUTLINE
  6
CONTINUOUS
 62
     3
 10
10.48
 20
-41.616
 30
0.0
 11
11.44
 21
-41.616
 31
0.0
  0
ARC
  5
A9
  8
OUTLINE
  6
CONTINUOUS
 62
     3
 10
11.627229
 20
-37.433579000000002
 30
0.0
 40
4.1866099999999991
 50
267.43682100000001
 51
309.67331000000001
  0
LINE
  5
AA
  8
OUTLINE
  6
CONTINUOUS
 62
     3
 10
-7.497971999999999
 20
-32.975999999999999
 30
0.0
 11
-9.1199999999999992
 21
-32.975999999999999
 31
0.0
  0
ARC
  5
AB
  8
OUTLINE
  6
CONTINUOUS
 62
     3
 10
-5.7599999999999989
 20
-32.159999999999997
 30
0.0
 40
1.919999999999999
 50
180.0
 51
270.0
  0
LINE
  5
AC
  8
OUTLINE
  6
CONTINUOUS
 62
     3
 10
0.0
 20
-34.079999999999998
 30
0.0
 11
-5.7599999999999989
 21
-34.079999999999998
 31
0.0
  0
LINE
  5
AD
  8
OUTLINE
  6
CONTINUOUS
 62
     3
 10
-9.5999999999999996
 20
-32.015999999999998
 30
0.0
 11
-9.5999999999999996
 21
-32.496000000000002
 31
0.0
  0
ARC
  5
AE
  8
OUTLINE
  6
CONTINUOUS
 62
     3
 10
-9.1199999999999992
 20
-32.496000000000002
 30
0.0
 40
0.48
 50
180.0
 51
270.0
  0
LINE
  5
AF
  8
OUTLINE
  6
CONTINUOUS
 62
     3
 10
-8.6400000000000006
 20
-31.536000000000001
 30
0.0
 11
-20.352
 21
-31.536000000000001
 31
0.0
  0
ARC
  5
B0
  8
OUTLINE
  6
CONTINUOUS
 62
     3
 10
-9.1199999999999992
 20
-32.015999999999998
 30
0.0
 40
0.48
 50
90.0
 51
180.0
  0
LINE
  5
B1
  8
OUTLINE
  6
CONTINUOUS
 62
     3
 10
10.48
 20
-0.264
 30
0.0
 11
11.92
 21
-0.264
 31
0.0
  0
ARC
  5
B2
  8
OUTLINE
  6
CONTINUOUS
 62
     3
 10
12.087717
 20
-5.5728189999999991
 30
0.0
 40
5.3114679999999987
 50
65.385514999999998
 51
91.809495999999996
  0
LINE
  5
B3
  8
OUTLINE
  6
CONTINUOUS
 62
     3
 10
10.48
 20
0.264
 30
0.0
 11
11.92
 21
0.264
 31
0.0
  0
ARC
  5
B4
  8
OUTLINE
  6
CONTINUOUS
 62
     3
 10
12.087717
 20
5.5728189999999991
 30
0.0
 40
5.3114679999999987
 50
268.19050399999998
 51
294.614485
  0
LINE
  5
B5
  8
OUTLINE
  6
CONTINUOUS
 62
     3
 10
-7.6799999999999979
 20
-11.183999999999999
 30
0.0
 11
-9.1199999999999992
 21
-11.183999999999999
 31
0.0
  0
LINE
  5
B6
  8
OUTLINE
  6
CONTINUOUS
 62
     3
 10
-8.6400000000000006
 20
-12.624000000000001
 30
0.0
 11
-20.352
 21
-12.624000000000001
 31
0.0
  0
ARC
  5
B7
  8
OUTLINE
  6
CONTINUOUS
 62
     3
 10
-9.1199999999999992
 20
-12.144
 30
0.0
 40
0.48
 50
180.0
 51
270.0
  0
LINE
  5
B8
  8
OUTLINE
  6
CONTINUOUS
 62
     3
 10
-9.5999999999999996
 20
-11.664
 30
0.0
 11
-9.5999999999999996
 21
-12.144
 31
0.0
  0
ARC
  5
B9
  8
OUTLINE
  6
CONTINUOUS
 62
     3
 10
-9.1199999999999992
 20
-11.664
 30
0.0
 40
0.48
 50
90.0
 51
180.0
  0
LINE
  5
BA
  8
OUTLINE
  6
CONTINUOUS
 62
     3
 10
10.48
 20
41.616
 30
0.0
 11
11.44
 21
41.616
 31
0.0
  0
ARC
  5
BB
  8
OUTLINE
  6
CONTINUOUS
 62
     3
 10
11.627229
 20
37.433579000000002
 30
0.0
 40
4.1866099999999991
 50
50.326689999999999
 51
92.563179000000005
  0
LINE
  5
BC
  8
OUTLINE
  6
CONTINUOUS
 62
     3
 10
-7.497971999999999
 20
32.975999999999999
 30
0.0
 11
-9.1199999999999992
 21
32.975999999999999
 31
0.0
  0
ARC
  5
BD
  8
OUTLINE
  6
CONTINUOUS
 62
     3
 10
-5.7599999999999989
 20
32.159999999999997
 30
0.0
 40
1.919999999999999
 50
90.0
 51
180.0
  0
LINE
  5
BE
  8
OUTLINE
  6
CONTINUOUS
 62
     3
 10
0.0
 20
34.079999999999998
 30
0.0
 11
-5.7599999999999989
 21
34.079999999999998
 31
0.0
  0
LINE
  5
BF
  8
OUTLINE
  6
CONTINUOUS
 62
     3
 10
7.1200000000000001
 20
60.0
 30
0.0
 11
0.0
 21
60.0
 31
0.0
  0
ARC
  5
C0
  8
OUTLINE
  6
CONTINUOUS
 62
     3
 10
7.1200000000000001
 20
56.640000000000001
 30
0.0
 40
3.359999999999999
 50
0.0
 51
90.0
  0
LINE
  5
C1
  8
OUTLINE
  6
CONTINUOUS
 62
     3
 10
-22.271999999999998
 20
11.183999999999999
 30
0.0
 11
-22.271999999999998
 21
-6.2400000000000002
 31
0.0
  0
LINE
  5
C2
  8
OUTLINE
  6
CONTINUOUS
 62
     3
 10
-24.672000000000001
 20
11.183999999999999
 30
0.0
 11
-24.672000000000001
 21
-6.2400000000000002
 31
0.0
  0
LINE
  5
C3
  8
OUTLINE
  6
CONTINUOUS
 62
     3
 10
-21.312000000000001
 20
-13.584
 30
0.0
 11
-21.312000000000001
 21
-15.84
 31
0.0
  0
ARC
  5
C4
  8
OUTLINE
  6
CONTINUOUS
 62
     3
 10
-21.312000000000001
 20
-14.880000000000001
 30
0.0
 40
3.359999999999999
 50
180.0
 51
270.0
  0
LINE
  5
C5
  8
OUTLINE
  6
CONTINUOUS
 62
     3
 10
-22.271999999999998
 20
-6.2400000000000002
 30
0.0
 11
-22.271999999999998
 21
-14.880000000000001
 31
0.0
  0
LINE
  5
C6
  8
OUTLINE
  6
CONTINUOUS
 62
     3
 10
-24.672000000000001
 20
-6.2400000000000002
 30
0.0
 11
-24.672000000000001
 21
-14.880000000000001
 31
0.0
  0
ARC
  5
C7
  8
OUTLINE
  6
CONTINUOUS
 62
     3
 10
-21.312000000000001
 20
-14.880000000000001
 30
0.0
 40
0.9599999999999999
 50
180.0
 51
270.0
  0
LINE
  5
C8
  8
OUTLINE
  6
CONTINUOUS
 62
     3
 10
-28.032
 20
32.015999999999998
 30
0.0
 11
-28.032
 21
12.144
 31
0.0
  0
ARC
  5
C9
  8
OUTLINE
  6
CONTINUOUS
 62
     3
 10
-27.071999999999999
 20
12.144
 30
0.0
 40
0.9599999999999999
 50
180.0
 51
270.0
  0
LINE
  5
CA
  8
OUTLINE
  6
CONTINUOUS
 62
     3
 10
-24.672000000000001
 20
11.183999999999999
 30
0.0
 11
-27.071999999999999
 21
11.183999999999999
 31
0.0
  0
ARC
  5
CB
  8
OUTLINE
  6
CONTINUOUS
 62
     3
 10
-27.071999999999999
 20
32.015999999999998
 30
0.0
 40
0.9599999999999999
 50
90.0
 51
180.0
  0
LINE
  5
CC
  8
OUTLINE
  6
CONTINUOUS
 62
     3
 10
-24.672000000000001
 20
32.975999999999999
 30
0.0
 11
-27.071999999999999
 21
32.975999999999999
 31
0.0
  0
LINE
  5
CD
  8
SIZE
  6
CONTINUOUS
 62
    30
 10
0.0
 20
80.0
 30
0.0
 11
0.0
 21
131.43095099999999
 31
0.0
  0
LINE
  5
CE
  8
SIZE
  6
CONTINUOUS
 62
    30
 10
10.48
 20
76.640000000000001
 30
0.0
 11
10.48
 21
131.43095099999999
 31
0.0
  0
LINE
  5
CF
  8
SIZE
  6
CONTINUOUS
 62
    30
 10
22.48
 20
111.43095099999999
 30
0.0
 11
34.479999999999997
 21
111.43095099999999
 31
0.0
  0
LINE
  5
D0
  8
SIZE
  6
CONTINUOUS
 62
    30
 10
-12.0
 20
111.43095099999999
 30
0.0
 11
-238.57142899999999
 21
111.43095099999999
 31
0.0
  0
LINE
  5
D1
  8
SIZE
  6
CONTINUOUS
 62
    30
 10
10.48
 20
111.43095099999999
 30
0.0
 11
0.0
 21
111.43095099999999
 31
0.0
  0
CIRCLE
  5
D2
  8
SIZE
  6
CONTINUOUS
 62
    30
 10
10.48
 20
111.43095099999999
 30
0.0
 40
6.0
  0
LINE
  5
D3
  8
SIZE
  6
CONTINUOUS
 62
    30
 10
10.48
 20
111.43095099999999
 30
0.0
 11
22.48
 21
111.43095099999999
 31
0.0
  0
CIRCLE
  5
D4
  8
SIZE
  6
CONTINUOUS
 62
    30
 10
0.0
 20
111.43095099999999
 30
0.0
 40
6.0
  0
LINE
  5
D5
  8
SIZE
  6
CONTINUOUS
 62
    30
 10
0.0
 20
111.43095099999999
 30
0.0
 11
-12.0
 21
111.43095099999999
 31
0.0
  0
TEXT
  5
D6
  8
SIZE
  6
CONTINUOUS
 62
    30
 10
-213.57142828571429
 20
136.43095099999999
 30
0.0
 40
64.0
  1
10.5
 41
0.9
 72
     1
 11
-131.28571400000001
 21
136.43095099999999
 31
0.0
  0
POINT
  5
D7
  8
DEFPOINTS
  6
CONTINUOUS
 62
    30
 10
0.0
 20
60.0
 30
0.0
  0
POINT
  5
D8
  8
DEFPOINTS
  6
CONTINUOUS
 62
    30
 10
10.48
 20
56.640000000000001
 30
0.0
  0
POINT
  5
D9
  8
DEFPOINTS
  6
CONTINUOUS
 62
    30
 10
10.48
 20
111.43095099999999
 30
0.0
  0
LINE
  5
DA
  8
SIZE
  6
CONTINUOUS
 62
    30
 10
0.0
 20
80.0
 30
0.0
 11
0.0
 21
251.43095099999999
 31
0.0
  0
LINE
  5
DB
  8
SIZE
  6
CONTINUOUS
 62
    30
 10
14.300000000000001
 20
60.655999999999992
 30
0.0
 11
14.300000000000001
 21
251.43095099999999
 31
0.0
  0
LINE
  5
DC
  8
SIZE
  6
CONTINUOUS
 62
    30
 10
26.300000000000001
 20
231.43095099999999
 30
0.0
 11
38.299999999999997
 21
231.43095099999999
 31
0.0
  0
LINE
  5
DD
  8
SIZE
  6
CONTINUOUS
 62
    30
 10
-12.0
 20
231.43095099999999
 30
0.0
 11
-239.942857
 21
231.43095099999999
 31
0.0
  0
LINE
  5
DE
  8
SIZE
  6
CONTINUOUS
 62
    30
 10
14.300000000000001
 20
231.43095099999999
 30
0.0
 11
0.0
 21
231.43095099999999
 31
0.0
  0
CIRCLE
  5
DF
  8
SIZE
  6
CONTINUOUS
 62
    30
 10
14.300000000000001
 20
231.43095099999999
 30
0.0
 40
6.0
  0
LINE
  5
E0
  8
SIZE
  6
CONTINUOUS
 62
    30
 10
14.300000000000001
 20
231.43095099999999
 30
0.0
 11
26.300000000000001
 21
231.43095099999999
 31
0.0
  0
CIRCLE
  5
E1
  8
SIZE
  6
CONTINUOUS
 62
    30
 10
0.0
 20
231.43095099999999
 30
0.0
 40
6.0
  0
LINE
  5
E2
  8
SIZE
  6
CONTINUOUS
 62
    30
 10
0.0
 20
231.43095099999999
 30
0.0
 11
-12.0
 21
231.43095099999999
 31
0.0
  0
TEXT
  5
E3
  8
SIZE
  6
CONTINUOUS
 62
    30
 10
-214.94285728571421
 20
256.43095099999999
 30
0.0
 40
64.0
  1
14.3
 41
0.9
 72
     1
 11
-132.65714299999991
 21
256.43095099999999
 31
0.0
  0
POINT
  5
E4
  8
DEFPOINTS
  6
CONTINUOUS
 62
    30
 10
0.0
 20
60.0
 30
0.0
  0
POINT
  5
E5
  8
DEFPOINTS
  6
CONTINUOUS
 62
    30
 10
14.300000000000001
 20
40.655999999999992
 30
0.0
  0
POINT
  5
E6
  8
DEFPOINTS
  6
CONTINUOUS
 62
    30
 10
14.300000000000001
 20
231.43095099999999
 30
0.0
  0
LINE
  5
E7
  8
SIZE
  6
CONTINUOUS
 62
    30
 10
-20.0
 20
60.0
 30
0.0
 11
-224.195255
 21
60.0
 31
0.0
  0
LINE
  5
E8
  8
SIZE
  6
CONTINUOUS
 62
    30
 10
-20.0
 20
-60.0
 30
0.0
 11
-224.195255
 21
-60.0
 31
0.0
  0
LINE
  5
E9
  8
SIZE
  6
CONTINUOUS
 62
    30
 10
-204.195255
 20
48.0
 30
0.0
 11
-204.195255
 21
-48.0
 31
0.0
  0
LINE
  5
EA
  8
SIZE
  6
CONTINUOUS
 62
    30
 10
-204.195255
 20
-60.0
 30
0.0
 11
-204.195255
 21
-259.14285699999999
 31
0.0
  0
CIRCLE
  5
EB
  8
SIZE
  6
CONTINUOUS
 62
    30
 10
-204.195255
 20
60.0
 30
0.0
 40
6.0
  0
LINE
  5
EC
  8
SIZE
  6
CONTINUOUS
 62
    30
 10
-204.195255
 20
60.0
 30
0.0
 11
-204.195255
 21
48.0
 31
0.0
  0
CIRCLE
  5
ED
  8
SIZE
  6
CONTINUOUS
 62
    30
 10
-204.195255
 20
-60.0
 30
0.0
 40
6.0
  0
LINE
  5
EE
  8
SIZE
  6
CONTINUOUS
 62
    30
 10
-204.195255
 20
-60.0
 30
0.0
 11
-204.195255
 21
-48.0
 31
0.0
  0
TEXT
  5
EF
  8
SIZE
  6
CONTINUOUS
 62
    30
 10
-229.195255
 20
-234.14285757142861
 30
0.0
 40
64.0
  1
120
 50
90.0
 41
0.9
 72
     1
 11
-229.195255
 21
-165.57142899999999
 31
0.0
  0
POINT
  5
F0
  8
DEFPOINTS
  6
CONTINUOUS
 62
    30
 10
0.0
 20
60.0
 30
0.0
  0
POINT
  5
F1
  8
DEFPOINTS
  6
CONTINUOUS
 62
    30
 10
0.0
 20
-60.0
 30
0.0
  0
POINT
  5
F2
  8
DEFPOINTS
  6
CONTINUOUS
 62
    30
 10
-204.195255
 20
-60.0
 30
0.0
  0
ARC
  5
F3
  8
DETAIL
  6
CONTINUOUS
 62
     5
 10
-20.352
 20
-30.576000000000001
 30
0.0
 40
0.9599999999999999
 50
180.0
 51
270.0
  0
ARC
  5
F4
  8
DETAIL
  6
CONTINUOUS
 62
     5
 10
-20.352
 20
-13.584
 30
0.0
 40
0.9599999999999999
 50
90.0
 51
180.0
  0
LINE
  5
F5
  8
DETAIL
  6
CONTINUOUS
 62
     5
 10
-7.6799999999999979
 20
32.975999999999999
 30
0.0
 11
-24.672000000000001
 21
32.975999999999999
 31
0.0
  0
LINE
  5
F6
  8
DETAIL
  6
CONTINUOUS
 62
     5
 10
-7.6799999999999979
 20
11.183999999999999
 30
0.0
 11
-24.672000000000001
 21
11.183999999999999
 31
0.0
  0
LINE
  5
F7
  8
DETAIL
  6
CONTINUOUS
 62
     5
 10
-4.7999999999999989
 20
10.896000000000001
 30
0.0
 11
-4.7999999999999989
 21
-10.896000000000001
 31
0.0
  0
LINE
  5
F8
  8
DETAIL
  6
CONTINUOUS
 62
     5
 10
0.0
 20
60.0
 30
0.0
 11
0.0
 21
-60.0
 31
0.0
  0
LINE
  5
F9
  8
DETAIL
  6
CONTINUOUS
 62
     5
 10
10.48
 20
56.640000000000001
 30
0.0
 11
10.48
 21
-56.640000000000001
 31
0.0
  0
LINE
  5
FA
  8
DETAIL
  6
CONTINUOUS
 62
     5
 10
14.300000000000001
 20
40.655999999999992
 30
0.0
 11
14.300000000000001
 21
0.7440000000000002
 31
0.0
  0
LINE
  5
FB
  8
DETAIL
  6
CONTINUOUS
 62
     5
 10
-7.6799999999999979
 20
32.159999999999997
 30
0.0
 11
-7.6799999999999979
 21
-32.159999999999997
 31
0.0
  0
ARC
  5
FC
  8
DETAIL
  6
CONTINUOUS
 62
     5
 10
-1.919999999999999
 20
5.2800000000000002
 30
0.0
 40
0.48
 50
90.0
 51
180.0
  0
LINE
  5
FD
  8
DETAIL
  6
CONTINUOUS
 62
     5
 10
6.1600000000000001
 20
46.079999999999991
 30
0.0
 11
6.1600000000000001
 21
-46.079999999999991
 31
0.0
  0
LINE
  5
FE
  8
DETAIL
  6
CONTINUOUS
 62
     5
 10
14.300000000000001
 20
-0.7440000000000002
 30
0.0
 11
14.300000000000001
 21
-40.655999999999992
 31
0.0
  0
LINE
  5
FF
  8
DETAIL
  6
CONTINUOUS
 62
     5
 10
7.1200000000000001
 20
-60.0
 30
0.0
 11
0.0
 21
-60.0
 31
0.0
  0
ARC
  5
100
  8
DETAIL
  6
CONTINUOUS
 62
     5
 10
7.1200000000000001
 20
-56.640000000000001
 30
0.0
 40
3.359999999999999
 50
270.0
 51
0.0
  0
LINE
  5
101
  8
DETAIL
  6
CONTINUOUS
 62
     5
 10
10.48
 20
-46.079999999999991
 30
0.0
 11
6.1600000000000001
 21
-46.079999999999991
 31
0.0
  0
LINE
  5
102
  8
DETAIL
  6
CONTINUOUS
 62
     5
 10
10.48
 20
-41.616
 30
0.0
 11
11.44
 21
-41.616
 31
0.0
  0
ARC
  5
103
  8
DETAIL
  6
CONTINUOUS
 62
     5
 10
11.627229
 20
-37.433579000000002
 30
0.0
 40
4.1866099999999991
 50
267.43682100000001
 51
309.67331000000001
  0
LINE
  5
104
  8
DETAIL
  6
CONTINUOUS
 62
     5
 10
-4.7999999999999989
 20
-10.896000000000001
 30
0.0
 11
-4.7999999999999989
 21
-31.199999999999999
 31
0.0
  0
LINE
  5
105
  8
DETAIL
  6
CONTINUOUS
 62
     5
 10
-1.4399999999999991
 20
-12.48
 30
0.0
 11
-1.4399999999999991
 21
-16.32
 31
0.0
  0
LINE
  5
106
  8
DETAIL
  6
CONTINUOUS
 62
     5
 10
-1.919999999999999
 20
-12.48
 30
0.0
 11
-1.919999999999999
 21
-16.32
 31
0.0
  0
LINE
  5
107
  8
DETAIL
  6
CONTINUOUS
 62
     5
 10
-2.399999999999999
 20
-16.800000000000001
 30
0.0
 11
-2.399999999999999
 21
-27.359999999999999
 31
0.0
  0
LINE
  5
108
  8
DETAIL
  6
CONTINUOUS
 62
     5
 10
-7.497971999999999
 20
-32.975999999999999
 30
0.0
 11
-9.1199999999999992
 21
-32.975999999999999
 31
0.0
  0
ARC
  5
109
  8
DETAIL
  6
CONTINUOUS
 62
     5
 10
-5.7599999999999989
 20
-32.159999999999997
 30
0.0
 40
1.919999999999999
 50
180.0
 51
270.0
  0
ARC
  5
10A
  8
DETAIL
  6
CONTINUOUS
 62
     5
 10
-3.839999999999999
 20
-31.199999999999999
 30
0.0
 40
0.9599999999999999
 50
180.0
 51
270.0
  0
LINE
  5
10B
  8
DETAIL
  6
CONTINUOUS
 62
     5
 10
0.0
 20
-34.079999999999998
 30
0.0
 11
-5.7599999999999989
 21
-34.079999999999998
 31
0.0
  0
LINE
  5
10C
  8
DETAIL
  6
CONTINUOUS
 62
     5
 10
0.0
 20
-32.159999999999997
 30
0.0
 11
-3.839999999999999
 21
-32.159999999999997
 31
0.0
  0
ARC
  5
10D
  8
DETAIL
  6
CONTINUOUS
 62
     5
 10
-1.919999999999999
 20
-27.359999999999999
 30
0.0
 40
0.48
 50
180.0
 51
270.0
  0
LINE
  5
10E
  8
DETAIL
  6
CONTINUOUS
 62
     5
 10
-1.919999999999999
 20
-30.239999999999998
 30
0.0
 11
-4.7999999999999989
 21
-30.239999999999998
 31
0.0
  0
LINE
  5
10F
  8
DETAIL
  6
CONTINUOUS
 62
     5
 10
-1.4399999999999991
 20
-27.84
 30
0.0
 11
-1.4399999999999991
 21
-32.159999999999997
 31
0.0
  0
LINE
  5
110
  8
DETAIL
  6
CONTINUOUS
 62
     5
 10
-1.919999999999999
 20
-27.84
 30
0.0
 11
-1.919999999999999
 21
-32.159999999999997
 31
0.0
  0
LINE
  5
111
  8
DETAIL
  6
CONTINUOUS
 62
     5
 10
-1.919999999999999
 20
-31.536000000000001
 30
0.0
 11
-1.4399999999999991
 21
-31.536000000000001
 31
0.0
  0
LINE
  5
112
  8
DETAIL
  6
CONTINUOUS
 62
     5
 10
0.0
 20
-27.84
 30
0.0
 11
-1.919999999999999
 21
-27.84
 31
0.0
  0
LINE
  5
113
  8
DETAIL
  6
CONTINUOUS
 62
     5
 10
-9.5999999999999996
 20
-32.015999999999998
 30
0.0
 11
-9.5999999999999996
 21
-32.496000000000002
 31
0.0
  0
LINE
  5
114
  8
DETAIL
  6
CONTINUOUS
 62
     5
 10
-8.6400000000000006
 20
-31.536000000000001
 30
0.0
 11
-8.6400000000000006
 21
-32.975999999999999
 31
0.0
  0
ARC
  5
115
  8
DETAIL
  6
CONTINUOUS
 62
     5
 10
-9.1199999999999992
 20
-32.496000000000002
 30
0.0
 40
0.48
 50
180.0
 51
270.0
  0
LINE
  5
116
  8
DETAIL
  6
CONTINUOUS
 62
     5
 10
-8.6400000000000006
 20
-31.536000000000001
 30
0.0
 11
-20.352
 21
-31.536000000000001
 31
0.0
  0
ARC
  5
117
  8
DETAIL
  6
CONTINUOUS
 62
     5
 10
-9.1199999999999992
 20
-32.015999999999998
 30
0.0
 40
0.48
 50
90.0
 51
180.0
  0
ARC
  5
118
  8
DETAIL
  6
CONTINUOUS
 62
     5
 10
-1.919999999999999
 20
-16.800000000000001
 30
0.0
 40
0.48
 50
90.0
 51
180.0
  0
LINE
  5
119
  8
DETAIL
  6
CONTINUOUS
 62
     5
 10
0.0
 20
-16.32
 30
0.0
 11
-1.919999999999999
 21
-16.32
 31
0.0
  0
LINE
  5
11A
  8
DETAIL
  6
CONTINUOUS
 62
     5
 10
10.48
 20
-0.264
 30
0.0
 11
11.92
 21
-0.264
 31
0.0
  0
ARC
  5
11B
  8
DETAIL
  6
CONTINUOUS
 62
     5
 10
12.087717
 20
-5.5728189999999991
 30
0.0
 40
5.3114679999999987
 50
65.385514999999998
 51
91.809495999999996
  0
LINE
  5
11C
  8
DETAIL
  6
CONTINUOUS
 62
     5
 10
10.48
 20
0.264
 30
0.0
 11
11.92
 21
0.264
 31
0.0
  0
ARC
  5
11D
  8
DETAIL
  6
CONTINUOUS
 62
     5
 10
12.087717
 20
5.5728189999999991
 30
0.0
 40
5.3114679999999987
 50
268.19050399999998
 51
294.614485
  0
ARC
  5
11E
  8
DETAIL
  6
CONTINUOUS
 62
     5
 10
-1.919999999999999
 20
-5.2800000000000002
 30
0.0
 40
0.48
 50
180.0
 51
270.0
  0
LINE
  5
11F
  8
DETAIL
  6
CONTINUOUS
 62
     5
 10
-7.6799999999999979
 20
-11.183999999999999
 30
0.0
 11
-9.1199999999999992
 21
-11.183999999999999
 31
0.0
  0
LINE
  5
120
  8
DETAIL
  6
CONTINUOUS
 62
     5
 10
0.0
 20
-12.48
 30
0.0
 11
-4.7999999999999989
 21
-12.48
 31
0.0
  0
LINE
  5
121
  8
DETAIL
  6
CONTINUOUS
 62
     5
 10
-1.919999999999999
 20
-13.92
 30
0.0
 11
-4.7999999999999989
 21
-13.92
 31
0.0
  0
LINE
  5
122
  8
DETAIL
  6
CONTINUOUS
 62
     5
 10
-1.919999999999999
 20
-12.624000000000001
 30
0.0
 11
-1.4399999999999991
 21
-12.624000000000001
 31
0.0
  0
LINE
  5
123
  8
DETAIL
  6
CONTINUOUS
 62
     5
 10
0.0
 20
-10.08
 30
0.0
 11
-4.7999999999999989
 21
-10.08
 31
0.0
  0
LINE
  5
124
  8
DETAIL
  6
CONTINUOUS
 62
     5
 10
-1.919999999999999
 20
-8.1600000000000001
 30
0.0
 11
-4.7999999999999989
 21
-8.1600000000000001
 31
0.0
  0
LINE
  5
125
  8
DETAIL
  6
CONTINUOUS
 62
     5
 10
-1.4399999999999991
 20
-5.7599999999999989
 30
0.0
 11
-1.4399999999999991
 21
-10.08
 31
0.0
  0
LINE
  5
126
  8
DETAIL
  6
CONTINUOUS
 62
     5
 10
-1.919999999999999
 20
-5.7599999999999989
 30
0.0
 11
-1.919999999999999
 21
-10.08
 31
0.0
  0
LINE
  5
127
  8
DETAIL
  6
CONTINUOUS
 62
     5
 10
-1.919999999999999
 20
-9.4559999999999995
 30
0.0
 11
-1.4399999999999991
 21
-9.4559999999999995
 31
0.0
  0
LINE
  5
128
  8
DETAIL
  6
CONTINUOUS
 62
     5
 10
0.0
 20
-5.7599999999999989
 30
0.0
 11
-1.919999999999999
 21
-5.7599999999999989
 31
0.0
  0
LINE
  5
129
  8
DETAIL
  6
CONTINUOUS
 62
     5
 10
-8.6400000000000006
 20
-12.624000000000001
 30
0.0
 11
-20.352
 21
-12.624000000000001
 31
0.0
  0
ARC
  5
12A
  8
DETAIL
  6
CONTINUOUS
 62
     5
 10
-9.1199999999999992
 20
-12.144
 30
0.0
 40
0.48
 50
180.0
 51
270.0
  0
LINE
  5
12B
  8
DETAIL
  6
CONTINUOUS
 62
     5
 10
-9.5999999999999996
 20
-11.664
 30
0.0
 11
-9.5999999999999996
 21
-12.144
 31
0.0
  0
ARC
  5
12C
  8
DETAIL
  6
CONTINUOUS
 62
     5
 10
-9.1199999999999992
 20
-11.664
 30
0.0
 40
0.48
 50
90.0
 51
180.0
  0
LINE
  5
12D
  8
DETAIL
  6
CONTINUOUS
 62
     5
 10
-8.6400000000000006
 20
-11.183999999999999
 30
0.0
 11
-8.6400000000000006
 21
-12.624000000000001
 31
0.0
  0
LINE
  5
12E
  8
DETAIL
  6
CONTINUOUS
 62
     5
 10
-2.399999999999999
 20
5.2800000000000002
 30
0.0
 11
-2.399999999999999
 21
-5.2800000000000002
 31
0.0
  0
LINE
  5
12F
  8
DETAIL
  6
CONTINUOUS
 62
     5
 10
-4.7999999999999989
 20
31.199999999999999
 30
0.0
 11
-4.7999999999999989
 21
10.896000000000001
 31
0.0
  0
LINE
  5
130
  8
DETAIL
  6
CONTINUOUS
 62
     5
 10
-2.399999999999999
 20
27.359999999999999
 30
0.0
 11
-2.399999999999999
 21
16.800000000000001
 31
0.0
  0
LINE
  5
131
  8
DETAIL
  6
CONTINUOUS
 62
     5
 10
-1.4399999999999991
 20
16.32
 30
0.0
 11
-1.4399999999999991
 21
12.48
 31
0.0
  0
LINE
  5
132
  8
DETAIL
  6
CONTINUOUS
 62
     5
 10
-1.919999999999999
 20
16.32
 30
0.0
 11
-1.919999999999999
 21
12.48
 31
0.0
  0
LINE
  5
133
  8
DETAIL
  6
CONTINUOUS
 62
     5
 10
-7.6799999999999979
 20
11.183999999999999
 30
0.0
 11
-9.1199999999999992
 21
11.183999999999999
 31
0.0
  0
LINE
  5
134
  8
DETAIL
  6
CONTINUOUS
 62
     5
 10
0.0
 20
10.08
 30
0.0
 11
-4.7999999999999989
 21
10.08
 31
0.0
  0
LINE
  5
135
  8
DETAIL
  6
CONTINUOUS
 62
     5
 10
-1.919999999999999
 20
8.1600000000000001
 30
0.0
 11
-4.7999999999999989
 21
8.1600000000000001
 31
0.0
  0
LINE
  5
136
  8
DETAIL
  6
CONTINUOUS
 62
     5
 10
-1.4399999999999991
 20
10.08
 30
0.0
 11
-1.4399999999999991
 21
5.7599999999999989
 31
0.0
  0
LINE
  5
137
  8
DETAIL
  6
CONTINUOUS
 62
     5
 10
-1.919999999999999
 20
10.08
 30
0.0
 11
-1.919999999999999
 21
5.7599999999999989
 31
0.0
  0
LINE
  5
138
  8
DETAIL
  6
CONTINUOUS
 62
     5
 10
0.0
 20
5.7599999999999989
 30
0.0
 11
-1.919999999999999
 21
5.7599999999999989
 31
0.0
  0
LINE
  5
139
  8
DETAIL
  6
CONTINUOUS
 62
     5
 10
-1.919999999999999
 20
9.4559999999999995
 30
0.0
 11
-1.4399999999999991
 21
9.4559999999999995
 31
0.0
  0
LINE
  5
13A
  8
DETAIL
  6
CONTINUOUS
 62
     5
 10
0.0
 20
12.48
 30
0.0
 11
-4.7999999999999989
 21
12.48
 31
0.0
  0
LINE
  5
13B
  8
DETAIL
  6
CONTINUOUS
 62
     5
 10
-1.919999999999999
 20
13.92
 30
0.0
 11
-4.7999999999999989
 21
13.92
 31
0.0
  0
LINE
  5
13C
  8
DETAIL
  6
CONTINUOUS
 62
     5
 10
-1.919999999999999
 20
12.624000000000001
 30
0.0
 11
-1.4399999999999991
 21
12.624000000000001
 31
0.0
  0
ARC
  5
13D
  8
DETAIL
  6
CONTINUOUS
 62
     5
 10
-1.919999999999999
 20
16.800000000000001
 30
0.0
 40
0.48
 50
180.0
 51
270.0
  0
LINE
  5
13E
  8
DETAIL
  6
CONTINUOUS
 62
     5
 10
0.0
 20
16.32
 30
0.0
 11
-1.919999999999999
 21
16.32
 31
0.0
  0
LINE
  5
13F
  8
DETAIL
  6
CONTINUOUS
 62
     5
 10
10.48
 20
41.616
 30
0.0
 11
11.44
 21
41.616
 31
0.0
  0
ARC
  5
140
  8
DETAIL
  6
CONTINUOUS
 62
     5
 10
11.627229
 20
37.433579000000002
 30
0.0
 40
4.1866099999999991
 50
50.326689999999999
 51
92.563179000000005
  0
LINE
  5
141
  8
DETAIL
  6
CONTINUOUS
 62
     5
 10
10.48
 20
46.079999999999991
 30
0.0
 11
6.1600000000000001
 21
46.079999999999991
 31
0.0
  0
LINE
  5
142
  8
DETAIL
  6
CONTINUOUS
 62
     5
 10
-7.497971999999999
 20
32.975999999999999
 30
0.0
 11
-9.1199999999999992
 21
32.975999999999999
 31
0.0
  0
ARC
  5
143
  8
DETAIL
  6
CONTINUOUS
 62
     5
 10
-5.7599999999999989
 20
32.159999999999997
 30
0.0
 40
1.919999999999999
 50
90.0
 51
180.0
  0
ARC
  5
144
  8
DETAIL
  6
CONTINUOUS
 62
     5
 10
-3.839999999999999
 20
31.199999999999999
 30
0.0
 40
0.9599999999999999
 50
90.0
 51
180.0
  0
LINE
  5
145
  8
DETAIL
  6
CONTINUOUS
 62
     5
 10
0.0
 20
32.159999999999997
 30
0.0
 11
-3.839999999999999
 21
32.159999999999997
 31
0.0
  0
ARC
  5
146
  8
DETAIL
  6
CONTINUOUS
 62
     5
 10
-1.919999999999999
 20
27.359999999999999
 30
0.0
 40
0.48
 50
90.0
 51
180.0
  0
LINE
  5
147
  8
DETAIL
  6
CONTINUOUS
 62
     5
 10
-1.919999999999999
 20
30.239999999999998
 30
0.0
 11
-4.7999999999999989
 21
30.239999999999998
 31
0.0
  0
LINE
  5
148
  8
DETAIL
  6
CONTINUOUS
 62
     5
 10
-1.4399999999999991
 20
32.159999999999997
 30
0.0
 11
-1.4399999999999991
 21
27.84
 31
0.0
  0
LINE
  5
149
  8
DETAIL
  6
CONTINUOUS
 62
     5
 10
-1.919999999999999
 20
32.159999999999997
 30
0.0
 11
-1.919999999999999
 21
27.84
 31
0.0
  0
LINE
  5
14A
  8
DETAIL
  6
CONTINUOUS
 62
     5
 10
0.0
 20
27.84
 30
0.0
 11
-1.919999999999999
 21
27.84
 31
0.0
  0
LINE
  5
14B
  8
DETAIL
  6
CONTINUOUS
 62
     5
 10
-1.919999999999999
 20
31.536000000000001
 30
0.0
 11
-1.4399999999999991
 21
31.536000000000001
 31
0.0
  0
LINE
  5
14C
  8
DETAIL
  6
CONTINUOUS
 62
     5
 10
0.0
 20
34.079999999999998
 30
0.0
 11
-5.7599999999999989
 21
34.079999999999998
 31
0.0
  0
LINE
  5
14D
  8
DETAIL
  6
CONTINUOUS
 62
     5
 10
7.1200000000000001
 20
60.0
 30
0.0
 11
0.0
 21
60.0
 31
0.0
  0
ARC
  5
14E
  8
DETAIL
  6
CONTINUOUS
 62
     5
 10
7.1200000000000001
 20
56.640000000000001
 30
0.0
 40
3.359999999999999
 50
0.0
 51
90.0
  0
LINE
  5
14F
  8
DETAIL
  6
CONTINUOUS
 62
     5
 10
-22.271999999999998
 20
11.183999999999999
 30
0.0
 11
-22.271999999999998
 21
-6.2400000000000002
 31
0.0
  0
LINE
  5
150
  8
DETAIL
  6
CONTINUOUS
 62
     5
 10
-24.672000000000001
 20
11.183999999999999
 30
0.0
 11
-24.672000000000001
 21
-6.2400000000000002
 31
0.0
  0
LINE
  5
151
  8
DETAIL
  6
CONTINUOUS
 62
     5
 10
-21.312000000000001
 20
-13.584
 30
0.0
 11
-21.312000000000001
 21
-30.576000000000001
 31
0.0
  0
ARC
  5
152
  8
DETAIL
  6
CONTINUOUS
 62
     5
 10
-21.312000000000001
 20
-14.880000000000001
 30
0.0
 40
3.359999999999999
 50
180.0
 51
270.0
  0
LINE
  5
153
  8
DETAIL
  6
CONTINUOUS
 62
     5
 10
-22.271999999999998
 20
-6.2400000000000002
 30
0.0
 11
-22.271999999999998
 21
-14.880000000000001
 31
0.0
  0
LINE
  5
154
  8
DETAIL
  6
CONTINUOUS
 62
     5
 10
-24.672000000000001
 20
-6.2400000000000002
 30
0.0
 11
-24.672000000000001
 21
-14.880000000000001
 31
0.0
  0
ARC
  5
155
  8
DETAIL
  6
CONTINUOUS
 62
     5
 10
-21.312000000000001
 20
-14.880000000000001
 30
0.0
 40
0.9599999999999999
 50
180.0
 51
270.0
  0
LINE
  5
156
  8
DETAIL
  6
CONTINUOUS
 62
     5
 10
-28.032
 20
32.015999999999998
 30
0.0
 11
-28.032
 21
12.144
 31
0.0
  0
ARC
  5
157
  8
DETAIL
  6
CONTINUOUS
 62
     5
 10
-27.071999999999999
 20
12.144
 30
0.0
 40
0.9599999999999999
 50
180.0
 51
270.0
  0
LINE
  5
158
  8
DETAIL
  6
CONTINUOUS
 62
     5
 10
-24.672000000000001
 20
11.183999999999999
 30
0.0
 11
-27.071999999999999
 21
11.183999999999999
 31
0.0
  0
ARC
  5
159
  8
DETAIL
  6
CONTINUOUS
 62
     5
 10
-27.071999999999999
 20
32.015999999999998
 30
0.0
 40
0.9599999999999999
 50
90.0
 51
180.0
  0
LINE
  5
15A
  8
DETAIL
  6
CONTINUOUS
 62
     5
 10
-24.672000000000001
 20
32.975999999999999
 30
0.0
 11
-27.071999999999999
 21
32.975999999999999
 31
0.0
  0
LINE
  5
15B
  8
OUTLINE
  6
CONTINUOUS
 62
     3
 10
-21.312000000000001
 20
-18.236519999999999
 30
0.0
 11
-21.312000000000001
 21
-30.576000000000001
 31
0.0
  0
ARC
  5
15C
  8
DETAIL
  6
CONTINUOUS
 62
     5
 10
-20.352
 20
30.576000000000001
 30
0.0
 40
0.9599999999999999
 50
90.0
 51
180.0
  0
ARC
  5
15D
  8
DETAIL
  6
CONTINUOUS
 62
     5
 10
-20.352
 20
13.584
 30
0.0
 40
0.9599999999999999
 50
180.0
 51
270.0
  0
LINE
  5
15E
  8
DETAIL
  6
CONTINUOUS
 62
     5
 10
-7.497971999999999
 20
32.975999999999999
 30
0.0
 11
-9.1199999999999992
 21
32.975999999999999
 31
0.0
  0
LINE
  5
15F
  8
DETAIL
  6
CONTINUOUS
 62
     5
 10
-9.5999999999999996
 20
32.015999999999998
 30
0.0
 11
-9.5999999999999996
 21
32.496000000000002
 31
0.0
  0
LINE
  5
160
  8
DETAIL
  6
CONTINUOUS
 62
     5
 10
-8.6400000000000006
 20
31.536000000000001
 30
0.0
 11
-8.6400000000000006
 21
32.975999999999999
 31
0.0
  0
ARC
  5
161
  8
DETAIL
  6
CONTINUOUS
 62
     5
 10
-9.1199999999999992
 20
32.496000000000002
 30
0.0
 40
0.48
 50
90.0
 51
180.0
  0
LINE
  5
162
  8
DETAIL
  6
CONTINUOUS
 62
     5
 10
-8.6400000000000006
 20
31.536000000000001
 30
0.0
 11
-20.352
 21
31.536000000000001
 31
0.0
  0
ARC
  5
163
  8
DETAIL
  6
CONTINUOUS
 62
     5
 10
-9.1199999999999992
 20
32.015999999999998
 30
0.0
 40
0.48
 50
180.0
 51
270.0
  0
LINE
  5
164
  8
DETAIL
  6
CONTINUOUS
 62
     5
 10
-7.6799999999999979
 20
11.183999999999999
 30
0.0
 11
-9.1199999999999992
 21
11.183999999999999
 31
0.0
  0
LINE
  5
165
  8
DETAIL
  6
CONTINUOUS
 62
     5
 10
-8.6400000000000006
 20
12.624000000000001
 30
0.0
 11
-20.352
 21
12.624000000000001
 31
0.0
  0
ARC
  5
166
  8
DETAIL
  6
CONTINUOUS
 62
     5
 10
-9.1199999999999992
 20
12.144
 30
0.0
 40
0.48
 50
90.0
 51
180.0
  0
LINE
  5
167
  8
DETAIL
  6
CONTINUOUS
 62
     5
 10
-9.5999999999999996
 20
11.664
 30
0.0
 11
-9.5999999999999996
 21
12.144
 31
0.0
  0
ARC
  5
168
  8
DETAIL
  6
CONTINUOUS
 62
     5
 10
-9.1199999999999992
 20
11.664
 30
0.0
 40
0.48
 50
180.0
 51
270.0
  0
LINE
  5
169
  8
DETAIL
  6
CONTINUOUS
 62
     5
 10
-8.6400000000000006
 20
11.183999999999999
 30
0.0
 11
-8.6400000000000006
 21
12.624000000000001
 31
0.0
  0
LINE
  5
16A
  8
DETAIL
  6
CONTINUOUS
 62
     5
 10
-21.312000000000001
 20
13.584
 30
0.0
 11
-21.312000000000001
 21
30.576000000000001
 31
0.0
  0
TEXT
  5
173
  8
ETC
  6
CONTINUOUS
 62
    61
 10
194.24760191526511
 20
63.311211896421057
 30
0.0
 40
40.0
  1
P-1600SWL
 41
0.9
  0
ENDSEC
  0
EOF
