  0
SECTION
  2
HEADER
  9
$ACADVER
  1
AC1009
  9
$INSBASE
 10
0.0
 20
0.0
 30
0.0
  9
$EXTMIN
 10
-753.64096700000005
 20
-385.90788001059758
 30
0.0
  9
$EXTMAX
 10
1103.378953066855
 20
696.02000780227775
 30
50.0
  9
$LIMMIN
 10
-2970.0
 20
-2100.0
  9
$LIMMAX
 10
2970.0
 20
2100.0
  9
$ORTHOMODE
 70
     1
  9
$REGENMODE
 70
     0
  9
$FILLMODE
 70
     1
  9
$QTEXTMODE
 70
     0
  9
$MIRRTEXT
 70
     0
  9
$DRAGMODE
 70
     2
  9
$LTSCALE
 40
20.0
  9
$OSMODE
 70
   423
  9
$ATTMODE
 70
     1
  9
$TEXTSIZE
 40
64.0
  9
$TRACEWID
 40
0.05
  9
$TEXTSTYLE
  7
STANDARD
  9
$CLAYER
  8
SIZE
  9
$CELTYPE
  6
CONTINUOUS
  9
$CECOLOR
 62
    30
  9
$DIMSCALE
 40
1.0
  9
$DIMASZ
 40
12.0
  9
$DIMEXO
 40
20.0
  9
$DIMDLI
 40
200.0
  9
$DIMRND
 40
0.0
  9
$DIMDLE
 40
0.0
  9
$DIMEXE
 40
20.0
  9
$DIMTP
 40
0.0
  9
$DIMTM
 40
0.0
  9
$DIMTXT
 40
64.0
  9
$DIMCEN
 40
0.09
  9
$DIMTSZ
 40
0.0
  9
$DIMTOL
 70
     0
  9
$DIMLIM
 70
     0
  9
$DIMTIH
 70
     0
  9
$DIMTOH
 70
     0
  9
$DIMSE1
 70
     0
  9
$DIMSE2
 70
     0
  9
$DIMTAD
 70
     1
  9
$DIMZIN
 70
     8
  9
$DIMBLK
  1
DOT1
  9
$DIMASO
 70
     1
  9
$DIMSHO
 70
     0
  9
$DIMPOST
  1

  9
$DIMAPOST
  1

  9
$DIMALT
 70
     0
  9
$DIMALTD
 70
     2
  9
$DIMALTF
 40
25.399999999999999
  9
$DIMLFAC
 40
1.0
  9
$DIMTOFL
 70
     1
  9
$DIMTVP
 40
0.0
  9
$DIMTIX
 70
     1
  9
$DIMSOXD
 70
     0
  9
$DIMSAH
 70
     1
  9
$DIMBLK1
  1
ORIGIN
  9
$DIMBLK2
  1
ORIGIN
  9
$DIMSTYLE
  2
STANDARD
  9
$DIMCLRD
 70
     7
  9
$DIMCLRE
 70
     7
  9
$DIMCLRT
 70
     7
  9
$DIMTFAC
 40
1.0
  9
$DIMGAP
 40
25.0
  9
$LUNITS
 70
     2
  9
$LUPREC
 70
     4
  9
$SKETCHINC
 40
0.1
  9
$FILLETRAD
 40
3.0
  9
$AUNITS
 70
     1
  9
$AUPREC
 70
     3
  9
$MENU
  1
ACAD
  9
$ELEVATION
 40
0.0
  9
$PELEVATION
 40
0.0
  9
$THICKNESS
 40
50.0
  9
$LIMCHECK
 70
     0
  9
$BLIPMODE
 70
     0
  9
$CHAMFERA
 40
0.0
  9
$CHAMFERB
 40
0.0
  9
$SKPOLY
 70
     0
  9
$TDCREATE
 40
2453073.5485681128
  9
$TDUPDATE
 40
2454953.8440366308
  9
$TDINDWG
 40
0.126803287
  9
$TDUSRTIMER
 40
0.1268031134
  9
$USRTIMER
 70
     1
  9
$ANGBASE
 50
0.0
  9
$ANGDIR
 70
     0
  9
$PDMODE
 70
     3
  9
$PDSIZE
 40
-2.0
  9
$PLINEWID
 40
0.0
  9
$COORDS
 70
     2
  9
$SPLFRAME
 70
     0
  9
$SPLINETYPE
 70
     6
  9
$SPLINESEGS
 70
     8
  9
$ATTDIA
 70
     0
  9
$ATTREQ
 70
     1
  9
$HANDLING
 70
 22529
  9
$HANDSEED
  5
23B
  9
$SURFTAB1
 70
     6
  9
$SURFTAB2
 70
     6
  9
$SURFTYPE
 70
     6
  9
$SURFU
 70
     6
  9
$SURFV
 70
     6
  9
$UCSNAME
  2

  9
$UCSORG
 10
0.0
 20
0.0
 30
0.0
  9
$UCSXDIR
 10
1.0
 20
0.0
 30
0.0
  9
$UCSYDIR
 10
0.0
 20
1.0
 30
0.0
  9
$PUCSNAME
  2

  9
$PUCSORG
 10
0.0
 20
0.0
 30
0.0
  9
$PUCSXDIR
 10
1.0
 20
0.0
 30
0.0
  9
$PUCSYDIR
 10
0.0
 20
1.0
 30
0.0
  9
$USERI1
 70
     0
  9
$USERI2
 70
     0
  9
$USERI3
 70
     0
  9
$USERI4
 70
     0
  9
$USERI5
 70
     0
  9
$USERR1
 40
20.0
  9
$USERR2
 40
0.0
  9
$USERR3
 40
0.0
  9
$USERR4
 40
0.0
  9
$USERR5
 40
0.0
  9
$WORLDVIEW
 70
     1
  9
$SHADEDGE
 70
     3
  9
$SHADEDIF
 70
    70
  9
$TILEMODE
 70
     1
  9
$MAXACTVP
 70
    48
  9
$PLIMCHECK
 70
     0
  9
$PEXTMIN
 10
-1.0000000000000000E+020
 20
-1.0000000000000000E+020
 30
-1.0000000000000000E+020
  9
$PEXTMAX
 10
1.0000000000000000E+020
 20
1.0000000000000000E+020
 30
1.0000000000000000E+020
  9
$PLIMMIN
 10
0.0
 20
0.0
  9
$PLIMMAX
 10
12.0
 20
9.0
  9
$UNITMODE
 70
     0
  9
$VISRETAIN
 70
     0
  9
$PLINEGEN
 70
     0
  9
$PSLTSCALE
 70
     0
  0
ENDSEC
  0
SECTION
  2
TABLES
  0
TABLE
  2
VPORT
 70
     3
  0
VPORT
  2
*ACTIVE
 70
     0
 10
0.0
 20
0.0
 11
1.0
 21
1.0
 12
170.53804648809691
 22
152.64414628048249
 13
0.0
 23
0.0
 14
1.0
 24
1.0
 15
0.0
 25
0.0
 16
0.0
 26
0.0
 36
1.0
 17
0.0
 27
0.0
 37
0.0
 40
1357.0976119931779
 41
1.493654822335025
 42
50.0
 43
0.0
 44
0.0
 50
0.0
 51
0.0
 71
     0
 72
  1000
 73
     1
 74
     0
 75
     0
 76
     0
 77
     0
 78
     0
  0
ENDTAB
  0
TABLE
  2
LTYPE
 70
     2
  0
LTYPE
  2
CONTINUOUS
 70
     0
  3
実線
 72
    65
 73
     0
 40
0.0
  0
LTYPE
  2
DASHDOT
 70
     0
  3
____ _ ____ _ ____ _ ____ _ ____ _ ____ _ ____
 72
    65
 73
     4
 40
5.5
 49
4.0
 49
-0.6
 49
0.3
 49
-0.6
  0
ENDTAB
  0
TABLE
  2
LAYER
 70
    12
  0
LAYER
  2
0
 70
     0
 62
     7
  6
CONTINUOUS
  0
LAYER
  2
SIZE
 70
     0
 62
    30
  6
CONTINUOUS
  0
LAYER
  2
BASIS
 70
     0
 62
     6
  6
DASHDOT
  0
LAYER
  2
OUTLINE
 70
     0
 62
     3
  6
CONTINUOUS
  0
LAYER
  2
DETAIL
 70
     0
 62
     5
  6
CONTINUOUS
  0
LAYER
  2
ARRANGE
 70
     0
 62
     1
  6
CONTINUOUS
  0
LAYER
  2
DEFPOINTS
 70
     0
 62
     7
  6
CONTINUOUS
  0
LAYER
  2
ETC
 70
     0
 62
    61
  6
CONTINUOUS
  0
LAYER
  2
FIX
 70
     0
 62
    11
  6
CONTINUOUS
  0
LAYER
  2
NOTE
 70
     0
 62
     4
  6
CONTINUOUS
  0
LAYER
  2
SERVICESPACE
 70
     0
 62
     2
  6
DASHDOT
  0
LAYER
  2
SYMBOLLINE
 70
     0
 62
    15
  6
CONTINUOUS
  0
ENDTAB
  0
TABLE
  2
STYLE
 70
     1
  0
STYLE
  2
STANDARD
 70
     0
 40
64.0
 41
0.9
 50
0.0
 71
     0
 42
64.0
  3
SIMPLEX.shx
  4
BIGFONT.shx
  0
ENDTAB
  0
TABLE
  2
VIEW
 70
     1
  0
VIEW
  2
ALL
 70
     0
 40
4282.6198079999986
 10
0.0
 20
41.309903999999989
 41
5940.0
 11
0.0
 21
0.0
 31
1.0
 12
0.0
 22
0.0
 32
0.0
 42
50.0
 43
0.0
 44
0.0
 50
0.0
 71
     0
  0
ENDTAB
  0
TABLE
  2
UCS
 70
     0
  0
ENDTAB
  0
TABLE
  2
APPID
 70
     2
  0
APPID
  2
ACAD
 70
     0
  0
APPID
  2
AUTOCAD_POSTSCRIPT_FIGURE
 70
     0
  0
ENDTAB
  0
TABLE
  2
DIMSTYLE
 70
     1
  0
DIMSTYLE
  2
STANDARD
 70
     0
  3

  4

  5

  6

  7

 40
1.0
 41
0.18
 42
0.0625
 43
0.38
 44
0.18
 45
0.0
 46
0.0
 47
0.0
 48
0.0
140
0.18
141
0.09
142
0.0
143
25.399999999999999
144
1.0
145
0.0
146
1.0
147
0.09
 71
     0
 72
     0
 73
     1
 74
     1
 75
     0
 76
     0
 77
     0
 78
     0
170
     0
171
     2
172
     0
173
     0
174
     0
175
     0
176
     7
177
     7
178
     7
  0
ENDTAB
  0
ENDSEC
  0
SECTION
  2
BLOCKS
  0
BLOCK
  8
0
  2
$MODEL_SPACE
 70
     0
 10
0.0
 20
0.0
 30
0.0
  3
$MODEL_SPACE
  1

  0
ENDBLK
  5
20
  8
0
  0
BLOCK
 67
     1
  8
0
  2
$PAPER_SPACE
 70
     0
 10
0.0
 20
0.0
 30
0.0
  3
$PAPER_SPACE
  1

  0
ENDBLK
  5
1C
 67
     1
  8
0
  0
BLOCK
  8
0
  2
DOT1
 70
     0
 10
0.0
 20
0.0
 30
0.0
  3
DOT1
  1

  0
CIRCLE
  5
36
  8
SIZE
  6
CONTINUOUS
 62
     7
 10
0.0
 20
0.0
 30
0.0
 40
3.0
  0
ENDBLK
  5
37
  8
0
  0
BLOCK
  8
0
  2
_ORIGIN
 70
     0
 10
0.0
 20
0.0
 30
0.0
  3
_ORIGIN
  1

  0
CIRCLE
  5
3A
  8
0
  6
CONTINUOUS
 62
     7
 10
0.0
 20
0.0
 30
0.0
 40
0.5
  0
LINE
  5
3B
  8
0
  6
CONTINUOUS
 62
     7
 10
0.0
 20
0.0
 30
0.0
 11
-1.0
 21
0.0
 31
0.0
  0
ENDBLK
  5
3C
  8
0
  0
ENDSEC
  0
SECTION
  2
ENTITIES
  0
LINE
  5
3F
  8
BASIS
  6
DASHDOT
 62
     6
 39
50.0
 10
-31.307109000000001
 20
0.0
 30
0.0
 11
240.43249700000001
 21
0.0
 31
0.0
  0
LINE
  5
40
  8
DETAIL
  6
CONTINUOUS
 62
     5
 10
-0.369489
 20
1.5
 30
0.0
 11
-0.369489
 21
-1.5
 31
0.0
  0
LINE
  5
41
  8
DETAIL
  6
CONTINUOUS
 62
     5
 10
-0.369489
 20
-1.0
 30
0.0
 11
3.0
 21
-1.0
 31
0.0
  0
LINE
  5
42
  8
DETAIL
  6
CONTINUOUS
 62
     5
 10
-0.369489
 20
-1.5
 30
0.0
 11
3.0
 21
-1.5
 31
0.0
  0
LINE
  5
43
  8
DETAIL
  6
CONTINUOUS
 62
     5
 10
3.0
 20
1.5
 30
0.0
 11
3.0
 21
-1.5
 31
0.0
  0
LINE
  5
44
  8
DETAIL
  6
CONTINUOUS
 62
     5
 10
3.0
 20
-1.5
 30
0.0
 11
4.0
 21
-2.0
 31
0.0
  0
LINE
  5
45
  8
DETAIL
  6
CONTINUOUS
 62
     5
 10
3.0
 20
1.5
 30
0.0
 11
4.0
 21
2.0
 31
0.0
  0
LINE
  5
46
  8
DETAIL
  6
CONTINUOUS
 62
     5
 10
-0.369489
 20
1.0
 30
0.0
 11
3.0
 21
1.0
 31
0.0
  0
LINE
  5
47
  8
DETAIL
  6
CONTINUOUS
 62
     5
 10
-0.369489
 20
1.5
 30
0.0
 11
3.0
 21
1.5
 31
0.0
  0
LINE
  5
48
  8
DETAIL
  6
CONTINUOUS
 62
     5
 10
213.30000000000001
 20
110.0
 30
0.0
 11
213.80000000000001
 21
110.0
 31
0.0
  0
LINE
  5
49
  8
DETAIL
  6
CONTINUOUS
 62
     5
 10
213.30000000000001
 20
110.0
 30
0.0
 11
212.80000000000001
 21
110.0
 31
0.0
  0
LINE
  5
4A
  8
DETAIL
  6
CONTINUOUS
 62
     5
 10
214.0
 20
89.500000000000014
 30
0.0
 11
214.0
 21
-89.500000000000014
 31
0.0
  0
LINE
  5
4C
  8
DETAIL
  6
CONTINUOUS
 62
     5
 10
181.0
 20
89.500000000000014
 30
0.0
 11
181.0
 21
-89.500000000000014
 31
0.0
  0
CIRCLE
  5
4D
  8
DETAIL
  6
CONTINUOUS
 62
     5
 10
208.0
 20
0.0
 30
0.0
 40
2.5
  0
CIRCLE
  5
4E
  8
DETAIL
  6
CONTINUOUS
 62
     5
 10
195.0
 20
0.0
 30
0.0
 40
2.5
  0
LINE
  5
4F
  8
DETAIL
  6
CONTINUOUS
 62
     5
 10
213.30000000000001
 20
110.0
 30
0.0
 11
213.30000000000001
 21
89.500000000000014
 31
0.0
  0
LINE
  5
50
  8
DETAIL
  6
CONTINUOUS
 62
     5
 10
212.80000000000001
 20
110.0
 30
0.0
 11
212.80000000000001
 21
89.500000000000014
 31
0.0
  0
LINE
  5
51
  8
DETAIL
  6
CONTINUOUS
 62
     5
 10
213.5
 20
87.0
 30
0.0
 11
213.5
 21
-69.5
 31
0.0
  0
LINE
  5
52
  8
DETAIL
  6
CONTINUOUS
 62
     5
 10
213.5
 20
-69.5
 30
0.0
 11
213.5
 21
-89.500000000000014
 31
0.0
  0
LINE
  5
53
  8
DETAIL
  6
CONTINUOUS
 62
     5
 10
214.0
 20
-110.0
 30
0.0
 11
212.80000000000001
 21
-110.0
 31
0.0
  0
LINE
  5
54
  8
DETAIL
  6
CONTINUOUS
 62
     5
 10
213.30000000000001
 20
-110.0
 30
0.0
 11
213.30000000000001
 21
-89.500000000000014
 31
0.0
  0
LINE
  5
55
  8
DETAIL
  6
CONTINUOUS
 62
     5
 10
212.80000000000001
 20
-110.0
 30
0.0
 11
212.80000000000001
 21
-89.500000000000014
 31
0.0
  0
LINE
  5
56
  8
DETAIL
  6
CONTINUOUS
 62
     5
 10
213.5
 20
69.5
 30
0.0
 11
213.5
 21
89.492690999999994
 31
0.0
  0
LINE
  5
57
  8
DETAIL
  6
CONTINUOUS
 62
     5
 10
214.0
 20
-89.500000000000014
 30
0.0
 11
214.0
 21
-110.0
 31
0.0
  0
LINE
  5
58
  8
DETAIL
  6
CONTINUOUS
 62
     5
 10
213.30000000000001
 20
-110.0
 30
0.0
 11
213.80000000000001
 21
-110.0
 31
0.0
  0
LINE
  5
59
  8
DETAIL
  6
CONTINUOUS
 62
     5
 10
214.0
 20
89.500000000000014
 30
0.0
 11
214.0
 21
110.0
 31
0.0
  0
LINE
  5
5A
  8
DETAIL
  6
CONTINUOUS
 62
     5
 10
213.30000000000001
 20
110.0
 30
0.0
 11
214.0
 21
110.0
 31
0.0
  0
LINE
  5
5B
  8
DETAIL
  6
CONTINUOUS
 62
     5
 10
6.0
 20
-7.2999999999999989
 30
0.0
 11
6.0
 21
-29.905246000000002
 31
0.0
  0
LINE
  5
5C
  8
DETAIL
  6
CONTINUOUS
 62
     5
 10
5.4000000000000004
 20
0.0
 30
0.0
 11
5.4000000000000004
 21
4.7000000000000002
 31
0.0
  0
LINE
  5
5D
  8
DETAIL
  6
CONTINUOUS
 62
     5
 10
7.0
 20
-7.0999999999999988
 30
0.0
 11
7.0
 21
-29.905246000000002
 31
0.0
  0
LINE
  5
5E
  8
DETAIL
  6
CONTINUOUS
 62
     5
 10
6.0
 20
-29.905246000000002
 30
0.0
 11
7.0
 21
-29.905246000000002
 31
0.0
  0
ARC
  5
5F
  8
DETAIL
  6
CONTINUOUS
 62
     5
 10
6.4000000000000004
 20
-4.7000000000000002
 30
0.0
 40
1.0
 50
180.0
 51
247.38013499999991
  0
ARC
  5
60
  8
DETAIL
  6
CONTINUOUS
 62
     5
 10
5.0
 20
-7.2999999999999989
 30
0.0
 40
1.0
 50
0.0
 51
67.380134999999996
  0
ARC
  5
61
  8
DETAIL
  6
CONTINUOUS
 62
     5
 10
5.4000000000000004
 20
-7.0999999999999988
 30
0.0
 40
1.6000000000000001
 50
0.0
 51
67.380134999999996
  0
ARC
  5
62
  8
DETAIL
  6
CONTINUOUS
 62
     5
 10
6.0
 20
-4.9000000000000004
 30
0.0
 40
1.6000000000000001
 50
180.0
 51
247.38013499999991
  0
ARC
  5
63
  8
DETAIL
  6
CONTINUOUS
 62
     5
 10
5.0
 20
7.2999999999999989
 30
0.0
 40
1.0
 50
292.61986499999989
 51
0.0
  0
ARC
  5
64
  8
DETAIL
  6
CONTINUOUS
 62
     5
 10
6.4000000000000004
 20
4.7000000000000002
 30
0.0
 40
1.0
 50
112.6198649999999
 51
180.0
  0
ARC
  5
65
  8
DETAIL
  6
CONTINUOUS
 62
     5
 10
5.4000000000000004
 20
7.0999999999999988
 30
0.0
 40
1.6000000000000001
 50
292.61986499999989
 51
0.0
  0
ARC
  5
66
  8
DETAIL
  6
CONTINUOUS
 62
     5
 10
6.0
 20
4.9000000000000004
 30
0.0
 40
1.6000000000000001
 50
112.6198649999999
 51
180.0
  0
LINE
  5
67
  8
DETAIL
  6
CONTINUOUS
 62
     5
 10
4.4000000000000004
 20
-2.5
 30
0.0
 11
5.4000000000000004
 21
-2.5
 31
0.0
  0
LINE
  5
68
  8
DETAIL
  6
CONTINUOUS
 62
     5
 10
5.4000000000000004
 20
-4.7000000000000002
 30
0.0
 11
5.4000000000000004
 21
0.0
 31
0.0
  0
LINE
  5
69
  8
DETAIL
  6
CONTINUOUS
 62
     5
 10
7.0
 20
7.0999999999999988
 30
0.0
 11
7.0
 21
29.905246000000002
 31
0.0
  0
LINE
  5
6A
  8
DETAIL
  6
CONTINUOUS
 62
     5
 10
6.0
 20
7.2999999999999989
 30
0.0
 11
6.0
 21
29.905246000000002
 31
0.0
  0
LINE
  5
6B
  8
DETAIL
  6
CONTINUOUS
 62
     5
 10
6.0
 20
29.905246000000002
 30
0.0
 11
7.0
 21
29.905246000000002
 31
0.0
  0
LINE
  5
6C
  8
DETAIL
  6
CONTINUOUS
 62
     5
 10
4.4000000000000004
 20
-4.9000000000000004
 30
0.0
 11
4.4000000000000004
 21
4.9000000000000004
 31
0.0
  0
LINE
  5
6D
  8
DETAIL
  6
CONTINUOUS
 62
     5
 10
4.4000000000000004
 20
2.5
 30
0.0
 11
5.4000000000000004
 21
2.5
 31
0.0
  0
LINE
  5
6E
  8
DETAIL
  6
CONTINUOUS
 62
     5
 10
24.5
 20
-20.5
 30
0.0
 11
181.0
 21
-20.500000000000011
 31
0.0
  0
LINE
  5
6F
  8
DETAIL
  6
CONTINUOUS
 62
     5
 10
7.0
 20
-10.0
 30
0.0
 11
153.5
 21
-10.0
 31
0.0
  0
LINE
  5
70
  8
DETAIL
  6
CONTINUOUS
 62
     5
 10
7.0
 20
10.0
 30
0.0
 11
153.5
 21
10.0
 31
0.0
  0
LINE
  5
71
  8
DETAIL
  6
CONTINUOUS
 62
     5
 10
24.5
 20
20.5
 30
0.0
 11
181.0
 21
20.5
 31
0.0
  0
LINE
  5
72
  8
DETAIL
  6
CONTINUOUS
 62
     5
 10
0.0
 20
18.5
 30
0.0
 11
0.0
 21
17.5
 31
0.0
  0
LINE
  5
73
  8
DETAIL
  6
CONTINUOUS
 62
     5
 10
0.0
 20
17.5
 30
0.0
 11
3.0
 21
17.5
 31
0.0
  0
ARC
  5
74
  8
DETAIL
  6
CONTINUOUS
 62
     5
 10
3.0
 20
16.5
 30
0.0
 40
1.0
 50
0.0
 51
90.0
  0
LINE
  5
75
  8
DETAIL
  6
CONTINUOUS
 62
     5
 10
0.0
 20
18.5
 30
0.0
 11
3.0
 21
18.5
 31
0.0
  0
ARC
  5
76
  8
DETAIL
  6
CONTINUOUS
 62
     5
 10
3.0
 20
16.5
 30
0.0
 40
2.0
 50
0.0
 51
90.0
  0
LINE
  5
77
  8
DETAIL
  6
CONTINUOUS
 62
     5
 10
4.0
 20
16.5
 30
0.0
 11
4.0
 21
10.0
 31
0.0
  0
ARC
  5
78
  8
DETAIL
  6
CONTINUOUS
 62
     5
 10
24.5
 20
18.5
 30
0.0
 40
2.0
 50
90.0
 51
180.0
  0
LINE
  5
79
  8
DETAIL
  6
CONTINUOUS
 62
     5
 10
22.5
 20
18.5
 30
0.0
 11
22.5
 21
16.5
 31
0.0
  0
LINE
  5
7A
  8
DETAIL
  6
CONTINUOUS
 62
     5
 10
7.0
 20
16.5
 30
0.0
 11
22.5
 21
16.5
 31
0.0
  0
LINE
  5
7B
  8
DETAIL
  6
CONTINUOUS
 62
     5
 10
7.0
 20
-16.5
 30
0.0
 11
22.5
 21
-16.5
 31
0.0
  0
ARC
  5
7C
  8
DETAIL
  6
CONTINUOUS
 62
     5
 10
24.5
 20
-18.5
 30
0.0
 40
2.0
 50
180.0
 51
270.0
  0
LINE
  5
7D
  8
DETAIL
  6
CONTINUOUS
 62
     5
 10
22.5
 20
-18.5
 30
0.0
 11
22.5
 21
-16.5
 31
0.0
  0
ARC
  5
7E
  8
DETAIL
  6
CONTINUOUS
 62
     5
 10
3.0
 20
-16.5
 30
0.0
 40
2.0
 50
270.0
 51
0.0
  0
ARC
  5
7F
  8
DETAIL
  6
CONTINUOUS
 62
     5
 10
3.0
 20
-16.5
 30
0.0
 40
1.0
 50
270.0
 51
0.0
  0
LINE
  5
80
  8
DETAIL
  6
CONTINUOUS
 62
     5
 10
0.0
 20
-18.5
 30
0.0
 11
0.0
 21
-17.5
 31
0.0
  0
LINE
  5
81
  8
DETAIL
  6
CONTINUOUS
 62
     5
 10
4.0
 20
-16.5
 30
0.0
 11
4.0
 21
-10.0
 31
0.0
  0
LINE
  5
82
  8
DETAIL
  6
CONTINUOUS
 62
     5
 10
4.0
 20
10.0
 30
0.0
 11
4.0
 21
-10.0
 31
0.0
  0
LINE
  5
83
  8
DETAIL
  6
CONTINUOUS
 62
     5
 10
5.0
 20
-16.5
 30
0.0
 11
5.0
 21
-6.149
 31
0.0
  0
ARC
  5
84
  8
DETAIL
  6
CONTINUOUS
 62
     5
 10
152.5
 20
7.0
 30
0.0
 40
3.0
 50
0.0
 51
90.0
  0
ARC
  5
85
  8
DETAIL
  6
CONTINUOUS
 62
     5
 10
152.5
 20
-7.0
 30
0.0
 40
3.0
 50
270.0
 51
0.0
  0
LINE
  5
86
  8
DETAIL
  6
CONTINUOUS
 62
     5
 10
155.49999999999989
 20
7.0
 30
0.0
 11
155.49999999999989
 21
-7.0
 31
0.0
  0
CIRCLE
  5
87
  8
DETAIL
  6
CONTINUOUS
 62
     5
 10
208.0
 20
0.0
 30
0.0
 40
2.0
  0
CIRCLE
  5
88
  8
DETAIL
  6
CONTINUOUS
 62
     5
 10
208.0
 20
0.0
 30
0.0
 40
2.7999999999999989
  0
CIRCLE
  5
89
  8
DETAIL
  6
CONTINUOUS
 62
     5
 10
208.0
 20
0.0
 30
0.0
 40
1.649999999999999
  0
LINE
  5
8A
  8
DETAIL
  6
CONTINUOUS
 62
     5
 10
0.0
 20
-17.5
 30
0.0
 11
3.0
 21
-17.5
 31
0.0
  0
LINE
  5
8B
  8
DETAIL
  6
CONTINUOUS
 62
     5
 10
0.0
 20
-18.5
 30
0.0
 11
3.0
 21
-18.5
 31
0.0
  0
LINE
  5
8C
  8
DETAIL
  6
CONTINUOUS
 62
     5
 10
5.0
 20
6.149
 30
0.0
 11
5.0
 21
16.5
 31
0.0
  0
CIRCLE
  5
8D
  8
DETAIL
  6
CONTINUOUS
 62
     5
 10
195.0
 20
0.0
 30
0.0
 40
2.0
  0
CIRCLE
  5
8E
  8
DETAIL
  6
CONTINUOUS
 62
     5
 10
195.0
 20
0.0
 30
0.0
 40
2.7999999999999989
  0
CIRCLE
  5
8F
  8
DETAIL
  6
CONTINUOUS
 62
     5
 10
195.0
 20
0.0
 30
0.0
 40
1.649999999999999
  0
LINE
  5
90
  8
DETAIL
  6
CONTINUOUS
 62
     5
 10
5.0
 20
85.0
 30
0.0
 11
6.0
 21
85.0
 31
0.0
  0
LINE
  5
91
  8
DETAIL
  6
CONTINUOUS
 62
     5
 10
5.0
 20
16.5
 30
0.0
 11
5.0
 21
85.0
 31
0.0
  0
LINE
  5
92
  8
DETAIL
  6
CONTINUOUS
 62
     5
 10
6.0
 20
16.5
 30
0.0
 11
6.0
 21
85.0
 31
0.0
  0
LINE
  5
93
  8
DETAIL
  6
CONTINUOUS
 62
     5
 10
5.0
 20
-85.0
 30
0.0
 11
6.0
 21
-85.0
 31
0.0
  0
LINE
  5
94
  8
DETAIL
  6
CONTINUOUS
 62
     5
 10
6.0
 20
-16.5
 30
0.0
 11
6.0
 21
-85.0
 31
0.0
  0
LINE
  5
95
  8
DETAIL
  6
CONTINUOUS
 62
     5
 10
5.0
 20
-16.5
 30
0.0
 11
5.0
 21
-85.0
 31
0.0
  0
CIRCLE
  5
96
  8
FIX
  6
CONTINUOUS
 62
    11
 39
50.0
 10
5.0
 20
-70.0
 30
0.0
 40
7.5
  0
LINE
  5
97
  8
NOTE
  6
CONTINUOUS
 62
     4
 10
5.0
 20
-90.0
 30
0.0
 11
5.0
 21
-50.0
 31
0.0
  0
LINE
  5
98
  8
NOTE
  6
CONTINUOUS
 62
     4
 10
25.0
 20
-70.0
 30
0.0
 11
-15.0
 21
-70.0
 31
0.0
  0
CIRCLE
  5
99
  8
FIX
  6
CONTINUOUS
 62
    11
 39
50.0
 10
214.0
 20
-65.0
 30
0.0
 40
3.5
  0
LINE
  5
9A
  8
NOTE
  6
CONTINUOUS
 62
     4
 10
234.0
 20
-65.0
 30
0.0
 11
194.0
 21
-65.0
 31
0.0
  0
LINE
  5
9B
  8
NOTE
  6
CONTINUOUS
 62
     4
 10
214.0
 20
-85.0
 30
0.0
 11
214.0
 21
-45.0
 31
0.0
  0
CIRCLE
  5
9C
  8
FIX
  6
CONTINUOUS
 62
    11
 39
50.0
 10
214.0
 20
-98.500000000000014
 30
0.0
 40
3.5
  0
LINE
  5
9D
  8
NOTE
  6
CONTINUOUS
 62
     4
 10
214.0
 20
-118.5
 30
0.0
 11
214.0
 21
-78.5
 31
0.0
  0
LINE
  5
9E
  8
NOTE
  6
CONTINUOUS
 62
     4
 10
234.0
 20
-98.500000000000014
 30
0.0
 11
194.0
 21
-98.500000000000014
 31
0.0
  0
CIRCLE
  5
9F
  8
FIX
  6
CONTINUOUS
 62
    11
 39
50.0
 10
214.0
 20
-98.500000000000014
 30
0.0
 40
3.0
  0
CIRCLE
  5
A0
  8
FIX
  6
CONTINUOUS
 62
    11
 39
50.0
 10
214.0
 20
65.0
 30
0.0
 40
3.5
  0
CIRCLE
  5
A1
  8
FIX
  6
CONTINUOUS
 62
    11
 39
50.0
 10
214.0
 20
98.500000000000014
 30
0.0
 40
3.0
  0
CIRCLE
  5
A2
  8
FIX
  6
CONTINUOUS
 62
    11
 39
50.0
 10
214.0
 20
98.500000000000014
 30
0.0
 40
3.5
  0
LINE
  5
A3
  8
NOTE
  6
CONTINUOUS
 62
     4
 10
214.0
 20
118.5
 30
0.0
 11
214.0
 21
78.5
 31
0.0
  0
LINE
  5
A4
  8
NOTE
  6
CONTINUOUS
 62
     4
 10
234.0
 20
98.500000000000014
 30
0.0
 11
194.0
 21
98.500000000000014
 31
0.0
  0
LINE
  5
A5
  8
NOTE
  6
CONTINUOUS
 62
     4
 10
234.0
 20
65.0
 30
0.0
 11
194.0
 21
65.0
 31
0.0
  0
LINE
  5
A6
  8
NOTE
  6
CONTINUOUS
 62
     4
 10
214.0
 20
85.0
 30
0.0
 11
214.0
 21
45.0
 31
0.0
  0
LINE
  5
A7
  8
NOTE
  6
CONTINUOUS
 62
     4
 10
5.0
 20
90.0
 30
0.0
 11
5.0
 21
50.0
 31
0.0
  0
LINE
  5
A8
  8
NOTE
  6
CONTINUOUS
 62
     4
 10
25.0
 20
70.0
 30
0.0
 11
-15.0
 21
70.0
 31
0.0
  0
CIRCLE
  5
A9
  8
FIX
  6
CONTINUOUS
 62
    11
 39
50.0
 10
5.0
 20
70.0
 30
0.0
 40
7.5
  0
LINE
  5
AA
  8
SIZE
  6
CONTINUOUS
 62
    30
 10
255.0
 20
65.0
 30
0.0
 11
541.76264400000002
 21
65.0
 31
0.0
  0
LINE
  5
AB
  8
SIZE
  6
CONTINUOUS
 62
    30
 10
255.0
 20
-65.0
 30
0.0
 11
541.76264400000002
 21
-65.0
 31
0.0
  0
LINE
  5
AC
  8
SIZE
  6
CONTINUOUS
 62
    30
 10
521.76264400000002
 20
53.0
 30
0.0
 11
521.76264400000002
 21
-53.0
 31
0.0
  0
LINE
  5
AD
  8
SIZE
  6
CONTINUOUS
 62
    30
 10
521.76264400000002
 20
-332.30497000000003
 30
0.0
 11
521.76264400000002
 21
-65.0
 31
0.0
  0
TEXT
  5
AE
  8
SIZE
  6
CONTINUOUS
 62
    30
 10
496.76264400000002
 20
-307.3049705714285
 30
0.0
 40
64.0
  1
130
 50
90.0
 41
0.9
 72
     1
 11
496.76264400000002
 21
-238.73354199999989
 31
0.0
  0
CIRCLE
  5
AF
  8
SIZE
  6
CONTINUOUS
 62
    30
 10
521.76264400000002
 20
65.0
 30
0.0
 40
6.0
  0
LINE
  5
B0
  8
SIZE
  6
CONTINUOUS
 62
    30
 10
521.76264400000002
 20
65.0
 30
0.0
 11
521.76264400000002
 21
53.0
 31
0.0
  0
CIRCLE
  5
B1
  8
SIZE
  6
CONTINUOUS
 62
    30
 10
521.76264400000002
 20
-65.0
 30
0.0
 40
6.0
  0
LINE
  5
B2
  8
SIZE
  6
CONTINUOUS
 62
    30
 10
521.76264400000002
 20
-65.0
 30
0.0
 11
521.76264400000002
 21
-53.0
 31
0.0
  0
LINE
  5
B6
  8
SIZE
  6
CONTINUOUS
 62
    30
 10
254.80000000000001
 20
98.500000000000014
 30
0.0
 11
780.89323799999988
 21
98.500000000000014
 31
0.0
  0
LINE
  5
B7
  8
SIZE
  6
CONTINUOUS
 62
    30
 10
254.80000000000001
 20
-98.500000000000014
 30
0.0
 11
780.89323799999988
 21
-98.500000000000014
 31
0.0
  0
LINE
  5
B8
  8
SIZE
  6
CONTINUOUS
 62
    30
 10
760.89323799999988
 20
86.5
 30
0.0
 11
760.89323799999988
 21
-86.5
 31
0.0
  0
CIRCLE
  5
B9
  8
SIZE
  6
CONTINUOUS
 62
    30
 10
760.89323799999988
 20
98.500000000000014
 30
0.0
 40
6.0
  0
LINE
  5
BA
  8
SIZE
  6
CONTINUOUS
 62
    30
 10
760.89323799999988
 20
98.500000000000014
 30
0.0
 11
760.89323799999988
 21
86.5
 31
0.0
  0
CIRCLE
  5
BB
  8
SIZE
  6
CONTINUOUS
 62
    30
 10
760.89323799999988
 20
-98.500000000000014
 30
0.0
 40
6.0
  0
LINE
  5
BC
  8
SIZE
  6
CONTINUOUS
 62
    30
 10
760.89323799999988
 20
-98.500000000000014
 30
0.0
 11
760.89323799999988
 21
-86.5
 31
0.0
  0
TEXT
  5
BD
  8
SIZE
  6
CONTINUOUS
 62
    30
 10
735.89323799999988
 20
-68.571428571428569
 30
0.0
 40
64.0
  1
197
 50
90.0
 41
0.9
 72
     1
 11
735.89323799999988
 21
0.0
 31
0.0
  0
LINE
  5
C1
  8
SIZE
  6
CONTINUOUS
 62
    30
 10
234.80000000000001
 20
110.0
 30
0.0
 11
893.90128400000003
 21
110.0
 31
0.0
  0
LINE
  5
C2
  8
SIZE
  6
CONTINUOUS
 62
    30
 10
234.80000000000001
 20
-110.0
 30
0.0
 11
893.90128400000003
 21
-110.0
 31
0.0
  0
LINE
  5
C5
  8
SIZE
  6
CONTINUOUS
 62
    30
 10
873.90128400000003
 20
110.0
 30
0.0
 11
873.90128400000003
 21
-110.0
 31
0.0
  0
CIRCLE
  5
C6
  8
SIZE
  6
CONTINUOUS
 62
    30
 10
873.90128400000003
 20
110.0
 30
0.0
 40
6.0
  0
CIRCLE
  5
C8
  8
SIZE
  6
CONTINUOUS
 62
    30
 10
873.90128400000003
 20
-110.0
 30
0.0
 40
6.0
  0
TEXT
  5
CA
  8
SIZE
  6
CONTINUOUS
 62
    30
 10
848.90128400000003
 20
-110.5371428571428
 30
0.0
 40
64.0
  1
□220
 50
90.0
 41
0.9
 72
     1
 11
848.90128400000003
 21
0.0
 31
0.0
  0
LINE
  5
CE
  8
SIZE
  6
CONTINUOUS
 62
    30
 10
5.0
 20
-105.0
 30
0.0
 11
5.0
 21
-379.22704599999992
 31
0.0
  0
LINE
  5
CF
  8
SIZE
  6
CONTINUOUS
 62
    30
 10
214.0
 20
-130.0
 30
0.0
 11
214.0
 21
-379.22704599999992
 31
0.0
  0
LINE
  5
D0
  8
SIZE
  6
CONTINUOUS
 62
    30
 10
17.0
 20
-359.22704599999992
 30
0.0
 11
203.0
 21
-359.22704599999992
 31
0.0
  0
CIRCLE
  5
D1
  8
SIZE
  6
CONTINUOUS
 62
    30
 10
5.0
 20
-359.22704599999992
 30
0.0
 40
6.0
  0
LINE
  5
D2
  8
SIZE
  6
CONTINUOUS
 62
    30
 10
5.0
 20
-359.22704599999992
 30
0.0
 11
17.0
 21
-359.22704599999992
 31
0.0
  0
CIRCLE
  5
D3
  8
SIZE
  6
CONTINUOUS
 62
    30
 10
214.0
 20
-359.22704599999992
 30
0.0
 40
6.0
  0
LINE
  5
D4
  8
SIZE
  6
CONTINUOUS
 62
    30
 10
214.0
 20
-359.22704599999992
 30
0.0
 11
202.0
 21
-359.22704599999992
 31
0.0
  0
TEXT
  5
D5
  8
SIZE
  6
CONTINUOUS
 62
    30
 10
37.31428571428571
 20
-334.22704599999992
 30
0.0
 40
64.0
  1
209
 41
0.9
 72
     1
 11
110.0
 21
-334.22704599999992
 31
0.0
  0
LINE
  5
D9
  8
SIZE
  6
CONTINUOUS
 62
    30
 10
181.0
 20
-109.4999999999999
 30
0.0
 11
181.0
 21
-258.005202
 31
0.0
  0
LINE
  5
DB
  8
SIZE
  6
CONTINUOUS
 62
    30
 10
168.30000000000001
 20
-238.00520199999991
 30
0.0
 11
156.30000000000001
 21
-238.00520199999991
 31
0.0
  0
LINE
  5
DC
  8
SIZE
  6
CONTINUOUS
 62
    30
 10
225.30000000000001
 20
-238.00520199999991
 30
0.0
 11
237.30000000000001
 21
-238.00520199999991
 31
0.0
  0
LINE
  5
DD
  8
SIZE
  6
CONTINUOUS
 62
    30
 10
383.15842900000001
 20
-238.00520199999991
 30
0.0
 11
213.30000000000001
 21
-238.00520199999991
 31
0.0
  0
TEXT
  5
DE
  8
SIZE
  6
CONTINUOUS
 62
    30
 10
264.9012855714285
 20
-213.00520199999991
 30
0.0
 40
64.0
  1
33
 41
0.9
 72
     1
 11
311.52985699999999
 21
-213.00520199999991
 31
0.0
  0
LINE
  5
DF
  8
SIZE
  6
CONTINUOUS
 62
    30
 10
180.30000000000001
 20
-238.00520199999991
 30
0.0
 11
213.30000000000001
 21
-238.00520199999991
 31
0.0
  0
LINE
  5
E0
  8
SIZE
  6
CONTINUOUS
 62
    30
 10
180.30000000000001
 20
-238.00520199999991
 30
0.0
 11
213.30000000000001
 21
-238.00520199999991
 31
0.0
  0
CIRCLE
  5
E1
  8
SIZE
  6
CONTINUOUS
 62
    30
 10
181.0
 20
-238.00520199999991
 30
0.0
 40
6.0
  0
LINE
  5
E2
  8
SIZE
  6
CONTINUOUS
 62
    30
 10
181.0
 20
-238.00520199999991
 30
0.0
 11
169.0
 21
-238.00520199999991
 31
0.0
  0
CIRCLE
  5
E3
  8
SIZE
  6
CONTINUOUS
 62
    30
 10
213.30000000000001
 20
-238.00520199999991
 30
0.0
 40
6.0
  0
LINE
  5
E4
  8
SIZE
  6
CONTINUOUS
 62
    30
 10
213.30000000000001
 20
-238.00520199999991
 30
0.0
 11
225.30000000000001
 21
-238.00520199999991
 31
0.0
  0
LINE
  5
E8
  8
SIZE
  6
CONTINUOUS
 62
    30
 10
5.0
 20
-105.0
 30
0.0
 11
5.0
 21
-379.22704599999992
 31
0.0
  0
LINE
  5
E9
  8
SIZE
  6
CONTINUOUS
 62
    30
 10
0.0
 20
-38.5
 30
0.0
 11
0.0
 21
-379.22704599999992
 31
0.0
  0
LINE
  5
EA
  8
SIZE
  6
CONTINUOUS
 62
    30
 10
17.0
 20
-359.22704599999992
 30
0.0
 11
29.0
 21
-359.22704599999992
 31
0.0
  0
LINE
  5
EB
  8
SIZE
  6
CONTINUOUS
 62
    30
 10
-12.0
 20
-359.22704599999992
 30
0.0
 11
-24.0
 21
-359.22704599999992
 31
0.0
  0
LINE
  5
EC
  8
SIZE
  6
CONTINUOUS
 62
    30
 10
-121.92399999999989
 20
-359.22704599999992
 30
0.0
 11
0.0
 21
-359.22704599999992
 31
0.0
  0
TEXT
  5
ED
  8
SIZE
  6
CONTINUOUS
 62
    30
 10
-96.923999999999992
 20
-334.22704599999992
 30
0.0
 40
64.0
  1
5
 41
0.9
 72
     1
 11
-77.72399999999999
 21
-334.22704599999992
 31
0.0
  0
LINE
  5
EE
  8
SIZE
  6
CONTINUOUS
 62
    30
 10
5.0
 20
-359.22704599999992
 30
0.0
 11
0.0
 21
-359.22704599999992
 31
0.0
  0
LINE
  5
EF
  8
SIZE
  6
CONTINUOUS
 62
    30
 10
5.0
 20
-359.22704599999992
 30
0.0
 11
0.0
 21
-359.22704599999992
 31
0.0
  0
CIRCLE
  5
F0
  8
SIZE
  6
CONTINUOUS
 62
    30
 10
5.0
 20
-359.22704599999992
 30
0.0
 40
6.0
  0
LINE
  5
F1
  8
SIZE
  6
CONTINUOUS
 62
    30
 10
5.0
 20
-359.22704599999992
 30
0.0
 11
17.0
 21
-359.22704599999992
 31
0.0
  0
CIRCLE
  5
F2
  8
SIZE
  6
CONTINUOUS
 62
    30
 10
0.0
 20
-359.22704599999992
 30
0.0
 40
6.0
  0
LINE
  5
F3
  8
SIZE
  6
CONTINUOUS
 62
    30
 10
0.0
 20
-359.22704599999992
 30
0.0
 11
-12.0
 21
-359.22704599999992
 31
0.0
  0
LINE
  5
F7
  8
SIZE
  6
CONTINUOUS
 62
    30
 10
-35.0
 20
70.0
 30
0.0
 11
-98.314847999999998
 21
70.0
 31
0.0
  0
LINE
  5
F8
  8
SIZE
  6
CONTINUOUS
 62
    30
 10
-35.0
 20
-70.0
 30
0.0
 11
-98.314847999999998
 21
-70.0
 31
0.0
  0
LINE
  5
FB
  8
SIZE
  6
CONTINUOUS
 62
    30
 10
-78.314847999999998
 20
70.0
 30
0.0
 11
-78.314847999999998
 21
-70.0
 31
0.0
  0
CIRCLE
  5
FC
  8
SIZE
  6
CONTINUOUS
 62
    30
 10
-78.314847999999998
 20
70.0
 30
0.0
 40
6.0
  0
CIRCLE
  5
FE
  8
SIZE
  6
CONTINUOUS
 62
    30
 10
-78.314847999999998
 20
-70.0
 30
0.0
 40
6.0
  0
TEXT
  5
100
  8
SIZE
  6
CONTINUOUS
 62
    30
 10
-103.3148479999999
 20
-68.571428571428569
 30
0.0
 40
64.0
  1
140
 50
90.0
 41
0.9
 72
     1
 11
-103.3148479999999
 21
0.0
 31
0.0
  0
LINE
  5
104
  8
DETAIL
  6
CONTINUOUS
 62
     5
 10
181.0
 20
89.500000000000014
 30
0.0
 11
214.0
 21
89.500000000000014
 31
0.0
  0
LINE
  5
105
  8
DETAIL
  6
CONTINUOUS
 62
     5
 10
181.0
 20
-89.500000000000014
 30
0.0
 11
214.0
 21
-89.500000000000014
 31
0.0
  0
LINE
  5
106
  8
SIZE
  6
CONTINUOUS
 62
    30
 10
235.0
 20
89.500000000000014
 30
0.0
 11
662.53726500000005
 21
89.500000000000014
 31
0.0
  0
LINE
  5
107
  8
SIZE
  6
CONTINUOUS
 62
    30
 10
235.0
 20
-89.500000000000014
 30
0.0
 11
662.53726500000005
 21
-89.500000000000014
 31
0.0
  0
LINE
  5
108
  8
SIZE
  6
CONTINUOUS
 62
    30
 10
642.53726500000005
 20
77.75
 30
0.0
 11
642.53726500000005
 21
-77.75
 31
0.0
  0
LINE
  5
109
  8
SIZE
  6
CONTINUOUS
 62
    30
 10
642.53726500000005
 20
-385.90788001059758
 30
0.0
 11
642.53726500000005
 21
-89.749999999999986
 31
0.0
  0
TEXT
  5
10A
  8
SIZE
  6
CONTINUOUS
 62
    30
 10
617.53726500000005
 20
-371.78733139995222
 30
0.0
 40
64.0
  1
□179
 50
90.0
 41
0.9
 72
     1
 11
617.53726500000005
 21
-268.10733139995222
 31
0.0
  0
CIRCLE
  5
10B
  8
SIZE
  6
CONTINUOUS
 62
    30
 10
642.53726500000005
 20
89.500000000000014
 30
0.0
 40
6.0
  0
LINE
  5
10C
  8
SIZE
  6
CONTINUOUS
 62
    30
 10
642.53726500000005
 20
89.500000000000014
 30
0.0
 11
642.53726500000005
 21
77.5
 31
0.0
  0
CIRCLE
  5
10D
  8
SIZE
  6
CONTINUOUS
 62
    30
 10
642.53726500000005
 20
-89.500000000000014
 30
0.0
 40
6.0
  0
LINE
  5
10E
  8
SIZE
  6
CONTINUOUS
 62
    30
 10
642.53726500000005
 20
-89.500000000000014
 30
0.0
 11
642.53726500000005
 21
-77.5
 31
0.0
  0
LINE
  5
112
  8
SIZE
  6
CONTINUOUS
 62
    30
 10
-14.0
 20
85.0
 30
0.0
 11
-208.927785
 21
85.0
 31
0.0
  0
LINE
  5
113
  8
SIZE
  6
CONTINUOUS
 62
    30
 10
-14.0
 20
-85.0
 30
0.0
 11
-208.927785
 21
-85.0
 31
0.0
  0
LINE
  5
116
  8
SIZE
  6
CONTINUOUS
 62
    30
 10
-188.927785
 20
85.0
 30
0.0
 11
-188.927785
 21
-85.0
 31
0.0
  0
CIRCLE
  5
117
  8
SIZE
  6
CONTINUOUS
 62
    30
 10
-188.927785
 20
85.0
 30
0.0
 40
6.0
  0
CIRCLE
  5
119
  8
SIZE
  6
CONTINUOUS
 62
    30
 10
-188.927785
 20
-85.0
 30
0.0
 40
6.0
  0
TEXT
  5
11B
  8
SIZE
  6
CONTINUOUS
 62
    30
 10
-213.927785
 20
-108.89142857142851
 30
0.0
 40
64.0
  1
φ170
 50
90.0
 41
0.9
 72
     1
 11
-213.927785
 21
0.0
 31
0.0
  0
POINT
  5
11F
  8
ARRANGE
  6
CONTINUOUS
 62
     1
 10
0.0
 20
0.0
 30
0.0
 39
50.0
  0
CIRCLE
  5
120
  8
ARRANGE
  6
CONTINUOUS
 62
     1
 39
50.0
 10
0.0
 20
0.0
 30
0.0
 40
40.0
  0
TEXT
  5
121
  8
NOTE
  6
CONTINUOUS
 62
     4
 10
-741.09167500000001
 20
206.583867
 30
0.0
 40
64.0
  1
AH 2-φ15×22
 41
0.9
  0
LINE
  5
122
  8
NOTE
  6
CONTINUOUS
 62
     4
 10
-753.64096700000005
 20
188.62872300000001
 30
0.0
 11
-106.297006
 21
188.62872300000001
 31
0.0
  0
LINE
  5
123
  8
NOTE
  6
CONTINUOUS
 62
     4
 10
-106.297006
 20
188.62872300000001
 30
0.0
 11
5.0
 21
70.0
 31
0.0
  0
LINE
  5
124
  8
NOTE
  6
CONTINUOUS
 62
     4
 10
-28.804539999999999
 20
91.383476000000016
 30
0.0
 11
5.0
 21
70.0
 31
0.0
  0
LINE
  5
125
  8
NOTE
  6
CONTINUOUS
 62
     4
 10
5.0
 20
70.0
 30
0.0
 11
-13.58385199999999
 21
105.42090399999999
 31
0.0
  0
TEXT
  5
126
  8
NOTE
  6
CONTINUOUS
 62
     4
 10
331.84927699999997
 20
180.55749199999991
 30
0.0
 40
64.0
  1
6-φ6
 41
0.9
  0
LINE
  5
127
  8
NOTE
  6
CONTINUOUS
 62
     4
 10
570.57890299999997
 20
164.90753799999999
 30
0.0
 11
322.39691199999999
 21
164.90753799999999
 31
0.0
  0
LINE
  5
128
  8
NOTE
  6
CONTINUOUS
 62
     4
 10
321.39691199999987
 20
164.90753799999999
 30
0.0
 11
214.0
 21
65.0
 31
0.0
  0
LINE
  5
129
  8
NOTE
  6
CONTINUOUS
 62
     4
 10
234.958167
 20
99.069858000000011
 30
0.0
 11
214.0
 21
65.0
 31
0.0
  0
LINE
  5
12A
  8
NOTE
  6
CONTINUOUS
 62
     4
 10
214.0
 20
65.0
 30
0.0
 11
249.18523399999989
 21
84.026278999999974
 31
0.0
  0
TEXT
  5
12B
  8
NOTE
  6
CONTINUOUS
 62
     4
 10
324.00181099999992
 20
301.76918799999999
 30
0.0
 40
64.0
  1
8-φ7×12
 41
0.9
  0
LINE
  5
12C
  8
NOTE
  6
CONTINUOUS
 62
     4
 10
319.88265200000001
 20
275.75252899999992
 30
0.0
 11
732.94789800000001
 21
275.75252899999992
 31
0.0
  0
LINE
  5
12D
  8
NOTE
  6
CONTINUOUS
 62
     4
 39
50.0
 10
214.0
 20
98.500000000000014
 30
0.0
 11
318.88265200000001
 21
275.75252899999992
 31
0.0
  0
LINE
  5
12E
  8
NOTE
  6
CONTINUOUS
 62
     4
 10
225.39556400000001
 20
136.84241900000001
 30
0.0
 11
214.0
 21
98.500000000000014
 31
0.0
  0
LINE
  5
12F
  8
NOTE
  6
CONTINUOUS
 62
     4
 10
214.0
 20
98.500000000000014
 30
0.0
 11
243.04005799999999
 21
126.0077269999999
 31
0.0
  0
LINE
  5
130
  8
OUTLINE
  6
CONTINUOUS
 62
     3
 10
0.0
 20
-18.5
 30
0.0
 11
3.0
 21
-18.5
 31
0.0
  0
LINE
  5
131
  8
OUTLINE
  6
CONTINUOUS
 62
     3
 10
0.0
 20
-17.5
 30
0.0
 11
3.0
 21
-17.5
 31
0.0
  0
LINE
  5
132
  8
OUTLINE
  6
CONTINUOUS
 62
     3
 10
0.0
 20
18.5
 30
0.0
 11
3.0
 21
18.5
 31
0.0
  0
LINE
  5
133
  8
OUTLINE
  6
CONTINUOUS
 62
     3
 10
0.0
 20
17.5
 30
0.0
 11
3.0
 21
17.5
 31
0.0
  0
LINE
  5
134
  8
OUTLINE
  6
CONTINUOUS
 62
     3
 10
-0.369489
 20
1.5
 30
0.0
 11
3.0
 21
1.5
 31
0.0
  0
LINE
  5
135
  8
OUTLINE
  6
CONTINUOUS
 62
     3
 10
-0.369489
 20
1.0
 30
0.0
 11
3.0
 21
1.0
 31
0.0
  0
LINE
  5
136
  8
OUTLINE
  6
CONTINUOUS
 62
     3
 10
-0.369489
 20
-1.5
 30
0.0
 11
3.0
 21
-1.5
 31
0.0
  0
LINE
  5
137
  8
OUTLINE
  6
CONTINUOUS
 62
     3
 10
-0.369489
 20
-1.0
 30
0.0
 11
3.0
 21
-1.0
 31
0.0
  0
LINE
  5
138
  8
OUTLINE
  6
CONTINUOUS
 62
     3
 10
-0.369489
 20
1.5
 30
0.0
 11
-0.369489
 21
-1.5
 31
0.0
  0
LINE
  5
139
  8
OUTLINE
  6
CONTINUOUS
 62
     3
 10
0.0
 20
-18.5
 30
0.0
 11
0.0
 21
-17.5
 31
0.0
  0
LINE
  5
13A
  8
OUTLINE
  6
CONTINUOUS
 62
     3
 10
0.0
 20
18.5
 30
0.0
 11
0.0
 21
17.5
 31
0.0
  0
LINE
  5
13B
  8
OUTLINE
  6
CONTINUOUS
 62
     3
 10
4.0
 20
10.0
 30
0.0
 11
4.0
 21
-10.0
 31
0.0
  0
LINE
  5
13C
  8
OUTLINE
  6
CONTINUOUS
 62
     3
 10
4.4000000000000004
 20
-4.9000000000000004
 30
0.0
 11
4.4000000000000004
 21
4.9000000000000004
 31
0.0
  0
LINE
  5
13D
  8
OUTLINE
  6
CONTINUOUS
 62
     3
 10
5.4000000000000004
 20
0.0
 30
0.0
 11
5.4000000000000004
 21
4.7000000000000002
 31
0.0
  0
LINE
  5
13E
  8
OUTLINE
  6
CONTINUOUS
 62
     3
 10
181.0
 20
89.500000000000014
 30
0.0
 11
181.0
 21
-89.500000000000014
 31
0.0
  0
LINE
  5
13F
  8
OUTLINE
  6
CONTINUOUS
 62
     3
 10
214.0
 20
89.500000000000014
 30
0.0
 11
214.0
 21
-89.500000000000014
 31
0.0
  0
LINE
  5
140
  8
OUTLINE
  6
CONTINUOUS
 62
     3
 10
3.0
 20
1.5
 30
0.0
 11
3.0
 21
-1.5
 31
0.0
  0
LINE
  5
141
  8
OUTLINE
  6
CONTINUOUS
 62
     3
 10
24.5
 20
-20.5
 30
0.0
 11
181.0
 21
-20.5
 31
0.0
  0
LINE
  5
142
  8
OUTLINE
  6
CONTINUOUS
 62
     3
 10
5.0
 20
-16.5
 30
0.0
 11
5.0
 21
-85.0
 31
0.0
  0
LINE
  5
143
  8
OUTLINE
  6
CONTINUOUS
 62
     3
 10
6.0
 20
-16.5
 30
0.0
 11
6.0
 21
-85.0
 31
0.0
  0
LINE
  5
144
  8
OUTLINE
  6
CONTINUOUS
 62
     3
 10
5.0
 20
-85.0
 30
0.0
 11
6.0
 21
-85.0
 31
0.0
  0
LINE
  5
145
  8
OUTLINE
  6
CONTINUOUS
 62
     3
 10
5.0
 20
-16.5
 30
0.0
 11
5.0
 21
-6.149
 31
0.0
  0
LINE
  5
146
  8
OUTLINE
  6
CONTINUOUS
 62
     3
 10
4.0
 20
-16.5
 30
0.0
 11
4.0
 21
-10.0
 31
0.0
  0
ARC
  5
147
  8
OUTLINE
  6
CONTINUOUS
 62
     3
 10
3.0
 20
-16.5
 30
0.0
 40
1.0
 50
270.0
 51
0.0
  0
ARC
  5
148
  8
OUTLINE
  6
CONTINUOUS
 62
     3
 10
3.0
 20
-16.5
 30
0.0
 40
2.0
 50
270.0
 51
0.0
  0
LINE
  5
149
  8
OUTLINE
  6
CONTINUOUS
 62
     3
 10
22.5
 20
-18.5
 30
0.0
 11
22.5
 21
-16.5
 31
0.0
  0
ARC
  5
14A
  8
OUTLINE
  6
CONTINUOUS
 62
     3
 10
24.5
 20
-18.5
 30
0.0
 40
2.0
 50
180.0
 51
270.0
  0
LINE
  5
14B
  8
OUTLINE
  6
CONTINUOUS
 62
     3
 10
7.0
 20
-16.5
 30
0.0
 11
22.5
 21
-16.5
 31
0.0
  0
LINE
  5
14C
  8
OUTLINE
  6
CONTINUOUS
 62
     3
 10
5.4000000000000004
 20
-4.7000000000000002
 30
0.0
 11
5.4000000000000004
 21
0.0
 31
0.0
  0
LINE
  5
14D
  8
OUTLINE
  6
CONTINUOUS
 62
     3
 10
4.4000000000000004
 20
-2.5
 30
0.0
 11
5.4000000000000004
 21
-2.5
 31
0.0
  0
ARC
  5
14E
  8
OUTLINE
  6
CONTINUOUS
 62
     3
 10
6.0
 20
-4.9000000000000004
 30
0.0
 40
1.6000000000000001
 50
180.0
 51
247.38013499999991
  0
ARC
  5
14F
  8
OUTLINE
  6
CONTINUOUS
 62
     3
 10
5.4000000000000004
 20
-7.0999999999999988
 30
0.0
 40
1.6000000000000001
 50
0.0
 51
67.380134999999996
  0
ARC
  5
150
  8
OUTLINE
  6
CONTINUOUS
 62
     3
 10
5.0
 20
-7.2999999999999989
 30
0.0
 40
1.0
 50
0.0
 51
67.380134999999996
  0
ARC
  5
151
  8
OUTLINE
  6
CONTINUOUS
 62
     3
 10
6.4000000000000004
 20
-4.7000000000000002
 30
0.0
 40
1.0
 50
180.0
 51
247.38013499999991
  0
LINE
  5
152
  8
OUTLINE
  6
CONTINUOUS
 62
     3
 10
6.0
 20
-29.905246000000002
 30
0.0
 11
7.0
 21
-29.905246000000002
 31
0.0
  0
LINE
  5
153
  8
OUTLINE
  6
CONTINUOUS
 62
     3
 10
7.0
 20
-7.0999999999999988
 30
0.0
 11
7.0
 21
-29.905246000000002
 31
0.0
  0
LINE
  5
154
  8
OUTLINE
  6
CONTINUOUS
 62
     3
 10
6.0
 20
-7.2999999999999989
 30
0.0
 11
6.0
 21
-29.905246000000002
 31
0.0
  0
LINE
  5
155
  8
OUTLINE
  6
CONTINUOUS
 62
     3
 10
3.0
 20
-1.5
 30
0.0
 11
4.0
 21
-2.0
 31
0.0
  0
LINE
  5
156
  8
OUTLINE
  6
CONTINUOUS
 62
     3
 10
181.0
 20
-89.500000000000014
 30
0.0
 11
214.0
 21
-89.500000000000014
 31
0.0
  0
LINE
  5
157
  8
OUTLINE
  6
CONTINUOUS
 62
     3
 10
213.30000000000001
 20
-110.0
 30
0.0
 11
213.80000000000001
 21
-110.0
 31
0.0
  0
LINE
  5
158
  8
OUTLINE
  6
CONTINUOUS
 62
     3
 10
214.0
 20
-89.500000000000014
 30
0.0
 11
214.0
 21
-110.0
 31
0.0
  0
LINE
  5
159
  8
OUTLINE
  6
CONTINUOUS
 62
     3
 10
212.80000000000001
 20
-110.0
 30
0.0
 11
212.80000000000001
 21
-89.500000000000014
 31
0.0
  0
LINE
  5
15A
  8
OUTLINE
  6
CONTINUOUS
 62
     3
 10
214.0
 20
-110.0
 30
0.0
 11
212.80000000000001
 21
-110.0
 31
0.0
  0
LINE
  5
15B
  8
OUTLINE
  6
CONTINUOUS
 62
     3
 10
24.5
 20
20.5
 30
0.0
 11
181.0
 21
20.5
 31
0.0
  0
LINE
  5
15C
  8
OUTLINE
  6
CONTINUOUS
 62
     3
 10
6.0
 20
16.5
 30
0.0
 11
6.0
 21
85.0
 31
0.0
  0
LINE
  5
15D
  8
OUTLINE
  6
CONTINUOUS
 62
     3
 10
5.0
 20
16.5
 30
0.0
 11
5.0
 21
85.0
 31
0.0
  0
LINE
  5
15E
  8
OUTLINE
  6
CONTINUOUS
 62
     3
 10
5.0
 20
6.149
 30
0.0
 11
5.0
 21
16.5
 31
0.0
  0
LINE
  5
15F
  8
OUTLINE
  6
CONTINUOUS
 62
     3
 10
7.0
 20
16.5
 30
0.0
 11
22.5
 21
16.5
 31
0.0
  0
LINE
  5
160
  8
OUTLINE
  6
CONTINUOUS
 62
     3
 10
22.5
 20
18.5
 30
0.0
 11
22.5
 21
16.5
 31
0.0
  0
ARC
  5
161
  8
OUTLINE
  6
CONTINUOUS
 62
     3
 10
24.5
 20
18.5
 30
0.0
 40
2.0
 50
90.0
 51
180.0
  0
LINE
  5
162
  8
OUTLINE
  6
CONTINUOUS
 62
     3
 10
4.0
 20
16.5
 30
0.0
 11
4.0
 21
10.0
 31
0.0
  0
ARC
  5
163
  8
OUTLINE
  6
CONTINUOUS
 62
     3
 10
3.0
 20
16.5
 30
0.0
 40
2.0
 50
0.0
 51
90.0
  0
ARC
  5
164
  8
OUTLINE
  6
CONTINUOUS
 62
     3
 10
3.0
 20
16.5
 30
0.0
 40
1.0
 50
0.0
 51
90.0
  0
LINE
  5
165
  8
OUTLINE
  6
CONTINUOUS
 62
     3
 10
4.4000000000000004
 20
2.5
 30
0.0
 11
5.4000000000000004
 21
2.5
 31
0.0
  0
LINE
  5
166
  8
OUTLINE
  6
CONTINUOUS
 62
     3
 10
6.0
 20
29.905246000000002
 30
0.0
 11
7.0
 21
29.905246000000002
 31
0.0
  0
LINE
  5
167
  8
OUTLINE
  6
CONTINUOUS
 62
     3
 10
6.0
 20
7.2999999999999989
 30
0.0
 11
6.0
 21
29.905246000000002
 31
0.0
  0
LINE
  5
168
  8
OUTLINE
  6
CONTINUOUS
 62
     3
 10
7.0
 20
7.0999999999999988
 30
0.0
 11
7.0
 21
29.905246000000002
 31
0.0
  0
ARC
  5
169
  8
OUTLINE
  6
CONTINUOUS
 62
     3
 10
6.0
 20
4.9000000000000004
 30
0.0
 40
1.6000000000000001
 50
112.6198649999999
 51
180.0
  0
ARC
  5
16A
  8
OUTLINE
  6
CONTINUOUS
 62
     3
 10
5.4000000000000004
 20
7.0999999999999988
 30
0.0
 40
1.6000000000000001
 50
292.61986499999989
 51
0.0
  0
ARC
  5
16B
  8
OUTLINE
  6
CONTINUOUS
 62
     3
 10
6.4000000000000004
 20
4.7000000000000002
 30
0.0
 40
1.0
 50
112.6198649999999
 51
180.0
  0
ARC
  5
16C
  8
OUTLINE
  6
CONTINUOUS
 62
     3
 10
5.0
 20
7.2999999999999989
 30
0.0
 40
1.0
 50
292.61986499999989
 51
0.0
  0
LINE
  5
16D
  8
OUTLINE
  6
CONTINUOUS
 62
     3
 10
3.0
 20
1.5
 30
0.0
 11
4.0
 21
2.0
 31
0.0
  0
LINE
  5
16E
  8
OUTLINE
  6
CONTINUOUS
 62
     3
 10
5.0
 20
85.0
 30
0.0
 11
6.0
 21
85.0
 31
0.0
  0
LINE
  5
16F
  8
OUTLINE
  6
CONTINUOUS
 62
     3
 10
181.0
 20
89.500000000000014
 30
0.0
 11
214.0
 21
89.500000000000014
 31
0.0
  0
LINE
  5
170
  8
OUTLINE
  6
CONTINUOUS
 62
     3
 10
213.30000000000001
 20
110.0
 30
0.0
 11
214.0
 21
110.0
 31
0.0
  0
LINE
  5
171
  8
OUTLINE
  6
CONTINUOUS
 62
     3
 10
214.0
 20
89.500000000000014
 30
0.0
 11
214.0
 21
110.0
 31
0.0
  0
LINE
  5
172
  8
OUTLINE
  6
CONTINUOUS
 62
     3
 10
212.80000000000001
 20
110.0
 30
0.0
 11
212.80000000000001
 21
89.500000000000014
 31
0.0
  0
LINE
  5
173
  8
OUTLINE
  6
CONTINUOUS
 62
     3
 10
213.30000000000001
 20
110.0
 30
0.0
 11
212.80000000000001
 21
110.0
 31
0.0
  0
LINE
  5
174
  8
OUTLINE
  6
CONTINUOUS
 62
     3
 10
213.30000000000001
 20
110.0
 30
0.0
 11
213.80000000000001
 21
110.0
 31
0.0
  0
TEXT
  5
17D
  8
ETC
  6
CONTINUOUS
 62
    61
 10
606.9218102097127
 20
632.02000780227729
 30
0.0
 40
64.0
  1
P-182TD_4
 41
0.9
  0
TEXT
  5
17E
  8
ETC
  6
CONTINUOUS
 62
    61
 10
597.28680372686847
 20
546.715593688441
 30
0.0
 40
64.0
  1
システム部材
 41
0.9
  0
TEXT
  5
17F
  8
ETC
  6
CONTINUOUS
 62
    61
 10
749.15619608615975
 20
465.53084306596901
 30
0.0
 40
50.0
  1
P-182TD
 41
0.9
  0
ENDSEC
  0
EOF
