  0
SECTION
  2
HEADER
  9
$ACADVER
  1
AC1009
  9
$INSBASE
 10
0.0
 20
0.0
 30
0.0
  9
$EXTMIN
 10
-344.214629
 20
-334.4656819999999
 30
0.0
  9
$EXTMAX
 10
881.69283591797046
 20
529.49545664711229
 30
71.599999999999994
  9
$LIMMIN
 10
-2970.0
 20
-2100.0
  9
$LIMMAX
 10
2970.0
 20
2100.0
  9
$ORTHOMODE
 70
     1
  9
$REGENMODE
 70
     0
  9
$FILLMODE
 70
     1
  9
$QTEXTMODE
 70
     0
  9
$MIRRTEXT
 70
     0
  9
$DRAGMODE
 70
     2
  9
$LTSCALE
 40
20.0
  9
$OSMODE
 70
    41
  9
$ATTMODE
 70
     1
  9
$TEXTSIZE
 40
64.0
  9
$TRACEWID
 40
0.05
  9
$TEXTSTYLE
  7
STANDARD
  9
$CLAYER
  8
SIZE
  9
$CELTYPE
  6
CONTINUOUS
  9
$CECOLOR
 62
    30
  9
$DIMSCALE
 40
1.0
  9
$DIMASZ
 40
12.0
  9
$DIMEXO
 40
20.0
  9
$DIMDLI
 40
200.0
  9
$DIMRND
 40
0.0
  9
$DIMDLE
 40
0.0
  9
$DIMEXE
 40
20.0
  9
$DIMTP
 40
0.0
  9
$DIMTM
 40
0.0
  9
$DIMTXT
 40
64.0
  9
$DIMCEN
 40
0.09
  9
$DIMTSZ
 40
0.0
  9
$DIMTOL
 70
     0
  9
$DIMLIM
 70
     0
  9
$DIMTIH
 70
     0
  9
$DIMTOH
 70
     0
  9
$DIMSE1
 70
     0
  9
$DIMSE2
 70
     0
  9
$DIMTAD
 70
     1
  9
$DIMZIN
 70
     8
  9
$DIMBLK
  1
DOT1
  9
$DIMASO
 70
     1
  9
$DIMSHO
 70
     0
  9
$DIMPOST
  1

  9
$DIMAPOST
  1

  9
$DIMALT
 70
     0
  9
$DIMALTD
 70
     2
  9
$DIMALTF
 40
25.399999999999999
  9
$DIMLFAC
 40
1.0
  9
$DIMTOFL
 70
     1
  9
$DIMTVP
 40
0.0
  9
$DIMTIX
 70
     1
  9
$DIMSOXD
 70
     0
  9
$DIMSAH
 70
     1
  9
$DIMBLK1
  1
ORIGIN
  9
$DIMBLK2
  1
ORIGIN
  9
$DIMSTYLE
  2
STANDARD
  9
$DIMCLRD
 70
     0
  9
$DIMCLRE
 70
     0
  9
$DIMCLRT
 70
     0
  9
$DIMTFAC
 40
1.0
  9
$DIMGAP
 40
0.09
  9
$LUNITS
 70
     2
  9
$LUPREC
 70
     4
  9
$SKETCHINC
 40
0.1
  9
$FILLETRAD
 40
2.0
  9
$AUNITS
 70
     1
  9
$AUPREC
 70
     3
  9
$MENU
  1
ACAD
  9
$ELEVATION
 40
0.0
  9
$PELEVATION
 40
0.0
  9
$THICKNESS
 40
50.0
  9
$LIMCHECK
 70
     0
  9
$BLIPMODE
 70
     0
  9
$CHAMFERA
 40
0.0
  9
$CHAMFERB
 40
0.0
  9
$SKPOLY
 70
     0
  9
$TDCREATE
 40
2451453.4938508091
  9
$TDUPDATE
 40
2453462.769323993
  9
$TDINDWG
 40
0.7824471296
  9
$TDUSRTIMER
 40
0.7824469444
  9
$USRTIMER
 70
     1
  9
$ANGBASE
 50
0.0
  9
$ANGDIR
 70
     0
  9
$PDMODE
 70
     3
  9
$PDSIZE
 40
-2.0
  9
$PLINEWID
 40
0.0
  9
$COORDS
 70
     2
  9
$SPLFRAME
 70
     0
  9
$SPLINETYPE
 70
     6
  9
$SPLINESEGS
 70
     8
  9
$ATTDIA
 70
     0
  9
$ATTREQ
 70
     1
  9
$HANDLING
 70
 22529
  9
$HANDSEED
  5
744
  9
$SURFTAB1
 70
     6
  9
$SURFTAB2
 70
     6
  9
$SURFTYPE
 70
     6
  9
$SURFU
 70
     6
  9
$SURFV
 70
     6
  9
$UCSNAME
  2

  9
$UCSORG
 10
0.0
 20
0.0
 30
0.0
  9
$UCSXDIR
 10
1.0
 20
0.0
 30
0.0
  9
$UCSYDIR
 10
0.0
 20
1.0
 30
0.0
  9
$PUCSNAME
  2

  9
$PUCSORG
 10
0.0
 20
0.0
 30
0.0
  9
$PUCSXDIR
 10
1.0
 20
0.0
 30
0.0
  9
$PUCSYDIR
 10
0.0
 20
1.0
 30
0.0
  9
$USERI1
 70
     0
  9
$USERI2
 70
     0
  9
$USERI3
 70
     0
  9
$USERI4
 70
     0
  9
$USERI5
 70
     0
  9
$USERR1
 40
20.0
  9
$USERR2
 40
0.0
  9
$USERR3
 40
0.0
  9
$USERR4
 40
0.0
  9
$USERR5
 40
0.0
  9
$WORLDVIEW
 70
     1
  9
$SHADEDGE
 70
     3
  9
$SHADEDIF
 70
    70
  9
$TILEMODE
 70
     1
  9
$MAXACTVP
 70
    64
  9
$PLIMCHECK
 70
     0
  9
$PEXTMIN
 10
1.0000000000000000E+020
 20
1.0000000000000000E+020
 30
1.0000000000000000E+020
  9
$PEXTMAX
 10
-1.0000000000000000E+020
 20
-1.0000000000000000E+020
 30
-1.0000000000000000E+020
  9
$PLIMMIN
 10
0.0
 20
0.0
  9
$PLIMMAX
 10
12.0
 20
9.0
  9
$UNITMODE
 70
     0
  9
$VISRETAIN
 70
     1
  9
$PLINEGEN
 70
     0
  9
$PSLTSCALE
 70
     1
  0
ENDSEC
  0
SECTION
  2
TABLES
  0
TABLE
  2
VPORT
 70
     3
  0
VPORT
  2
*ACTIVE
 70
     0
 10
0.0
 20
0.0
 11
1.0
 21
1.0
 12
191.15040405491439
 22
46.927271253894332
 13
0.0
 23
0.0
 14
1.0
 24
1.0
 15
0.0
 25
0.0
 16
0.0
 26
0.0
 36
1.0
 17
0.0
 27
0.0
 37
0.0
 40
1210.101191241818
 41
1.4423558897243101
 42
50.0
 43
0.0
 44
0.0
 50
0.0
 51
0.0
 71
     0
 72
   100
 73
     1
 74
     1
 75
     0
 76
     0
 77
     0
 78
     0
  0
ENDTAB
  0
TABLE
  2
LTYPE
 70
     2
  0
LTYPE
  2
CONTINUOUS
 70
     0
  3
実線
 72
    65
 73
     0
 40
0.0
  0
LTYPE
  2
DASHDOT
 70
     0
  3
____ _ ____ _ ____ _ ____ _ ____ _ ____ _ ____
 72
    65
 73
     4
 40
5.5
 49
4.0
 49
-0.6
 49
0.3
 49
-0.6
  0
ENDTAB
  0
TABLE
  2
LAYER
 70
    12
  0
LAYER
  2
0
 70
     0
 62
     7
  6
CONTINUOUS
  0
LAYER
  2
SIZE
 70
     0
 62
    30
  6
CONTINUOUS
  0
LAYER
  2
BASIS
 70
     0
 62
     6
  6
DASHDOT
  0
LAYER
  2
OUTLINE
 70
     0
 62
     3
  6
CONTINUOUS
  0
LAYER
  2
DETAIL
 70
     0
 62
     5
  6
CONTINUOUS
  0
LAYER
  2
ARRANGE
 70
     0
 62
     1
  6
CONTINUOUS
  0
LAYER
  2
DEFPOINTS
 70
     0
 62
     7
  6
CONTINUOUS
  0
LAYER
  2
ETC
 70
     0
 62
    61
  6
CONTINUOUS
  0
LAYER
  2
FIX
 70
     0
 62
    11
  6
CONTINUOUS
  0
LAYER
  2
NOTE
 70
     0
 62
     4
  6
CONTINUOUS
  0
LAYER
  2
SERVICESPACE
 70
     0
 62
     2
  6
DASHDOT
  0
LAYER
  2
SYMBOLLINE
 70
     0
 62
    15
  6
CONTINUOUS
  0
ENDTAB
  0
TABLE
  2
STYLE
 70
     1
  0
STYLE
  2
STANDARD
 70
     0
 40
64.0
 41
0.9
 50
0.0
 71
     0
 42
64.0
  3
SIMPLEX.shx
  4
BIGFONT.shx
  0
ENDTAB
  0
TABLE
  2
VIEW
 70
     1
  0
VIEW
  2
ALL
 70
     0
 40
4282.6198079999967
 10
0.0
 20
41.309903999999989
 41
5940.0
 11
0.0
 21
0.0
 31
1.0
 12
0.0
 22
0.0
 32
0.0
 42
50.0
 43
0.0
 44
0.0
 50
0.0
 71
     0
  0
ENDTAB
  0
TABLE
  2
UCS
 70
     0
  0
ENDTAB
  0
TABLE
  2
APPID
 70
     1
  0
APPID
  2
ACAD
 70
     0
  0
ENDTAB
  0
TABLE
  2
DIMSTYLE
 70
     1
  0
DIMSTYLE
  2
STANDARD
 70
     0
  3

  4

  5

  6

  7

 40
1.0
 41
0.18
 42
0.0625
 43
0.38
 44
0.18
 45
0.0
 46
0.0
 47
0.0
 48
0.0
140
0.18
141
0.09
142
0.0
143
25.399999999999999
144
1.0
145
0.0
146
1.0
147
0.09
 71
     0
 72
     0
 73
     1
 74
     1
 75
     0
 76
     0
 77
     0
 78
     0
170
     0
171
     2
172
     0
173
     0
174
     0
175
     0
176
     0
177
     0
178
     0
  0
ENDTAB
  0
ENDSEC
  0
SECTION
  2
BLOCKS
  0
BLOCK
  8
0
  2
$MODEL_SPACE
 70
     0
 10
0.0
 20
0.0
 30
0.0
  3
$MODEL_SPACE
  1

  0
ENDBLK
  5
4EB
  8
0
  0
BLOCK
 67
     1
  8
0
  2
$PAPER_SPACE
 70
     0
 10
0.0
 20
0.0
 30
0.0
  3
$PAPER_SPACE
  1

  0
ENDBLK
  5
4E7
 67
     1
  8
0
  0
BLOCK
  8
0
  2
DOT1
 70
     0
 10
0.0
 20
0.0
 30
0.0
  3
DOT1
  1

  0
CIRCLE
  5
506
  8
SIZE
  6
CONTINUOUS
 62
     7
 10
0.0
 20
0.0
 30
0.0
 40
3.0
  0
ENDBLK
  5
507
  8
0
  0
BLOCK
  8
0
  2
_ORIGIN
 70
     0
 10
0.0
 20
0.0
 30
0.0
  3
_ORIGIN
  1

  0
CIRCLE
  5
50A
  8
0
  6
CONTINUOUS
 62
     7
 10
0.0
 20
0.0
 30
0.0
 40
0.5
  0
LINE
  5
50B
  8
0
  6
CONTINUOUS
 62
     7
 10
0.0
 20
0.0
 30
0.0
 11
-1.0
 21
0.0
 31
0.0
  0
ENDBLK
  5
50C
  8
0
  0
BLOCK
  8
0
 62
    30
  2
*D4
 70
     1
 10
0.0
 20
0.0
 30
0.0
  3
*D4
  1

  0
LINE
  5
6EC
  8
SIZE
  6
CONTINUOUS
 62
     0
 10
20.0
 20
-115.0
 30
0.0
 11
284.63281258409
 21
-115.0
 31
0.0
  0
LINE
  5
6ED
  8
SIZE
  6
CONTINUOUS
 62
     0
 10
195.4092939999999
 20
-0.0000000000000057
 30
0.0
 11
284.63281258409
 21
-0.0000000000000309
 31
0.0
  0
LINE
  5
6EE
  8
SIZE
  6
CONTINUOUS
 62
     0
 10
264.63281258409
 20
-127.0
 30
0.0
 11
264.63281258408989
 21
-139.0
 31
0.0
  0
LINE
  5
6EF
  8
SIZE
  6
CONTINUOUS
 62
     0
 10
264.63281258409
 20
11.99999999999997
 30
0.0
 11
264.63281258409
 21
23.999999999999972
 31
0.0
  0
LINE
  5
6F0
  8
SIZE
  6
CONTINUOUS
 62
     0
 10
264.63281258409
 20
-115.0
 30
0.0
 11
264.63281258409
 21
-0.0000000000000253
 31
0.0
  0
INSERT
  5
6F1
  8
SIZE
  6
CONTINUOUS
 62
     0
  2
_ORIGIN
 10
264.63281258409
 20
-115.0
 30
0.0
 41
12.0
 42
12.0
 43
12.0
 50
90.0
  0
INSERT
  5
6F2
  8
SIZE
  6
CONTINUOUS
 62
     0
  2
_ORIGIN
 10
264.63281258409
 20
-0.0000000000000253
 30
0.0
 41
12.0
 42
12.0
 43
12.0
 50
270.0
  0
TEXT
  5
6F3
  8
SIZE
  6
CONTINUOUS
 62
     0
 10
264.54281258408997
 20
-120.5857142857142
 30
0.0
 40
64.0
  1
115
 50
90.0
 41
0.9
  0
POINT
  5
6F4
  8
DEFPOINTS
  6
CONTINUOUS
 62
     0
 10
0.0
 20
-115.0
 30
0.0
  0
POINT
  5
6F5
  8
DEFPOINTS
  6
CONTINUOUS
 62
     0
 10
175.4092939999999
 20
0.0
 30
0.0
  0
POINT
  5
6F6
  8
DEFPOINTS
  6
CONTINUOUS
 62
     0
 10
264.63281258409
 20
-0.0000000000000253
 30
0.0
  0
ENDBLK
  5
6F8
  8
0
 62
    30
  0
ENDSEC
  0
SECTION
  2
ENTITIES
  0
LINE
  5
50D
  8
BASIS
  6
DASHDOT
 62
     6
 10
0.0
 20
149.760662
 30
0.0
 11
0.0
 21
-166.19886099999991
 31
0.0
  0
CIRCLE
  5
50E
  8
ARRANGE
  6
CONTINUOUS
 62
     1
 39
50.0
 10
0.0
 20
0.0
 30
0.0
 40
40.0
  0
POINT
  5
50F
  8
ARRANGE
  6
CONTINUOUS
 62
     1
 10
0.0
 20
0.0
 30
0.0
 39
50.0
  0
CIRCLE
  5
510
  8
DETAIL
  6
CONTINUOUS
 62
     5
 39
71.599999999999994
 10
0.0
 20
0.0
 30
0.0
 40
89.500000000000014
  0
LINE
  5
511
  8
BASIS
  6
DASHDOT
 62
     6
 10
175.4092939999999
 20
0.0
 30
0.0
 11
-177.90048499999969
 21
0.0
 31
0.0
  0
ARC
  5
512
  8
DETAIL
  6
CONTINUOUS
 62
     5
 39
71.599999999999994
 10
0.0
 20
-62.787692000000007
 30
0.0
 40
109.327692
 50
35.05113699999999
 51
144.9488629999999
  0
CIRCLE
  5
513
  8
DETAIL
  6
CONTINUOUS
 62
     5
 39
50.0
 10
-20.815384999999999
 20
17.352651000000002
 30
0.0
 40
2.5048169999999992
  0
CIRCLE
  5
514
  8
DETAIL
  6
CONTINUOUS
 62
     5
 39
50.0
 10
-20.815384999999999
 20
-47.722493999999983
 30
0.0
 40
2.5048169999999992
  0
CIRCLE
  5
515
  8
DETAIL
  6
CONTINUOUS
 62
     5
 39
50.0
 10
-20.815384999999999
 20
-34.707464999999999
 30
0.0
 40
2.5048169999999992
  0
CIRCLE
  5
516
  8
DETAIL
  6
CONTINUOUS
 62
     5
 39
50.0
 10
-20.815384999999999
 20
-21.69243599999999
 30
0.0
 40
2.5048169999999992
  0
CIRCLE
  5
517
  8
DETAIL
  6
CONTINUOUS
 62
     5
 39
50.0
 10
-20.815384999999999
 20
-8.6774070000000005
 30
0.0
 40
2.5048169999999992
  0
CIRCLE
  5
518
  8
DETAIL
  6
CONTINUOUS
 62
     5
 39
50.0
 10
-20.815384999999999
 20
4.3376219999999979
 30
0.0
 40
2.5048169999999992
  0
CIRCLE
  5
519
  8
DETAIL
  6
CONTINUOUS
 62
     5
 39
50.0
 10
-24.572610999999998
 20
-15.184730999999999
 30
0.0
 40
2.5048169999999992
  0
CIRCLE
  5
51A
  8
DETAIL
  6
CONTINUOUS
 62
     5
 39
50.0
 10
-32.087062000000003
 20
-15.184730999999999
 30
0.0
 40
2.5048169999999992
  0
CIRCLE
  5
51B
  8
DETAIL
  6
CONTINUOUS
 62
     5
 39
50.0
 10
-39.60151299999999
 20
-15.184730999999999
 30
0.0
 40
2.5048169999999992
  0
CIRCLE
  5
51C
  8
DETAIL
  6
CONTINUOUS
 62
     5
 39
50.0
 10
-47.115963000000001
 20
-15.184730999999999
 30
0.0
 40
2.5048169999999992
  0
CIRCLE
  5
51D
  8
DETAIL
  6
CONTINUOUS
 62
     5
 39
50.0
 10
-54.630414000000002
 20
-15.184730999999999
 30
0.0
 40
2.5048169999999992
  0
CIRCLE
  5
51E
  8
DETAIL
  6
CONTINUOUS
 62
     5
 39
50.0
 10
-24.572610999999998
 20
-54.229817000000011
 30
0.0
 40
2.5048169999999992
  0
CIRCLE
  5
51F
  8
DETAIL
  6
CONTINUOUS
 62
     5
 39
50.0
 10
-28.329836
 20
-47.722493999999983
 30
0.0
 40
2.5048169999999992
  0
CIRCLE
  5
520
  8
DETAIL
  6
CONTINUOUS
 62
     5
 39
50.0
 10
-24.572610999999998
 20
-41.214787999999999
 30
0.0
 40
2.5048169999999992
  0
CIRCLE
  5
521
  8
DETAIL
  6
CONTINUOUS
 62
     5
 39
50.0
 10
-32.087062000000003
 20
-41.214787999999999
 30
0.0
 40
2.5048169999999992
  0
CIRCLE
  5
522
  8
DETAIL
  6
CONTINUOUS
 62
     5
 39
50.0
 10
-28.329836
 20
-34.707464999999999
 30
0.0
 40
2.5048169999999992
  0
CIRCLE
  5
523
  8
DETAIL
  6
CONTINUOUS
 62
     5
 39
50.0
 10
-24.572610999999998
 20
-28.199760000000001
 30
0.0
 40
2.5048169999999992
  0
CIRCLE
  5
524
  8
DETAIL
  6
CONTINUOUS
 62
     5
 39
50.0
 10
-32.087062000000003
 20
-28.199760000000001
 30
0.0
 40
2.5048169999999992
  0
CIRCLE
  5
525
  8
DETAIL
  6
CONTINUOUS
 62
     5
 39
50.0
 10
-28.329836
 20
-21.69243599999999
 30
0.0
 40
2.5048169999999992
  0
CIRCLE
  5
526
  8
DETAIL
  6
CONTINUOUS
 62
     5
 39
50.0
 10
-39.60151299999999
 20
-41.214787999999999
 30
0.0
 40
2.5048169999999992
  0
CIRCLE
  5
527
  8
DETAIL
  6
CONTINUOUS
 62
     5
 39
50.0
 10
-43.358738000000002
 20
-34.707464999999999
 30
0.0
 40
2.5048169999999992
  0
CIRCLE
  5
528
  8
DETAIL
  6
CONTINUOUS
 62
     5
 39
50.0
 10
-39.60151299999999
 20
-28.199760000000001
 30
0.0
 40
2.5048169999999992
  0
CIRCLE
  5
529
  8
DETAIL
  6
CONTINUOUS
 62
     5
 39
50.0
 10
-47.115963000000001
 20
-28.199760000000001
 30
0.0
 40
2.5048169999999992
  0
CIRCLE
  5
52A
  8
DETAIL
  6
CONTINUOUS
 62
     5
 39
50.0
 10
-43.358738000000002
 20
-21.69243599999999
 30
0.0
 40
2.5048169999999992
  0
CIRCLE
  5
52B
  8
DETAIL
  6
CONTINUOUS
 62
     5
 39
50.0
 10
-50.873189000000004
 20
-21.69243599999999
 30
0.0
 40
2.5048169999999992
  0
CIRCLE
  5
52C
  8
DETAIL
  6
CONTINUOUS
 62
     5
 39
50.0
 10
-35.844287000000001
 20
-47.722493999999983
 30
0.0
 40
2.5048169999999992
  0
CIRCLE
  5
52D
  8
DETAIL
  6
CONTINUOUS
 62
     5
 39
50.0
 10
-35.844287000000001
 20
-34.707464999999999
 30
0.0
 40
2.5048169999999992
  0
CIRCLE
  5
52E
  8
DETAIL
  6
CONTINUOUS
 62
     5
 39
50.0
 10
-35.844287000000001
 20
-21.69243599999999
 30
0.0
 40
2.5048169999999992
  0
CIRCLE
  5
52F
  8
DETAIL
  6
CONTINUOUS
 62
     5
 39
50.0
 10
-24.572610999999998
 20
10.845326999999999
 30
0.0
 40
2.5048169999999992
  0
CIRCLE
  5
530
  8
DETAIL
  6
CONTINUOUS
 62
     5
 39
50.0
 10
-32.087062000000003
 20
10.845326999999999
 30
0.0
 40
2.5048169999999992
  0
CIRCLE
  5
531
  8
DETAIL
  6
CONTINUOUS
 62
     5
 39
50.0
 10
-28.329836
 20
17.352651000000002
 30
0.0
 40
2.5048169999999992
  0
CIRCLE
  5
532
  8
DETAIL
  6
CONTINUOUS
 62
     5
 39
50.0
 10
-24.572610999999998
 20
23.860355999999999
 30
0.0
 40
2.5048169999999992
  0
CIRCLE
  5
533
  8
DETAIL
  6
CONTINUOUS
 62
     5
 39
50.0
 10
-39.60151299999999
 20
10.845326999999999
 30
0.0
 40
2.5048169999999992
  0
CIRCLE
  5
534
  8
DETAIL
  6
CONTINUOUS
 62
     5
 39
50.0
 10
-47.115963000000001
 20
10.845326999999999
 30
0.0
 40
2.5048169999999992
  0
CIRCLE
  5
535
  8
DETAIL
  6
CONTINUOUS
 62
     5
 39
50.0
 10
-35.844287000000001
 20
17.352651000000002
 30
0.0
 40
2.5048169999999992
  0
CIRCLE
  5
536
  8
DETAIL
  6
CONTINUOUS
 62
     5
 39
50.0
 10
-28.329836
 20
-8.6774070000000005
 30
0.0
 40
2.5048169999999992
  0
CIRCLE
  5
537
  8
DETAIL
  6
CONTINUOUS
 62
     5
 39
50.0
 10
-24.572610999999998
 20
-2.169702
 30
0.0
 40
2.5048169999999992
  0
CIRCLE
  5
538
  8
DETAIL
  6
CONTINUOUS
 62
     5
 39
50.0
 10
-32.087062000000003
 20
-2.169702
 30
0.0
 40
2.5048169999999992
  0
CIRCLE
  5
539
  8
DETAIL
  6
CONTINUOUS
 62
     5
 39
50.0
 10
-28.329836
 20
4.3376219999999979
 30
0.0
 40
2.5048169999999992
  0
CIRCLE
  5
53A
  8
DETAIL
  6
CONTINUOUS
 62
     5
 39
50.0
 10
-43.358738000000002
 20
-8.6774070000000005
 30
0.0
 40
2.5048169999999992
  0
CIRCLE
  5
53B
  8
DETAIL
  6
CONTINUOUS
 62
     5
 39
50.0
 10
-39.60151299999999
 20
-2.169702
 30
0.0
 40
2.5048169999999992
  0
CIRCLE
  5
53C
  8
DETAIL
  6
CONTINUOUS
 62
     5
 39
50.0
 10
-50.873189000000004
 20
-8.6774070000000005
 30
0.0
 40
2.5048169999999992
  0
CIRCLE
  5
53D
  8
DETAIL
  6
CONTINUOUS
 62
     5
 39
50.0
 10
-47.115963000000001
 20
-2.169702
 30
0.0
 40
2.5048169999999992
  0
CIRCLE
  5
53E
  8
DETAIL
  6
CONTINUOUS
 62
     5
 39
50.0
 10
-58.387640000000012
 20
-8.6774070000000005
 30
0.0
 40
2.5048169999999992
  0
CIRCLE
  5
53F
  8
DETAIL
  6
CONTINUOUS
 62
     5
 39
50.0
 10
-54.630414000000002
 20
-2.169702
 30
0.0
 40
2.5048169999999992
  0
CIRCLE
  5
540
  8
DETAIL
  6
CONTINUOUS
 62
     5
 39
50.0
 10
-43.358738000000002
 20
4.3376219999999979
 30
0.0
 40
2.5048169999999992
  0
CIRCLE
  5
541
  8
DETAIL
  6
CONTINUOUS
 62
     5
 39
50.0
 10
-50.873189000000004
 20
4.3376219999999979
 30
0.0
 40
2.5048169999999992
  0
CIRCLE
  5
542
  8
DETAIL
  6
CONTINUOUS
 62
     5
 39
50.0
 10
-35.844287000000001
 20
-8.6774070000000005
 30
0.0
 40
2.5048169999999992
  0
CIRCLE
  5
543
  8
DETAIL
  6
CONTINUOUS
 62
     5
 39
50.0
 10
-35.844287000000001
 20
4.3376219999999979
 30
0.0
 40
2.5048169999999992
  0
CIRCLE
  5
544
  8
DETAIL
  6
CONTINUOUS
 62
     5
 39
50.0
 10
50.57189799999999
 20
-15.184730999999999
 30
0.0
 40
2.5048169999999992
  0
CIRCLE
  5
545
  8
DETAIL
  6
CONTINUOUS
 62
     5
 39
50.0
 10
43.057446999999989
 20
-15.184730999999999
 30
0.0
 40
2.5048169999999992
  0
CIRCLE
  5
546
  8
DETAIL
  6
CONTINUOUS
 62
     5
 39
50.0
 10
35.542996000000002
 20
-15.184730999999999
 30
0.0
 40
2.5048169999999992
  0
CIRCLE
  5
547
  8
DETAIL
  6
CONTINUOUS
 62
     5
 39
50.0
 10
28.028545000000001
 20
-15.184730999999999
 30
0.0
 40
2.5048169999999992
  0
CIRCLE
  5
548
  8
DETAIL
  6
CONTINUOUS
 62
     5
 39
50.0
 10
12.999644
 20
-15.184730999999999
 30
0.0
 40
2.5048169999999992
  0
CIRCLE
  5
549
  8
DETAIL
  6
CONTINUOUS
 62
     5
 39
50.0
 10
5.4851929999999971
 20
-15.184730999999999
 30
0.0
 40
2.5048169999999992
  0
CIRCLE
  5
54A
  8
DETAIL
  6
CONTINUOUS
 62
     5
 39
50.0
 10
-2.029258
 20
-15.184730999999999
 30
0.0
 40
2.5048169999999992
  0
CIRCLE
  5
54B
  8
DETAIL
  6
CONTINUOUS
 62
     5
 39
50.0
 10
-9.5437089999999998
 20
-15.184730999999999
 30
0.0
 40
2.5048169999999992
  0
CIRCLE
  5
54C
  8
DETAIL
  6
CONTINUOUS
 62
     5
 39
50.0
 10
-17.058160000000001
 20
-15.184730999999999
 30
0.0
 40
2.5048169999999992
  0
CIRCLE
  5
54D
  8
DETAIL
  6
CONTINUOUS
 62
     5
 39
50.0
 10
20.514094
 20
-15.184730999999999
 30
0.0
 40
2.5048169999999992
  0
CIRCLE
  5
54E
  8
DETAIL
  6
CONTINUOUS
 62
     5
 39
50.0
 10
39.300221999999991
 20
-21.69243599999999
 30
0.0
 40
2.5048169999999992
  0
CIRCLE
  5
54F
  8
DETAIL
  6
CONTINUOUS
 62
     5
 39
50.0
 10
35.542996000000002
 20
-28.199760000000001
 30
0.0
 40
2.5048169999999992
  0
CIRCLE
  5
550
  8
DETAIL
  6
CONTINUOUS
 62
     5
 39
50.0
 10
39.300221999999991
 20
-34.707464999999999
 30
0.0
 40
2.5048169999999992
  0
CIRCLE
  5
551
  8
DETAIL
  6
CONTINUOUS
 62
     5
 39
50.0
 10
35.542996000000002
 20
-41.214787999999999
 30
0.0
 40
2.5048169999999992
  0
CIRCLE
  5
552
  8
DETAIL
  6
CONTINUOUS
 62
     5
 39
50.0
 10
31.785771
 20
-21.69243599999999
 30
0.0
 40
2.5048169999999992
  0
CIRCLE
  5
553
  8
DETAIL
  6
CONTINUOUS
 62
     5
 39
50.0
 10
28.028545000000001
 20
-28.199760000000001
 30
0.0
 40
2.5048169999999992
  0
CIRCLE
  5
554
  8
DETAIL
  6
CONTINUOUS
 62
     5
 39
50.0
 10
31.785771
 20
-34.707464999999999
 30
0.0
 40
2.5048169999999992
  0
CIRCLE
  5
555
  8
DETAIL
  6
CONTINUOUS
 62
     5
 39
50.0
 10
28.028545000000001
 20
-41.214787999999999
 30
0.0
 40
2.5048169999999992
  0
CIRCLE
  5
556
  8
DETAIL
  6
CONTINUOUS
 62
     5
 39
50.0
 10
31.785771
 20
-47.722493999999983
 30
0.0
 40
2.5048169999999992
  0
CIRCLE
  5
557
  8
DETAIL
  6
CONTINUOUS
 62
     5
 39
50.0
 10
16.756868999999991
 20
-21.69243599999999
 30
0.0
 40
2.5048169999999992
  0
CIRCLE
  5
558
  8
DETAIL
  6
CONTINUOUS
 62
     5
 39
50.0
 10
9.2424179999999971
 20
-21.69243599999999
 30
0.0
 40
2.5048169999999992
  0
CIRCLE
  5
559
  8
DETAIL
  6
CONTINUOUS
 62
     5
 39
50.0
 10
-9.5437089999999998
 20
-54.229817000000011
 30
0.0
 40
2.5048169999999992
  0
CIRCLE
  5
55A
  8
DETAIL
  6
CONTINUOUS
 62
     5
 39
50.0
 10
1.7279669999999969
 20
-21.69243599999999
 30
0.0
 40
2.5048169999999992
  0
CIRCLE
  5
55B
  8
DETAIL
  6
CONTINUOUS
 62
     5
 39
50.0
 10
-17.058160000000001
 20
-54.229817000000011
 30
0.0
 40
2.5048169999999992
  0
CIRCLE
  5
55C
  8
DETAIL
  6
CONTINUOUS
 62
     5
 39
50.0
 10
-5.7864839999999971
 20
-47.722493999999983
 30
0.0
 40
2.5048169999999992
  0
CIRCLE
  5
55D
  8
DETAIL
  6
CONTINUOUS
 62
     5
 39
50.0
 10
-13.300935000000001
 20
-47.722493999999983
 30
0.0
 40
2.5048169999999992
  0
CIRCLE
  5
55E
  8
DETAIL
  6
CONTINUOUS
 62
     5
 39
50.0
 10
12.999644
 20
-28.199760000000001
 30
0.0
 40
2.5048169999999992
  0
CIRCLE
  5
55F
  8
DETAIL
  6
CONTINUOUS
 62
     5
 39
50.0
 10
-9.5437089999999998
 20
-41.214787999999999
 30
0.0
 40
2.5048169999999992
  0
CIRCLE
  5
560
  8
DETAIL
  6
CONTINUOUS
 62
     5
 39
50.0
 10
16.756868999999991
 20
-34.707464999999999
 30
0.0
 40
2.5048169999999992
  0
CIRCLE
  5
561
  8
DETAIL
  6
CONTINUOUS
 62
     5
 39
50.0
 10
5.4851929999999971
 20
-28.199760000000001
 30
0.0
 40
2.5048169999999992
  0
CIRCLE
  5
562
  8
DETAIL
  6
CONTINUOUS
 62
     5
 39
50.0
 10
-17.058160000000001
 20
-41.214787999999999
 30
0.0
 40
2.5048169999999992
  0
CIRCLE
  5
563
  8
DETAIL
  6
CONTINUOUS
 62
     5
 39
50.0
 10
9.2424179999999971
 20
-34.707464999999999
 30
0.0
 40
2.5048169999999992
  0
CIRCLE
  5
564
  8
DETAIL
  6
CONTINUOUS
 62
     5
 39
50.0
 10
-2.029258
 20
-28.199760000000001
 30
0.0
 40
2.5048169999999992
  0
CIRCLE
  5
565
  8
DETAIL
  6
CONTINUOUS
 62
     5
 39
50.0
 10
1.7279669999999969
 20
-34.707464999999999
 30
0.0
 40
2.5048169999999992
  0
CIRCLE
  5
566
  8
DETAIL
  6
CONTINUOUS
 62
     5
 39
50.0
 10
-5.7864839999999971
 20
-34.707464999999999
 30
0.0
 40
2.5048169999999992
  0
CIRCLE
  5
567
  8
DETAIL
  6
CONTINUOUS
 62
     5
 39
50.0
 10
12.999644
 20
-41.214787999999999
 30
0.0
 40
2.5048169999999992
  0
CIRCLE
  5
568
  8
DETAIL
  6
CONTINUOUS
 62
     5
 39
50.0
 10
-13.300935000000001
 20
-34.707464999999999
 30
0.0
 40
2.5048169999999992
  0
CIRCLE
  5
569
  8
DETAIL
  6
CONTINUOUS
 62
     5
 39
50.0
 10
16.756868999999991
 20
-47.722493999999983
 30
0.0
 40
2.5048169999999992
  0
CIRCLE
  5
56A
  8
DETAIL
  6
CONTINUOUS
 62
     5
 39
50.0
 10
-9.5437089999999998
 20
-28.199760000000001
 30
0.0
 40
2.5048169999999992
  0
CIRCLE
  5
56B
  8
DETAIL
  6
CONTINUOUS
 62
     5
 39
50.0
 10
5.4851929999999971
 20
-41.214787999999999
 30
0.0
 40
2.5048169999999992
  0
CIRCLE
  5
56C
  8
DETAIL
  6
CONTINUOUS
 62
     5
 39
50.0
 10
9.2424179999999971
 20
-47.722493999999983
 30
0.0
 40
2.5048169999999992
  0
CIRCLE
  5
56D
  8
DETAIL
  6
CONTINUOUS
 62
     5
 39
50.0
 10
-17.058160000000001
 20
-28.199760000000001
 30
0.0
 40
2.5048169999999992
  0
CIRCLE
  5
56E
  8
DETAIL
  6
CONTINUOUS
 62
     5
 39
50.0
 10
-2.029258
 20
-41.214787999999999
 30
0.0
 40
2.5048169999999992
  0
CIRCLE
  5
56F
  8
DETAIL
  6
CONTINUOUS
 62
     5
 39
50.0
 10
1.7279669999999969
 20
-47.722493999999983
 30
0.0
 40
2.5048169999999992
  0
CIRCLE
  5
570
  8
DETAIL
  6
CONTINUOUS
 62
     5
 39
50.0
 10
12.999644
 20
-54.229817000000011
 30
0.0
 40
2.5048169999999992
  0
CIRCLE
  5
571
  8
DETAIL
  6
CONTINUOUS
 62
     5
 39
50.0
 10
5.4851929999999971
 20
-54.229817000000011
 30
0.0
 40
2.5048169999999992
  0
CIRCLE
  5
572
  8
DETAIL
  6
CONTINUOUS
 62
     5
 39
50.0
 10
-2.029258
 20
-54.229817000000011
 30
0.0
 40
2.5048169999999992
  0
CIRCLE
  5
573
  8
DETAIL
  6
CONTINUOUS
 62
     5
 39
50.0
 10
-5.7864839999999971
 20
-21.69243599999999
 30
0.0
 40
2.5048169999999992
  0
CIRCLE
  5
574
  8
DETAIL
  6
CONTINUOUS
 62
     5
 39
50.0
 10
-13.300935000000001
 20
-21.69243599999999
 30
0.0
 40
2.5048169999999992
  0
CIRCLE
  5
575
  8
DETAIL
  6
CONTINUOUS
 62
     5
 39
50.0
 10
24.271319999999999
 20
-21.69243599999999
 30
0.0
 40
2.5048169999999992
  0
CIRCLE
  5
576
  8
DETAIL
  6
CONTINUOUS
 62
     5
 39
50.0
 10
20.514094
 20
-28.199760000000001
 30
0.0
 40
2.5048169999999992
  0
CIRCLE
  5
577
  8
DETAIL
  6
CONTINUOUS
 62
     5
 39
50.0
 10
24.271319999999999
 20
-34.707464999999999
 30
0.0
 40
2.5048169999999992
  0
CIRCLE
  5
578
  8
DETAIL
  6
CONTINUOUS
 62
     5
 39
50.0
 10
20.514094
 20
-41.214787999999999
 30
0.0
 40
2.5048169999999992
  0
CIRCLE
  5
579
  8
DETAIL
  6
CONTINUOUS
 62
     5
 39
50.0
 10
24.271319999999999
 20
-47.722493999999983
 30
0.0
 40
2.5048169999999992
  0
CIRCLE
  5
57A
  8
DETAIL
  6
CONTINUOUS
 62
     5
 39
50.0
 10
20.514094
 20
-54.229817000000011
 30
0.0
 40
2.5048169999999992
  0
CIRCLE
  5
57B
  8
DETAIL
  6
CONTINUOUS
 62
     5
 39
50.0
 10
54.329122999999989
 20
-21.69243599999999
 30
0.0
 40
2.5048169999999992
  0
CIRCLE
  5
57C
  8
DETAIL
  6
CONTINUOUS
 62
     5
 39
50.0
 10
46.814671999999987
 20
-21.69243599999999
 30
0.0
 40
2.5048169999999992
  0
CIRCLE
  5
57D
  8
DETAIL
  6
CONTINUOUS
 62
     5
 39
50.0
 10
50.57189799999999
 20
-28.199760000000001
 30
0.0
 40
2.5048169999999992
  0
CIRCLE
  5
57E
  8
DETAIL
  6
CONTINUOUS
 62
     5
 39
50.0
 10
43.057446999999989
 20
-28.199760000000001
 30
0.0
 40
2.5048169999999992
  0
CIRCLE
  5
57F
  8
DETAIL
  6
CONTINUOUS
 62
     5
 39
50.0
 10
46.814671999999987
 20
-34.707464999999999
 30
0.0
 40
2.5048169999999992
  0
CIRCLE
  5
580
  8
DETAIL
  6
CONTINUOUS
 62
     5
 39
50.0
 10
43.057446999999989
 20
-41.214787999999999
 30
0.0
 40
2.5048169999999992
  0
CIRCLE
  5
581
  8
DETAIL
  6
CONTINUOUS
 62
     5
 39
50.0
 10
39.300221999999991
 20
17.352651000000002
 30
0.0
 40
2.5048169999999992
  0
CIRCLE
  5
582
  8
DETAIL
  6
CONTINUOUS
 62
     5
 39
50.0
 10
35.542996000000002
 20
10.845326999999999
 30
0.0
 40
2.5048169999999992
  0
CIRCLE
  5
583
  8
DETAIL
  6
CONTINUOUS
 62
     5
 39
50.0
 10
39.300221999999991
 20
4.3376219999999979
 30
0.0
 40
2.5048169999999992
  0
CIRCLE
  5
584
  8
DETAIL
  6
CONTINUOUS
 62
     5
 39
50.0
 10
35.542996000000002
 20
-2.169702
 30
0.0
 40
2.5048169999999992
  0
CIRCLE
  5
585
  8
DETAIL
  6
CONTINUOUS
 62
     5
 39
50.0
 10
39.300221999999991
 20
-8.6774070000000005
 30
0.0
 40
2.5048169999999992
  0
CIRCLE
  5
586
  8
DETAIL
  6
CONTINUOUS
 62
     5
 39
50.0
 10
28.028545000000001
 20
23.860355999999999
 30
0.0
 40
2.5048169999999992
  0
CIRCLE
  5
587
  8
DETAIL
  6
CONTINUOUS
 62
     5
 39
50.0
 10
31.785771
 20
17.352651000000002
 30
0.0
 40
2.5048169999999992
  0
CIRCLE
  5
588
  8
DETAIL
  6
CONTINUOUS
 62
     5
 39
50.0
 10
28.028545000000001
 20
10.845326999999999
 30
0.0
 40
2.5048169999999992
  0
CIRCLE
  5
589
  8
DETAIL
  6
CONTINUOUS
 62
     5
 39
50.0
 10
12.999644
 20
23.860355999999999
 30
0.0
 40
2.5048169999999992
  0
CIRCLE
  5
58A
  8
DETAIL
  6
CONTINUOUS
 62
     5
 39
50.0
 10
16.756868999999991
 20
17.352651000000002
 30
0.0
 40
2.5048169999999992
  0
CIRCLE
  5
58B
  8
DETAIL
  6
CONTINUOUS
 62
     5
 39
50.0
 10
5.4851929999999971
 20
23.860355999999999
 30
0.0
 40
2.5048169999999992
  0
CIRCLE
  5
58C
  8
DETAIL
  6
CONTINUOUS
 62
     5
 39
50.0
 10
9.2424179999999971
 20
17.352651000000002
 30
0.0
 40
2.5048169999999992
  0
CIRCLE
  5
58D
  8
DETAIL
  6
CONTINUOUS
 62
     5
 39
50.0
 10
-2.029258
 20
23.860355999999999
 30
0.0
 40
2.5048169999999992
  0
CIRCLE
  5
58E
  8
DETAIL
  6
CONTINUOUS
 62
     5
 39
50.0
 10
1.7279669999999969
 20
17.352651000000002
 30
0.0
 40
2.5048169999999992
  0
CIRCLE
  5
58F
  8
DETAIL
  6
CONTINUOUS
 62
     5
 39
50.0
 10
12.999644
 20
10.845326999999999
 30
0.0
 40
2.5048169999999992
  0
CIRCLE
  5
590
  8
DETAIL
  6
CONTINUOUS
 62
     5
 39
50.0
 10
5.4851929999999971
 20
10.845326999999999
 30
0.0
 40
2.5048169999999992
  0
CIRCLE
  5
591
  8
DETAIL
  6
CONTINUOUS
 62
     5
 39
50.0
 10
-2.029258
 20
10.845326999999999
 30
0.0
 40
2.5048169999999992
  0
CIRCLE
  5
592
  8
DETAIL
  6
CONTINUOUS
 62
     5
 39
50.0
 10
-9.5437089999999998
 20
10.845326999999999
 30
0.0
 40
2.5048169999999992
  0
CIRCLE
  5
593
  8
DETAIL
  6
CONTINUOUS
 62
     5
 39
50.0
 10
-17.058160000000001
 20
10.845326999999999
 30
0.0
 40
2.5048169999999992
  0
CIRCLE
  5
594
  8
DETAIL
  6
CONTINUOUS
 62
     5
 39
50.0
 10
-5.7864839999999971
 20
17.352651000000002
 30
0.0
 40
2.5048169999999992
  0
CIRCLE
  5
595
  8
DETAIL
  6
CONTINUOUS
 62
     5
 39
50.0
 10
-13.300935000000001
 20
17.352651000000002
 30
0.0
 40
2.5048169999999992
  0
CIRCLE
  5
596
  8
DETAIL
  6
CONTINUOUS
 62
     5
 39
50.0
 10
-9.5437089999999998
 20
23.860355999999999
 30
0.0
 40
2.5048169999999992
  0
CIRCLE
  5
597
  8
DETAIL
  6
CONTINUOUS
 62
     5
 39
50.0
 10
-17.058160000000001
 20
23.860355999999999
 30
0.0
 40
2.5048169999999992
  0
CIRCLE
  5
598
  8
DETAIL
  6
CONTINUOUS
 62
     5
 39
50.0
 10
20.514094
 20
23.860355999999999
 30
0.0
 40
2.5048169999999992
  0
CIRCLE
  5
599
  8
DETAIL
  6
CONTINUOUS
 62
     5
 39
50.0
 10
24.271319999999999
 20
17.352651000000002
 30
0.0
 40
2.5048169999999992
  0
CIRCLE
  5
59A
  8
DETAIL
  6
CONTINUOUS
 62
     5
 39
50.0
 10
20.514094
 20
10.845326999999999
 30
0.0
 40
2.5048169999999992
  0
CIRCLE
  5
59B
  8
DETAIL
  6
CONTINUOUS
 62
     5
 39
50.0
 10
31.785771
 20
4.3376219999999979
 30
0.0
 40
2.5048169999999992
  0
CIRCLE
  5
59C
  8
DETAIL
  6
CONTINUOUS
 62
     5
 39
50.0
 10
28.028545000000001
 20
-2.169702
 30
0.0
 40
2.5048169999999992
  0
CIRCLE
  5
59D
  8
DETAIL
  6
CONTINUOUS
 62
     5
 39
50.0
 10
31.785771
 20
-8.6774070000000005
 30
0.0
 40
2.5048169999999992
  0
CIRCLE
  5
59E
  8
DETAIL
  6
CONTINUOUS
 62
     5
 39
50.0
 10
16.756868999999991
 20
4.3376219999999979
 30
0.0
 40
2.5048169999999992
  0
CIRCLE
  5
59F
  8
DETAIL
  6
CONTINUOUS
 62
     5
 39
50.0
 10
9.2424179999999971
 20
4.3376219999999979
 30
0.0
 40
2.5048169999999992
  0
CIRCLE
  5
5A0
  8
DETAIL
  6
CONTINUOUS
 62
     5
 39
50.0
 10
1.7279669999999969
 20
4.3376219999999979
 30
0.0
 40
2.5048169999999992
  0
CIRCLE
  5
5A1
  8
DETAIL
  6
CONTINUOUS
 62
     5
 39
50.0
 10
12.999644
 20
-2.169702
 30
0.0
 40
2.5048169999999992
  0
CIRCLE
  5
5A2
  8
DETAIL
  6
CONTINUOUS
 62
     5
 39
50.0
 10
16.756868999999991
 20
-8.6774070000000005
 30
0.0
 40
2.5048169999999992
  0
CIRCLE
  5
5A3
  8
DETAIL
  6
CONTINUOUS
 62
     5
 39
50.0
 10
5.4851929999999971
 20
-2.169702
 30
0.0
 40
2.5048169999999992
  0
CIRCLE
  5
5A4
  8
DETAIL
  6
CONTINUOUS
 62
     5
 39
50.0
 10
9.2424179999999971
 20
-8.6774070000000005
 30
0.0
 40
2.5048169999999992
  0
CIRCLE
  5
5A5
  8
DETAIL
  6
CONTINUOUS
 62
     5
 39
50.0
 10
-2.029258
 20
-2.169702
 30
0.0
 40
2.5048169999999992
  0
CIRCLE
  5
5A6
  8
DETAIL
  6
CONTINUOUS
 62
     5
 39
50.0
 10
1.7279669999999969
 20
-8.6774070000000005
 30
0.0
 40
2.5048169999999992
  0
CIRCLE
  5
5A7
  8
DETAIL
  6
CONTINUOUS
 62
     5
 39
50.0
 10
-5.7864839999999971
 20
-8.6774070000000005
 30
0.0
 40
2.5048169999999992
  0
CIRCLE
  5
5A8
  8
DETAIL
  6
CONTINUOUS
 62
     5
 39
50.0
 10
-13.300935000000001
 20
-8.6774070000000005
 30
0.0
 40
2.5048169999999992
  0
CIRCLE
  5
5A9
  8
DETAIL
  6
CONTINUOUS
 62
     5
 39
50.0
 10
-9.5437089999999998
 20
-2.169702
 30
0.0
 40
2.5048169999999992
  0
CIRCLE
  5
5AA
  8
DETAIL
  6
CONTINUOUS
 62
     5
 39
50.0
 10
-17.058160000000001
 20
-2.169702
 30
0.0
 40
2.5048169999999992
  0
CIRCLE
  5
5AB
  8
DETAIL
  6
CONTINUOUS
 62
     5
 39
50.0
 10
-5.7864839999999971
 20
4.3376219999999979
 30
0.0
 40
2.5048169999999992
  0
CIRCLE
  5
5AC
  8
DETAIL
  6
CONTINUOUS
 62
     5
 39
50.0
 10
-13.300935000000001
 20
4.3376219999999979
 30
0.0
 40
2.5048169999999992
  0
CIRCLE
  5
5AD
  8
DETAIL
  6
CONTINUOUS
 62
     5
 39
50.0
 10
24.271319999999999
 20
4.3376219999999979
 30
0.0
 40
2.5048169999999992
  0
CIRCLE
  5
5AE
  8
DETAIL
  6
CONTINUOUS
 62
     5
 39
50.0
 10
20.514094
 20
-2.169702
 30
0.0
 40
2.5048169999999992
  0
CIRCLE
  5
5AF
  8
DETAIL
  6
CONTINUOUS
 62
     5
 39
50.0
 10
24.271319999999999
 20
-8.6774070000000005
 30
0.0
 40
2.5048169999999992
  0
CIRCLE
  5
5B0
  8
DETAIL
  6
CONTINUOUS
 62
     5
 39
50.0
 10
54.329122999999989
 20
4.3376219999999979
 30
0.0
 40
2.5048169999999992
  0
CIRCLE
  5
5B1
  8
DETAIL
  6
CONTINUOUS
 62
     5
 39
50.0
 10
46.814671999999987
 20
4.3376219999999979
 30
0.0
 40
2.5048169999999992
  0
CIRCLE
  5
5B2
  8
DETAIL
  6
CONTINUOUS
 62
     5
 39
50.0
 10
58.086348999999998
 20
-2.169702
 30
0.0
 40
2.5048169999999992
  0
CIRCLE
  5
5B3
  8
DETAIL
  6
CONTINUOUS
 62
     5
 39
50.0
 10
50.57189799999999
 20
-2.169702
 30
0.0
 40
2.5048169999999992
  0
CIRCLE
  5
5B4
  8
DETAIL
  6
CONTINUOUS
 62
     5
 39
50.0
 10
54.329122999999989
 20
-8.6774070000000005
 30
0.0
 40
2.5048169999999992
  0
CIRCLE
  5
5B5
  8
DETAIL
  6
CONTINUOUS
 62
     5
 39
50.0
 10
43.057446999999989
 20
-2.169702
 30
0.0
 40
2.5048169999999992
  0
CIRCLE
  5
5B6
  8
DETAIL
  6
CONTINUOUS
 62
     5
 39
50.0
 10
46.814671999999987
 20
-8.6774070000000005
 30
0.0
 40
2.5048169999999992
  0
LINE
  5
5B7
  8
SIZE
  6
CONTINUOUS
 62
    30
 10
89.500000000000014
 20
20.0
 30
0.0
 11
89.500000000000014
 21
187.73995600000001
 31
0.0
  0
LINE
  5
5B8
  8
SIZE
  6
CONTINUOUS
 62
    30
 10
-89.500000000000014
 20
20.0
 30
0.0
 11
-89.500000000000014
 21
187.73995600000001
 31
0.0
  0
LINE
  5
5B9
  8
SIZE
  6
CONTINUOUS
 62
    30
 10
77.5
 20
167.73995600000001
 30
0.0
 11
-77.5
 21
167.73995600000001
 31
0.0
  0
LINE
  5
5BA
  8
SIZE
  6
CONTINUOUS
 62
    30
 10
-344.214629
 20
167.73995600000001
 30
0.0
 11
-89.500000000000014
 21
167.73995600000001
 31
0.0
  0
TEXT
  5
5BB
  8
SIZE
  6
CONTINUOUS
 62
    30
 10
-333.47748599999989
 20
192.73995599999969
 30
0.0
 40
64.0
  1
φ179
 41
0.9
 72
     1
 11
-225.9574859999999
 21
192.73995599999969
 31
0.0
  0
CIRCLE
  5
5BC
  8
SIZE
  6
CONTINUOUS
 62
    30
 10
89.500000000000014
 20
167.73995600000001
 30
0.0
 40
6.0
  0
LINE
  5
5BD
  8
SIZE
  6
CONTINUOUS
 62
    30
 10
89.500000000000014
 20
167.73995600000001
 30
0.0
 11
77.5
 21
167.73995600000001
 31
0.0
  0
CIRCLE
  5
5BE
  8
SIZE
  6
CONTINUOUS
 62
    30
 10
-89.500000000000014
 20
167.73995600000001
 30
0.0
 40
6.0
  0
LINE
  5
5BF
  8
SIZE
  6
CONTINUOUS
 62
    30
 10
-89.500000000000014
 20
167.73995600000001
 30
0.0
 11
-77.5
 21
167.73995600000001
 31
0.0
  0
POINT
  5
5C0
  8
DEFPOINTS
  6
CONTINUOUS
 62
    30
 10
89.500000000000014
 20
0.0
 30
0.0
  0
POINT
  5
5C1
  8
DEFPOINTS
  6
CONTINUOUS
 62
    30
 10
-89.500000000000014
 20
0.0
 30
0.0
  0
POINT
  5
5C2
  8
DEFPOINTS
  6
CONTINUOUS
 62
    30
 10
-89.500000000000014
 20
167.73995600000001
 30
0.0
  0
LINE
  5
5C3
  8
SIZE
  6
CONTINUOUS
 62
    30
 10
195.4092939999999
 20
0.0
 30
0.0
 11
285.27558799999991
 21
0.0
 31
0.0
  0
LINE
  5
5C4
  8
SIZE
  6
CONTINUOUS
 62
    30
 10
20.0
 20
110.0
 30
0.0
 11
285.27558799999991
 21
110.0
 31
0.0
  0
LINE
  5
5C5
  8
SIZE
  6
CONTINUOUS
 62
    30
 10
265.27558799999991
 20
12.0
 30
0.0
 11
265.27558799999991
 21
98.0
 31
0.0
  0
LINE
  5
5C6
  8
SIZE
  6
CONTINUOUS
 62
    30
 10
265.27558799999991
 20
314.41744299999999
 30
0.0
 11
265.27558799999991
 21
110.0
 31
0.0
  0
TEXT
  5
5C7
  8
SIZE
  6
CONTINUOUS
 62
    30
 10
240.27558799999991
 20
163.24601471428559
 30
0.0
 40
64.0
  1
110
 50
90.0
 41
0.9
 72
     1
 11
240.27558799999991
 21
226.33172899999991
 31
0.0
  0
CIRCLE
  5
5C8
  8
SIZE
  6
CONTINUOUS
 62
    30
 10
265.27558799999991
 20
0.0
 30
0.0
 40
6.0
  0
LINE
  5
5C9
  8
SIZE
  6
CONTINUOUS
 62
    30
 10
265.27558799999991
 20
0.0
 30
0.0
 11
265.27558799999991
 21
12.0
 31
0.0
  0
CIRCLE
  5
5CA
  8
SIZE
  6
CONTINUOUS
 62
    30
 10
265.27558799999991
 20
110.0
 30
0.0
 40
6.0
  0
LINE
  5
5CB
  8
SIZE
  6
CONTINUOUS
 62
    30
 10
265.27558799999991
 20
110.0
 30
0.0
 11
265.27558799999991
 21
98.0
 31
0.0
  0
POINT
  5
5CC
  8
DEFPOINTS
  6
CONTINUOUS
 62
    30
 10
175.4092939999999
 20
0.0
 30
0.0
  0
POINT
  5
5CD
  8
DEFPOINTS
  6
CONTINUOUS
 62
    30
 10
0.0
 20
110.0
 30
0.0
  0
POINT
  5
5CE
  8
DEFPOINTS
  6
CONTINUOUS
 62
    30
 10
265.27558799999991
 20
110.0
 30
0.0
  0
TEXT
  5
5D3
  8
SIZE
  6
CONTINUOUS
 62
    30
 10
243.44483099999999
 20
-286.48542228571409
 30
0.0
 40
64.0
  1
115
 50
90.0
 41
0.9
 72
     1
 11
243.44483099999999
 21
-223.39970799999989
 31
0.0
  0
POINT
  5
5D8
  8
DEFPOINTS
  6
CONTINUOUS
 62
    30
 10
175.4092939999999
 20
0.0
 30
0.0
  0
POINT
  5
5D9
  8
DEFPOINTS
  6
CONTINUOUS
 62
    30
 10
0.0
 20
-115.0
 30
0.0
  0
ARC
  5
5DB
  8
DETAIL
  6
CONTINUOUS
 62
     5
 39
71.599999999999994
 10
0.0
 20
0.0
 30
0.0
 40
110.0
 50
0.0
 51
180.0
  0
ARC
  5
5DC
  8
DETAIL
  6
CONTINUOUS
 62
     5
 39
71.599999999999994
 10
0.0
 20
0.0
 30
0.0
 40
110.0
 50
180.0
 51
0.0
  0
ARC
  5
5DD
  8
DETAIL
  6
CONTINUOUS
 62
     5
 39
71.599999999999994
 10
0.0
 20
0.113636
 30
0.0
 40
115.113636
 50
182.54606000000001
 51
357.45393999999987
  0
LINE
  5
5DE
  8
DETAIL
  6
CONTINUOUS
 62
     5
 39
71.599999999999994
 10
-110.0
 20
0.0
 30
0.0
 11
-115.0
 21
-5.0
 31
0.0
  0
LINE
  5
5DF
  8
DETAIL
  6
CONTINUOUS
 62
     5
 39
71.599999999999994
 10
110.0
 20
0.0
 30
0.0
 11
115.0
 21
-5.0
 31
0.0
  0
LINE
  5
5E0
  8
SIZE
  6
CONTINUOUS
 62
    30
 10
-115.0
 20
-25.0
 30
0.0
 11
-115.0
 21
-334.4656819999999
 31
0.0
  0
LINE
  5
5E1
  8
SIZE
  6
CONTINUOUS
 62
    30
 10
115.0
 20
-25.0
 30
0.0
 11
115.0
 21
-334.4656819999999
 31
0.0
  0
LINE
  5
5E2
  8
SIZE
  6
CONTINUOUS
 62
    30
 10
-103.0
 20
-314.46568199999967
 30
0.0
 11
103.0
 21
-314.46568199999967
 31
0.0
  0
CIRCLE
  5
5E3
  8
SIZE
  6
CONTINUOUS
 62
    30
 10
-115.0
 20
-314.46568199999967
 30
0.0
 40
6.0
  0
LINE
  5
5E4
  8
SIZE
  6
CONTINUOUS
 62
    30
 10
-115.0
 20
-314.46568199999967
 30
0.0
 11
-103.0
 21
-314.46568199999967
 31
0.0
  0
CIRCLE
  5
5E5
  8
SIZE
  6
CONTINUOUS
 62
    30
 10
115.0
 20
-314.46568199999967
 30
0.0
 40
6.0
  0
LINE
  5
5E6
  8
SIZE
  6
CONTINUOUS
 62
    30
 10
115.0
 20
-314.46568199999967
 30
0.0
 11
103.0
 21
-314.46568199999967
 31
0.0
  0
TEXT
  5
5E7
  8
SIZE
  6
CONTINUOUS
 62
    30
 10
-74.057142857142864
 20
-289.46568199999967
 30
0.0
 40
64.0
  1
230
 41
0.9
 72
     1
 11
0.0
 21
-289.46568199999967
 31
0.0
  0
POINT
  5
5E8
  8
DEFPOINTS
  6
CONTINUOUS
 62
    30
 10
-115.0
 20
-5.0
 30
0.0
  0
POINT
  5
5E9
  8
DEFPOINTS
  6
CONTINUOUS
 62
    30
 10
115.0
 20
-5.0
 30
0.0
  0
POINT
  5
5EA
  8
DEFPOINTS
  6
CONTINUOUS
 62
    30
 10
115.0
 20
-314.46568199999967
 30
0.0
  0
LINE
  5
5EB
  8
SIZE
  6
CONTINUOUS
 62
    30
 10
110.0
 20
20.0
 30
0.0
 11
110.0
 21
276.41939600000001
 31
0.0
  0
LINE
  5
5EC
  8
SIZE
  6
CONTINUOUS
 62
    30
 10
-110.0
 20
20.0
 30
0.0
 11
-110.0
 21
276.41939600000001
 31
0.0
  0
LINE
  5
5ED
  8
SIZE
  6
CONTINUOUS
 62
    30
 10
98.0
 20
256.41939600000001
 30
0.0
 11
-98.0
 21
256.41939600000001
 31
0.0
  0
CIRCLE
  5
5EE
  8
SIZE
  6
CONTINUOUS
 62
    30
 10
110.0
 20
256.41939600000001
 30
0.0
 40
6.0
  0
LINE
  5
5EF
  8
SIZE
  6
CONTINUOUS
 62
    30
 10
110.0
 20
256.41939600000001
 30
0.0
 11
98.0
 21
256.41939600000001
 31
0.0
  0
CIRCLE
  5
5F0
  8
SIZE
  6
CONTINUOUS
 62
    30
 10
-110.0
 20
256.41939600000001
 30
0.0
 40
6.0
  0
LINE
  5
5F1
  8
SIZE
  6
CONTINUOUS
 62
    30
 10
-110.0
 20
256.41939600000001
 30
0.0
 11
-98.0
 21
256.41939600000001
 31
0.0
  0
TEXT
  5
5F2
  8
SIZE
  6
CONTINUOUS
 62
    30
 10
-74.05714285714285
 20
281.41939600000001
 30
0.0
 40
64.0
  1
220
 41
0.9
 72
     1
 11
0.0
 21
281.41939600000001
 31
0.0
  0
POINT
  5
5F3
  8
DEFPOINTS
  6
CONTINUOUS
 62
    30
 10
110.0
 20
0.0
 30
0.0
  0
POINT
  5
5F4
  8
DEFPOINTS
  6
CONTINUOUS
 62
    30
 10
-110.0
 20
0.0
 30
0.0
  0
POINT
  5
5F5
  8
DEFPOINTS
  6
CONTINUOUS
 62
    30
 10
-110.0
 20
256.41939600000001
 30
0.0
  0
ARC
  5
5F6
  8
OUTLINE
  6
CONTINUOUS
 62
     3
 39
71.599999999999994
 10
0.0
 20
0.0
 30
0.0
 40
110.0
 50
0.0
 51
180.0
  0
ARC
  5
5F7
  8
OUTLINE
  6
CONTINUOUS
 62
     3
 39
71.599999999999994
 10
0.0
 20
0.0
 30
0.0
 40
110.0
 50
180.0
 51
0.0
  0
LINE
  5
5F8
  8
OUTLINE
  6
CONTINUOUS
 62
     3
 39
71.599999999999994
 10
110.0
 20
0.0
 30
0.0
 11
115.0
 21
-5.0
 31
0.0
  0
LINE
  5
5F9
  8
OUTLINE
  6
CONTINUOUS
 62
     3
 39
71.599999999999994
 10
-110.0
 20
0.0
 30
0.0
 11
-115.0
 21
-5.0
 31
0.0
  0
ARC
  5
5FA
  8
OUTLINE
  6
CONTINUOUS
 62
     3
 39
71.599999999999994
 10
0.0
 20
0.113636
 30
0.0
 40
115.113636
 50
182.54606000000001
 51
357.45393999999987
  0
CIRCLE
  5
5FB
  8
DETAIL
  6
CONTINUOUS
 62
     5
 39
50.0
 10
-77.173766999999984
 20
10.845326999999999
 30
0.0
 40
2.5048169999999992
  0
CIRCLE
  5
5FC
  8
DETAIL
  6
CONTINUOUS
 62
     5
 39
50.0
 10
-69.659316000000004
 20
10.845326999999999
 30
0.0
 40
2.5048169999999992
  0
CIRCLE
  5
5FD
  8
DETAIL
  6
CONTINUOUS
 62
     5
 39
50.0
 10
-62.144865000000003
 20
10.845326999999999
 30
0.0
 40
2.5048169999999992
  0
CIRCLE
  5
5FE
  8
DETAIL
  6
CONTINUOUS
 62
     5
 39
50.0
 10
-54.630414000000002
 20
10.845326999999999
 30
0.0
 40
2.5048169999999992
  0
CIRCLE
  5
5FF
  8
DETAIL
  6
CONTINUOUS
 62
     5
 39
50.0
 10
-58.387640000000012
 20
4.3376219999999979
 30
0.0
 40
2.5048169999999992
  0
CIRCLE
  5
600
  8
DETAIL
  6
CONTINUOUS
 62
     5
 39
50.0
 10
-65.902090999999999
 20
4.3376219999999979
 30
0.0
 40
2.5048169999999992
  0
CIRCLE
  5
601
  8
DETAIL
  6
CONTINUOUS
 62
     5
 39
50.0
 10
-73.416541000000024
 20
4.3376219999999979
 30
0.0
 40
2.5048169999999992
  0
CIRCLE
  5
602
  8
DETAIL
  6
CONTINUOUS
 62
     5
 39
50.0
 10
-80.930992000000003
 20
4.3376219999999979
 30
0.0
 40
2.5048169999999992
  0
CIRCLE
  5
603
  8
DETAIL
  6
CONTINUOUS
 62
     5
 39
50.0
 10
-84.688218000000006
 20
-15.184730999999999
 30
0.0
 40
2.5048169999999992
  0
CIRCLE
  5
604
  8
DETAIL
  6
CONTINUOUS
 62
     5
 39
50.0
 10
-77.173766999999984
 20
-15.184730999999999
 30
0.0
 40
2.5048169999999992
  0
CIRCLE
  5
605
  8
DETAIL
  6
CONTINUOUS
 62
     5
 39
50.0
 10
-69.659316000000004
 20
-15.184730999999999
 30
0.0
 40
2.5048169999999992
  0
CIRCLE
  5
606
  8
DETAIL
  6
CONTINUOUS
 62
     5
 39
50.0
 10
-65.902090999999999
 20
-8.6770250000000004
 30
0.0
 40
2.5048169999999992
  0
CIRCLE
  5
607
  8
DETAIL
  6
CONTINUOUS
 62
     5
 39
50.0
 10
-73.416541000000024
 20
-8.6770250000000004
 30
0.0
 40
2.5048169999999992
  0
CIRCLE
  5
608
  8
DETAIL
  6
CONTINUOUS
 62
     5
 39
50.0
 10
-80.930992000000003
 20
-8.6770250000000004
 30
0.0
 40
2.5048169999999992
  0
ARC
  5
609
  8
DETAIL
  6
CONTINUOUS
 62
     5
 39
50.0
 10
-88.445442999999983
 20
-8.6770250000000004
 30
0.0
 40
2.5048169999999992
 50
261.81743
 51
109.3888239999997
  0
CIRCLE
  5
60A
  8
DETAIL
  6
CONTINUOUS
 62
     5
 39
50.0
 10
-62.144865000000003
 20
-15.184730999999999
 30
0.0
 40
2.5048169999999992
  0
CIRCLE
  5
60B
  8
DETAIL
  6
CONTINUOUS
 62
     5
 39
50.0
 10
-84.688218000000006
 20
-2.169702
 30
0.0
 40
2.5048169999999992
  0
CIRCLE
  5
60C
  8
DETAIL
  6
CONTINUOUS
 62
     5
 39
50.0
 10
-77.173766999999984
 20
-2.169702
 30
0.0
 40
2.5048169999999992
  0
CIRCLE
  5
60D
  8
DETAIL
  6
CONTINUOUS
 62
     5
 39
50.0
 10
-69.659316000000004
 20
-2.169702
 30
0.0
 40
2.5048169999999992
  0
CIRCLE
  5
60E
  8
DETAIL
  6
CONTINUOUS
 62
     5
 39
50.0
 10
-62.144865000000003
 20
-2.169702
 30
0.0
 40
2.5048169999999992
  0
CIRCLE
  5
60F
  8
DETAIL
  6
CONTINUOUS
 62
     5
 39
50.0
 10
-62.144865000000003
 20
-28.199760000000001
 30
0.0
 40
2.5048169999999992
  0
CIRCLE
  5
610
  8
DETAIL
  6
CONTINUOUS
 62
     5
 39
50.0
 10
-69.659316000000004
 20
-28.199760000000001
 30
0.0
 40
2.5048169999999992
  0
CIRCLE
  5
611
  8
DETAIL
  6
CONTINUOUS
 62
     5
 39
50.0
 10
-77.173766999999984
 20
-28.199760000000001
 30
0.0
 40
2.5048169999999992
  0
ARC
  5
612
  8
DETAIL
  6
CONTINUOUS
 62
     5
 39
50.0
 10
-84.688218000000006
 20
-28.199760000000001
 30
0.0
 40
2.5048169999999992
 50
283.71487999999982
 51
113.11891
  0
ARC
  5
613
  8
DETAIL
  6
CONTINUOUS
 62
     5
 39
50.0
 10
-88.445442999999983
 20
-21.692053999999999
 30
0.0
 40
2.5048169999999992
 50
323.11448999999982
 51
64.446123999999998
  0
CIRCLE
  5
614
  8
DETAIL
  6
CONTINUOUS
 62
     5
 39
50.0
 10
-80.930992000000003
 20
-21.692053999999999
 30
0.0
 40
2.5048169999999992
  0
CIRCLE
  5
615
  8
DETAIL
  6
CONTINUOUS
 62
     5
 39
50.0
 10
-73.416541000000024
 20
-21.692053999999999
 30
0.0
 40
2.5048169999999992
  0
CIRCLE
  5
616
  8
DETAIL
  6
CONTINUOUS
 62
     5
 39
50.0
 10
-65.902090999999999
 20
-21.692053999999999
 30
0.0
 40
2.5048169999999992
  0
CIRCLE
  5
617
  8
DETAIL
  6
CONTINUOUS
 62
     5
 39
50.0
 10
-58.387640000000012
 20
-21.69243599999999
 30
0.0
 40
2.5048169999999992
  0
CIRCLE
  5
618
  8
DETAIL
  6
CONTINUOUS
 62
     5
 39
50.0
 10
-54.630414000000002
 20
-28.199760000000001
 30
0.0
 40
2.5048169999999992
  0
CIRCLE
  5
619
  8
DETAIL
  6
CONTINUOUS
 62
     5
 39
50.0
 10
-58.387640000000012
 20
-47.722493999999983
 30
0.0
 40
2.5048169999999992
  0
CIRCLE
  5
61A
  8
DETAIL
  6
CONTINUOUS
 62
     5
 39
50.0
 10
-62.144865000000003
 20
-41.215169999999993
 30
0.0
 40
2.5048169999999992
  0
CIRCLE
  5
61B
  8
DETAIL
  6
CONTINUOUS
 62
     5
 39
50.0
 10
-69.659316000000004
 20
-41.214787999999999
 30
0.0
 40
2.5048169999999992
  0
ARC
  5
61C
  8
DETAIL
  6
CONTINUOUS
 62
     5
 39
50.0
 10
-77.173766999999984
 20
-41.214787999999999
 30
0.0
 40
2.5048169999999992
 50
245.21479099999991
 51
170.9942609999998
  0
ARC
  5
61D
  8
DETAIL
  6
CONTINUOUS
 62
     5
 39
50.0
 10
-73.416541000000024
 20
-47.722493999999983
 30
0.0
 40
2.5048169999999992
 50
252.91990599999991
 51
173.12974
  0
CIRCLE
  5
61E
  8
DETAIL
  6
CONTINUOUS
 62
     5
 39
50.0
 10
-65.902090999999999
 20
-47.722493999999983
 30
0.0
 40
2.5048169999999992
  0
CIRCLE
  5
61F
  8
DETAIL
  6
CONTINUOUS
 62
     5
 39
50.0
 10
-65.902090999999999
 20
-34.707464999999999
 30
0.0
 40
2.5048169999999992
  0
CIRCLE
  5
620
  8
DETAIL
  6
CONTINUOUS
 62
     5
 39
50.0
 10
-73.416541000000024
 20
-34.707464999999999
 30
0.0
 40
2.5048169999999992
  0
ARC
  5
621
  8
DETAIL
  6
CONTINUOUS
 62
     5
 39
50.0
 10
-80.930992000000003
 20
-34.707464999999999
 30
0.0
 40
2.5048169999999992
 50
258.763375
 51
147.66102100000001
  0
CIRCLE
  5
622
  8
DETAIL
  6
CONTINUOUS
 62
     5
 39
50.0
 10
-54.630414000000002
 20
-41.215169999999993
 30
0.0
 40
2.5048169999999992
  0
CIRCLE
  5
623
  8
DETAIL
  6
CONTINUOUS
 62
     5
 39
50.0
 10
-50.873189000000004
 20
-47.722493999999983
 30
0.0
 40
2.5048169999999992
  0
CIRCLE
  5
624
  8
DETAIL
  6
CONTINUOUS
 62
     5
 39
50.0
 10
-58.387640000000012
 20
-34.707464999999999
 30
0.0
 40
2.5048169999999992
  0
CIRCLE
  5
625
  8
DETAIL
  6
CONTINUOUS
 62
     5
 39
50.0
 10
-50.873189000000004
 20
-34.707464999999999
 30
0.0
 40
2.5048169999999992
  0
CIRCLE
  5
626
  8
DETAIL
  6
CONTINUOUS
 62
     5
 39
50.0
 10
-47.115963000000001
 20
-41.214787999999999
 30
0.0
 40
2.5048169999999992
  0
CIRCLE
  5
627
  8
DETAIL
  6
CONTINUOUS
 62
     5
 39
50.0
 10
-43.358738000000002
 20
-47.722493999999983
 30
0.0
 40
2.5048169999999992
  0
CIRCLE
  5
628
  8
DETAIL
  6
CONTINUOUS
 62
     5
 39
50.0
 10
-54.630414000000002
 20
-54.229817000000011
 30
0.0
 40
2.5048169999999992
  0
CIRCLE
  5
629
  8
DETAIL
  6
CONTINUOUS
 62
     5
 39
50.0
 10
-62.144865000000003
 20
-54.229817000000011
 30
0.0
 40
2.5048169999999992
  0
ARC
  5
62A
  8
DETAIL
  6
CONTINUOUS
 62
     5
 39
50.0
 10
-69.659316000000004
 20
-54.229817000000011
 30
0.0
 40
2.5048169999999992
 50
279.45093500000002
 51
156.3506209999999
  0
CIRCLE
  5
62B
  8
DETAIL
  6
CONTINUOUS
 62
     5
 39
50.0
 10
-39.60151299999999
 20
-54.229817000000011
 30
0.0
 40
2.5048169999999992
  0
CIRCLE
  5
62C
  8
DETAIL
  6
CONTINUOUS
 62
     5
 39
50.0
 10
-47.115963000000001
 20
-54.229817000000011
 30
0.0
 40
2.5048169999999992
  0
CIRCLE
  5
62D
  8
DETAIL
  6
CONTINUOUS
 62
     5
 39
50.0
 10
-32.087062000000003
 20
-54.229817000000011
 30
0.0
 40
2.5048169999999992
  0
CIRCLE
  5
62E
  8
DETAIL
  6
CONTINUOUS
 62
     5
 39
50.0
 10
84.386927
 20
-8.6774070000000005
 30
0.0
 40
2.5048169999999992
  0
CIRCLE
  5
62F
  8
DETAIL
  6
CONTINUOUS
 62
     5
 39
50.0
 10
61.84357399999999
 20
-8.6774070000000005
 30
0.0
 40
2.5048169999999992
  0
CIRCLE
  5
630
  8
DETAIL
  6
CONTINUOUS
 62
     5
 39
50.0
 10
69.358024999999998
 20
-8.6774070000000005
 30
0.0
 40
2.5048169999999992
  0
CIRCLE
  5
631
  8
DETAIL
  6
CONTINUOUS
 62
     5
 39
50.0
 10
76.872476000000006
 20
-8.6774070000000005
 30
0.0
 40
2.5048169999999992
  0
CIRCLE
  5
632
  8
DETAIL
  6
CONTINUOUS
 62
     5
 39
50.0
 10
73.115250000000003
 20
-15.184730999999999
 30
0.0
 40
2.5048169999999992
  0
CIRCLE
  5
633
  8
DETAIL
  6
CONTINUOUS
 62
     5
 39
50.0
 10
65.600800000000007
 20
-15.184730999999999
 30
0.0
 40
2.5048169999999992
  0
CIRCLE
  5
634
  8
DETAIL
  6
CONTINUOUS
 62
     5
 39
50.0
 10
58.086348999999998
 20
-15.184730999999999
 30
0.0
 40
2.5048169999999992
  0
ARC
  5
635
  8
DETAIL
  6
CONTINUOUS
 62
     5
 39
50.0
 10
88.144152000000005
 20
-15.184730999999999
 30
0.0
 40
2.5048169999999992
 50
79.71295600000002
 51
260.73805800000002
  0
CIRCLE
  5
636
  8
DETAIL
  6
CONTINUOUS
 62
     5
 39
50.0
 10
80.629700999999983
 20
-15.184730999999999
 30
0.0
 40
2.5048169999999992
  0
ARC
  5
637
  8
DETAIL
  6
CONTINUOUS
 62
     5
 39
50.0
 10
84.386927
 20
-21.69243599999999
 30
0.0
 40
2.5048169999999992
 50
4.7644330000000004
 51
326.40301299999999
  0
CIRCLE
  5
638
  8
DETAIL
  6
CONTINUOUS
 62
     5
 39
50.0
 10
61.84357399999999
 20
-21.69243599999999
 30
0.0
 40
2.5048169999999992
  0
CIRCLE
  5
639
  8
DETAIL
  6
CONTINUOUS
 62
     5
 39
50.0
 10
69.358024999999998
 20
-21.69243599999999
 30
0.0
 40
2.5048169999999992
  0
CIRCLE
  5
63A
  8
DETAIL
  6
CONTINUOUS
 62
     5
 39
50.0
 10
76.872476000000006
 20
-21.69243599999999
 30
0.0
 40
2.5048169999999992
  0
CIRCLE
  5
63B
  8
DETAIL
  6
CONTINUOUS
 62
     5
 39
50.0
 10
73.115250000000003
 20
-41.214787999999999
 30
0.0
 40
2.5048169999999992
  0
CIRCLE
  5
63C
  8
DETAIL
  6
CONTINUOUS
 62
     5
 39
50.0
 10
65.600800000000007
 20
-41.214787999999999
 30
0.0
 40
2.5048169999999992
  0
CIRCLE
  5
63D
  8
DETAIL
  6
CONTINUOUS
 62
     5
 39
50.0
 10
58.086348999999998
 20
-41.214787999999999
 30
0.0
 40
2.5048169999999992
  0
ARC
  5
63E
  8
DETAIL
  6
CONTINUOUS
 62
     5
 39
50.0
 10
80.629700999999983
 20
-41.214787999999999
 30
0.0
 40
2.5048169999999992
 50
88.500686999999985
 51
217.35058599999999
  0
CIRCLE
  5
63F
  8
DETAIL
  6
CONTINUOUS
 62
     5
 39
50.0
 10
76.872476000000006
 20
-34.707082999999997
 30
0.0
 40
2.5048169999999992
  0
ARC
  5
640
  8
DETAIL
  6
CONTINUOUS
 62
     5
 39
50.0
 10
84.386927
 20
-34.707082999999997
 30
0.0
 40
2.5048169999999992
 50
112.384455
 51
202.902277
  0
CIRCLE
  5
641
  8
DETAIL
  6
CONTINUOUS
 62
     5
 39
50.0
 10
61.84357399999999
 20
-34.707082999999997
 30
0.0
 40
2.5048169999999992
  0
CIRCLE
  5
642
  8
DETAIL
  6
CONTINUOUS
 62
     5
 39
50.0
 10
69.358024999999998
 20
-34.707082999999997
 30
0.0
 40
2.5048169999999992
  0
CIRCLE
  5
643
  8
DETAIL
  6
CONTINUOUS
 62
     5
 39
50.0
 10
73.115250000000003
 20
-28.199760000000001
 30
0.0
 40
2.5048169999999992
  0
CIRCLE
  5
644
  8
DETAIL
  6
CONTINUOUS
 62
     5
 39
50.0
 10
65.600800000000007
 20
-28.199760000000001
 30
0.0
 40
2.5048169999999992
  0
CIRCLE
  5
645
  8
DETAIL
  6
CONTINUOUS
 62
     5
 39
50.0
 10
58.086348999999998
 20
-28.199760000000001
 30
0.0
 40
2.5048169999999992
  0
CIRCLE
  5
646
  8
DETAIL
  6
CONTINUOUS
 62
     5
 39
50.0
 10
80.629700999999983
 20
-28.199760000000001
 30
0.0
 40
2.5048169999999992
  0
CIRCLE
  5
647
  8
DETAIL
  6
CONTINUOUS
 62
     5
 39
50.0
 10
54.329122999999989
 20
-34.707082999999997
 30
0.0
 40
2.5048169999999992
  0
CIRCLE
  5
648
  8
DETAIL
  6
CONTINUOUS
 62
     5
 39
50.0
 10
50.57189799999999
 20
-41.214787999999999
 30
0.0
 40
2.5048169999999992
  0
CIRCLE
  5
649
  8
DETAIL
  6
CONTINUOUS
 62
     5
 39
50.0
 10
43.057446999999989
 20
-54.229817000000011
 30
0.0
 40
2.5048169999999992
  0
CIRCLE
  5
64A
  8
DETAIL
  6
CONTINUOUS
 62
     5
 39
50.0
 10
58.086348999999998
 20
-54.229817000000011
 30
0.0
 40
2.5048169999999992
  0
CIRCLE
  5
64B
  8
DETAIL
  6
CONTINUOUS
 62
     5
 39
50.0
 10
50.57189799999999
 20
-54.229817000000011
 30
0.0
 40
2.5048169999999992
  0
ARC
  5
64C
  8
DETAIL
  6
CONTINUOUS
 62
     5
 39
50.0
 10
73.115250000000003
 20
-54.229817000000011
 30
0.0
 40
2.5048169999999992
 50
91.751048999999995
 51
195.12005600000001
  0
CIRCLE
  5
64D
  8
DETAIL
  6
CONTINUOUS
 62
     5
 39
50.0
 10
65.600800000000007
 20
-54.229817000000011
 30
0.0
 40
2.5048169999999992
  0
CIRCLE
  5
64E
  8
DETAIL
  6
CONTINUOUS
 62
     5
 39
50.0
 10
39.300221999999991
 20
-47.722493999999983
 30
0.0
 40
2.5048169999999992
  0
CIRCLE
  5
64F
  8
DETAIL
  6
CONTINUOUS
 62
     5
 39
50.0
 10
54.329122999999989
 20
-47.722493999999983
 30
0.0
 40
2.5048169999999992
  0
CIRCLE
  5
650
  8
DETAIL
  6
CONTINUOUS
 62
     5
 39
50.0
 10
46.814671999999987
 20
-47.722493999999983
 30
0.0
 40
2.5048169999999992
  0
CIRCLE
  5
651
  8
DETAIL
  6
CONTINUOUS
 62
     5
 39
50.0
 10
61.84357399999999
 20
-47.722493999999983
 30
0.0
 40
2.5048169999999992
  0
CIRCLE
  5
652
  8
DETAIL
  6
CONTINUOUS
 62
     5
 39
50.0
 10
69.358024999999998
 20
-47.722493999999983
 30
0.0
 40
2.5048169999999992
  0
ARC
  5
653
  8
DETAIL
  6
CONTINUOUS
 62
     5
 39
50.0
 10
76.872476000000006
 20
-47.722493999999983
 30
0.0
 40
2.5048169999999992
 50
81.956954999999965
 51
214.3789589999999
  0
CIRCLE
  5
654
  8
DETAIL
  6
CONTINUOUS
 62
     5
 39
50.0
 10
28.028545000000001
 20
-54.229817000000011
 30
0.0
 40
2.5048169999999992
  0
CIRCLE
  5
655
  8
DETAIL
  6
CONTINUOUS
 62
     5
 39
50.0
 10
35.542996000000002
 20
-54.229817000000011
 30
0.0
 40
2.5048169999999992
  0
CIRCLE
  5
656
  8
DETAIL
  6
CONTINUOUS
 62
     5
 39
50.0
 10
-5.7864839999999971
 20
-60.737141000000001
 30
0.0
 40
2.5048169999999992
  0
CIRCLE
  5
657
  8
DETAIL
  6
CONTINUOUS
 62
     5
 39
50.0
 10
-35.844287000000001
 20
-60.737141000000001
 30
0.0
 40
2.5048169999999992
  0
CIRCLE
  5
658
  8
DETAIL
  6
CONTINUOUS
 62
     5
 39
50.0
 10
-50.873189000000004
 20
-60.737141000000001
 30
0.0
 40
2.5048169999999992
  0
CIRCLE
  5
659
  8
DETAIL
  6
CONTINUOUS
 62
     5
 39
50.0
 10
-43.358738000000002
 20
-60.737141000000001
 30
0.0
 40
2.5048169999999992
  0
ARC
  5
65A
  8
DETAIL
  6
CONTINUOUS
 62
     5
 39
50.0
 10
-65.902090999999999
 20
-60.737141000000001
 30
0.0
 40
2.5048169999999992
 50
316.25410299999982
 51
129.07489699999991
  0
CIRCLE
  5
65B
  8
DETAIL
  6
CONTINUOUS
 62
     5
 39
50.0
 10
-58.387640000000012
 20
-60.737141000000001
 30
0.0
 40
2.5048169999999992
  0
CIRCLE
  5
65C
  8
DETAIL
  6
CONTINUOUS
 62
     5
 39
50.0
 10
-20.815384999999999
 20
-60.737141000000001
 30
0.0
 40
2.5048169999999992
  0
CIRCLE
  5
65D
  8
DETAIL
  6
CONTINUOUS
 62
     5
 39
50.0
 10
-13.300935000000001
 20
-60.737141000000001
 30
0.0
 40
2.5048169999999992
  0
CIRCLE
  5
65E
  8
DETAIL
  6
CONTINUOUS
 62
     5
 39
50.0
 10
-28.329836
 20
-60.737141000000001
 30
0.0
 40
2.5048169999999992
  0
CIRCLE
  5
65F
  8
DETAIL
  6
CONTINUOUS
 62
     5
 39
50.0
 10
31.785771
 20
-60.737141000000001
 30
0.0
 40
2.5048169999999992
  0
CIRCLE
  5
660
  8
DETAIL
  6
CONTINUOUS
 62
     5
 39
50.0
 10
24.271319999999999
 20
-60.737141000000001
 30
0.0
 40
2.5048169999999992
  0
CIRCLE
  5
661
  8
DETAIL
  6
CONTINUOUS
 62
     5
 39
50.0
 10
61.84357399999999
 20
-60.737141000000001
 30
0.0
 40
2.5048169999999992
  0
CIRCLE
  5
662
  8
DETAIL
  6
CONTINUOUS
 62
     5
 39
50.0
 10
46.814671999999987
 20
-60.737141000000001
 30
0.0
 40
2.5048169999999992
  0
CIRCLE
  5
663
  8
DETAIL
  6
CONTINUOUS
 62
     5
 39
50.0
 10
54.329122999999989
 20
-60.737141000000001
 30
0.0
 40
2.5048169999999992
  0
CIRCLE
  5
664
  8
DETAIL
  6
CONTINUOUS
 62
     5
 39
50.0
 10
39.300221999999991
 20
-60.737141000000001
 30
0.0
 40
2.5048169999999992
  0
CIRCLE
  5
665
  8
DETAIL
  6
CONTINUOUS
 62
     5
 39
50.0
 10
16.756868999999991
 20
-60.737141000000001
 30
0.0
 40
2.5048169999999992
  0
CIRCLE
  5
666
  8
DETAIL
  6
CONTINUOUS
 62
     5
 39
50.0
 10
1.7279669999999969
 20
-60.737141000000001
 30
0.0
 40
2.5048169999999992
  0
CIRCLE
  5
667
  8
DETAIL
  6
CONTINUOUS
 62
     5
 39
50.0
 10
9.2424179999999971
 20
-60.737141000000001
 30
0.0
 40
2.5048169999999992
  0
CIRCLE
  5
668
  8
DETAIL
  6
CONTINUOUS
 62
     5
 39
50.0
 10
5.4851929999999971
 20
-67.244464000000008
 30
0.0
 40
2.5048169999999992
  0
CIRCLE
  5
669
  8
DETAIL
  6
CONTINUOUS
 62
     5
 39
50.0
 10
-24.572610999999998
 20
-67.244464000000008
 30
0.0
 40
2.5048169999999992
  0
CIRCLE
  5
66A
  8
DETAIL
  6
CONTINUOUS
 62
     5
 39
50.0
 10
-9.5437089999999998
 20
-67.244464000000008
 30
0.0
 40
2.5048169999999992
  0
CIRCLE
  5
66B
  8
DETAIL
  6
CONTINUOUS
 62
     5
 39
50.0
 10
-17.058160000000001
 20
-67.244464000000008
 30
0.0
 40
2.5048169999999992
  0
CIRCLE
  5
66C
  8
DETAIL
  6
CONTINUOUS
 62
     5
 39
50.0
 10
-54.630414000000002
 20
-67.244464000000008
 30
0.0
 40
2.5048169999999992
  0
CIRCLE
  5
66D
  8
DETAIL
  6
CONTINUOUS
 62
     5
 39
50.0
 10
-39.60151299999999
 20
-67.244464000000008
 30
0.0
 40
2.5048169999999992
  0
CIRCLE
  5
66E
  8
DETAIL
  6
CONTINUOUS
 62
     5
 39
50.0
 10
-47.115963000000001
 20
-67.244464000000008
 30
0.0
 40
2.5048169999999992
  0
CIRCLE
  5
66F
  8
DETAIL
  6
CONTINUOUS
 62
     5
 39
50.0
 10
-32.087062000000003
 20
-67.244464000000008
 30
0.0
 40
2.5048169999999992
  0
CIRCLE
  5
670
  8
DETAIL
  6
CONTINUOUS
 62
     5
 39
50.0
 10
-2.029258
 20
-67.244464000000008
 30
0.0
 40
2.5048169999999992
  0
CIRCLE
  5
671
  8
DETAIL
  6
CONTINUOUS
 62
     5
 39
50.0
 10
12.999644
 20
-67.244464000000008
 30
0.0
 40
2.5048169999999992
  0
CIRCLE
  5
672
  8
DETAIL
  6
CONTINUOUS
 62
     5
 39
50.0
 10
20.514094
 20
-67.244464000000008
 30
0.0
 40
2.5048169999999992
  0
CIRCLE
  5
673
  8
DETAIL
  6
CONTINUOUS
 62
     5
 39
50.0
 10
43.057446999999989
 20
-67.244464000000008
 30
0.0
 40
2.5048169999999992
  0
ARC
  5
674
  8
DETAIL
  6
CONTINUOUS
 62
     5
 39
50.0
 10
58.086348999999998
 20
-67.244464000000008
 30
0.0
 40
2.5048169999999992
 50
26.761997999999998
 51
234.87947600000001
  0
CIRCLE
  5
675
  8
DETAIL
  6
CONTINUOUS
 62
     5
 39
50.0
 10
50.57189799999999
 20
-67.244464000000008
 30
0.0
 40
2.5048169999999992
  0
CIRCLE
  5
676
  8
DETAIL
  6
CONTINUOUS
 62
     5
 39
50.0
 10
28.028545000000001
 20
-67.244464000000008
 30
0.0
 40
2.5048169999999992
  0
CIRCLE
  5
677
  8
DETAIL
  6
CONTINUOUS
 62
     5
 39
50.0
 10
35.542996000000002
 20
-67.244464000000008
 30
0.0
 40
2.5048169999999992
  0
CIRCLE
  5
678
  8
DETAIL
  6
CONTINUOUS
 62
     5
 39
50.0
 10
-5.7864839999999971
 20
-86.766817000000003
 30
0.0
 40
2.5048169999999992
  0
CIRCLE
  5
679
  8
DETAIL
  6
CONTINUOUS
 62
     5
 39
50.0
 10
-9.5437089999999998
 20
-80.259493000000006
 30
0.0
 40
2.5048169999999992
  0
CIRCLE
  5
67A
  8
DETAIL
  6
CONTINUOUS
 62
     5
 39
50.0
 10
-5.7864839999999971
 20
-73.752169999999978
 30
0.0
 40
2.5048169999999992
  0
ARC
  5
67B
  8
DETAIL
  6
CONTINUOUS
 62
     5
 39
50.0
 10
-20.815384999999999
 20
-86.766817000000003
 30
0.0
 40
2.5048169999999992
 50
341.09056099999998
 51
171.928775
  0
ARC
  5
67C
  8
DETAIL
  6
CONTINUOUS
 62
     5
 39
50.0
 10
-28.329836
 20
-86.766817000000003
 30
0.0
 40
2.5048169999999992
 50
27.587711999999989
 51
116.248006
  0
ARC
  5
67D
  8
DETAIL
  6
CONTINUOUS
 62
     5
 39
50.0
 10
-13.300935000000001
 20
-86.766817000000003
 30
0.0
 40
2.5048169999999992
 50
308.52056499999992
 51
214.0487939999999
  0
ARC
  5
67E
  8
DETAIL
  6
CONTINUOUS
 62
     5
 39
50.0
 10
-39.60151299999999
 20
-80.259493000000006
 30
0.0
 40
2.5048169999999992
 50
334.49015900000001
 51
152.98468
  0
ARC
  5
67F
  8
DETAIL
  6
CONTINUOUS
 62
     5
 39
50.0
 10
-50.873189000000004
 20
-73.752169999999978
 30
0.0
 40
2.5048169999999992
 50
328.40230400000002
 51
142.402986
  0
CIRCLE
  5
680
  8
DETAIL
  6
CONTINUOUS
 62
     5
 39
50.0
 10
-20.815384999999999
 20
-73.752169999999978
 30
0.0
 40
2.5048169999999992
  0
CIRCLE
  5
681
  8
DETAIL
  6
CONTINUOUS
 62
     5
 39
50.0
 10
-13.300935000000001
 20
-73.752169999999978
 30
0.0
 40
2.5048169999999992
  0
CIRCLE
  5
682
  8
DETAIL
  6
CONTINUOUS
 62
     5
 39
50.0
 10
-24.572610999999998
 20
-80.259493000000006
 30
0.0
 40
2.5048169999999992
  0
CIRCLE
  5
683
  8
DETAIL
  6
CONTINUOUS
 62
     5
 39
50.0
 10
-17.058160000000001
 20
-80.259493000000006
 30
0.0
 40
2.5048169999999992
  0
CIRCLE
  5
684
  8
DETAIL
  6
CONTINUOUS
 62
     5
 39
50.0
 10
-43.358738000000002
 20
-73.752169999999978
 30
0.0
 40
2.5048169999999992
  0
CIRCLE
  5
685
  8
DETAIL
  6
CONTINUOUS
 62
     5
 39
50.0
 10
-35.844287000000001
 20
-73.752169999999978
 30
0.0
 40
2.5048169999999992
  0
CIRCLE
  5
686
  8
DETAIL
  6
CONTINUOUS
 62
     5
 39
50.0
 10
-32.087062000000003
 20
-80.259493000000006
 30
0.0
 40
2.5048169999999992
  0
CIRCLE
  5
687
  8
DETAIL
  6
CONTINUOUS
 62
     5
 39
50.0
 10
-28.329836
 20
-73.752169999999978
 30
0.0
 40
2.5048169999999992
  0
CIRCLE
  5
688
  8
DETAIL
  6
CONTINUOUS
 62
     5
 39
50.0
 10
1.7279669999999969
 20
-86.766817000000003
 30
0.0
 40
2.5048169999999992
  0
CIRCLE
  5
689
  8
DETAIL
  6
CONTINUOUS
 62
     5
 39
50.0
 10
9.2424179999999971
 20
-86.766817000000003
 30
0.0
 40
2.5048169999999992
  0
ARC
  5
68A
  8
DETAIL
  6
CONTINUOUS
 62
     5
 39
50.0
 10
16.756868999999991
 20
-86.766817000000003
 30
0.0
 40
2.5048169999999992
 50
344.83921900000001
 51
217.02217300000001
  0
ARC
  5
68B
  8
DETAIL
  6
CONTINUOUS
 62
     5
 39
50.0
 10
24.271319999999999
 20
-86.766817000000003
 30
0.0
 40
2.5048169999999992
 50
30.205437
 51
181.05040999999991
  0
CIRCLE
  5
68C
  8
DETAIL
  6
CONTINUOUS
 62
     5
 39
50.0
 10
28.028545000000001
 20
-80.259493000000006
 30
0.0
 40
2.5048169999999992
  0
CIRCLE
  5
68D
  8
DETAIL
  6
CONTINUOUS
 62
     5
 39
50.0
 10
20.514094
 20
-80.259493000000006
 30
0.0
 40
2.5048169999999992
  0
ARC
  5
68E
  8
DETAIL
  6
CONTINUOUS
 62
     5
 39
50.0
 10
54.329122999999989
 20
-73.752169999999978
 30
0.0
 40
2.5048169999999992
 50
93.884390999999994
 51
158.869629
  0
CIRCLE
  5
68F
  8
DETAIL
  6
CONTINUOUS
 62
     5
 39
50.0
 10
39.300221999999991
 20
-73.752169999999978
 30
0.0
 40
2.5048169999999992
  0
CIRCLE
  5
690
  8
DETAIL
  6
CONTINUOUS
 62
     5
 39
50.0
 10
46.814671999999987
 20
-73.752169999999978
 30
0.0
 40
2.5048169999999992
  0
CIRCLE
  5
691
  8
DETAIL
  6
CONTINUOUS
 62
     5
 39
50.0
 10
31.785771
 20
-73.752169999999978
 30
0.0
 40
2.5048169999999992
  0
ARC
  5
692
  8
DETAIL
  6
CONTINUOUS
 62
     5
 39
50.0
 10
43.057446999999989
 20
-80.259493000000006
 30
0.0
 40
2.5048169999999992
 50
67.928801000000007
 51
168.496351
  0
ARC
  5
693
  8
DETAIL
  6
CONTINUOUS
 62
     5
 39
50.0
 10
35.542996000000002
 20
-80.259493000000006
 30
0.0
 40
2.5048169999999992
 50
341.03074500000002
 51
246.7416649999999
  0
CIRCLE
  5
694
  8
DETAIL
  6
CONTINUOUS
 62
     5
 39
50.0
 10
12.999644
 20
-80.259493000000006
 30
0.0
 40
2.5048169999999992
  0
CIRCLE
  5
695
  8
DETAIL
  6
CONTINUOUS
 62
     5
 39
50.0
 10
16.756868999999991
 20
-73.752169999999978
 30
0.0
 40
2.5048169999999992
  0
CIRCLE
  5
696
  8
DETAIL
  6
CONTINUOUS
 62
     5
 39
50.0
 10
-2.029258
 20
-80.259493000000006
 30
0.0
 40
2.5048169999999992
  0
CIRCLE
  5
697
  8
DETAIL
  6
CONTINUOUS
 62
     5
 39
50.0
 10
5.4851929999999971
 20
-80.259493000000006
 30
0.0
 40
2.5048169999999992
  0
CIRCLE
  5
698
  8
DETAIL
  6
CONTINUOUS
 62
     5
 39
50.0
 10
1.7279669999999969
 20
-73.752169999999978
 30
0.0
 40
2.5048169999999992
  0
CIRCLE
  5
699
  8
DETAIL
  6
CONTINUOUS
 62
     5
 39
50.0
 10
9.2424179999999971
 20
-73.752169999999978
 30
0.0
 40
2.5048169999999992
  0
CIRCLE
  5
69A
  8
DETAIL
  6
CONTINUOUS
 62
     5
 39
50.0
 10
24.271319999999999
 20
-73.752169999999978
 30
0.0
 40
2.5048169999999992
  0
ARC
  5
69B
  8
DETAIL
  6
CONTINUOUS
 62
     5
 39
50.0
 10
80.629700999999983
 20
10.845326999999999
 30
0.0
 40
2.5048169999999992
 50
129.96185700000001
 51
314.84433100000001
  0
CIRCLE
  5
69C
  8
DETAIL
  6
CONTINUOUS
 62
     5
 39
50.0
 10
58.086348999999998
 20
10.845326999999999
 30
0.0
 40
2.5048169999999992
  0
CIRCLE
  5
69D
  8
DETAIL
  6
CONTINUOUS
 62
     5
 39
50.0
 10
61.84357399999999
 20
17.352651000000002
 30
0.0
 40
2.5048169999999992
  0
CIRCLE
  5
69E
  8
DETAIL
  6
CONTINUOUS
 62
     5
 39
50.0
 10
58.086348999999998
 20
23.860355999999999
 30
0.0
 40
2.5048169999999992
  0
CIRCLE
  5
69F
  8
DETAIL
  6
CONTINUOUS
 62
     5
 39
50.0
 10
43.057446999999989
 20
10.845326999999999
 30
0.0
 40
2.5048169999999992
  0
CIRCLE
  5
6A0
  8
DETAIL
  6
CONTINUOUS
 62
     5
 39
50.0
 10
50.57189799999999
 20
10.845326999999999
 30
0.0
 40
2.5048169999999992
  0
CIRCLE
  5
6A1
  8
DETAIL
  6
CONTINUOUS
 62
     5
 39
50.0
 10
46.814671999999987
 20
17.352651000000002
 30
0.0
 40
2.5048169999999992
  0
CIRCLE
  5
6A2
  8
DETAIL
  6
CONTINUOUS
 62
     5
 39
50.0
 10
43.057446999999989
 20
23.860355999999999
 30
0.0
 40
2.5048169999999992
  0
CIRCLE
  5
6A3
  8
DETAIL
  6
CONTINUOUS
 62
     5
 39
50.0
 10
54.329122999999989
 20
17.352651000000002
 30
0.0
 40
2.5048169999999992
  0
CIRCLE
  5
6A4
  8
DETAIL
  6
CONTINUOUS
 62
     5
 39
50.0
 10
50.57189799999999
 20
23.860355999999999
 30
0.0
 40
2.5048169999999992
  0
CIRCLE
  5
6A5
  8
DETAIL
  6
CONTINUOUS
 62
     5
 39
50.0
 10
65.600800000000007
 20
10.845326999999999
 30
0.0
 40
2.5048169999999992
  0
CIRCLE
  5
6A6
  8
DETAIL
  6
CONTINUOUS
 62
     5
 39
50.0
 10
69.358024999999998
 20
17.352651000000002
 30
0.0
 40
2.5048169999999992
  0
ARC
  5
6A7
  8
DETAIL
  6
CONTINUOUS
 62
     5
 39
50.0
 10
65.600800000000007
 20
23.860355999999999
 30
0.0
 40
2.5048169999999992
 50
128.52269599999991
 51
337.21894500000002
  0
CIRCLE
  5
6A8
  8
DETAIL
  6
CONTINUOUS
 62
     5
 39
50.0
 10
73.115250000000003
 20
10.845326999999999
 30
0.0
 40
2.5048169999999992
  0
ARC
  5
6A9
  8
DETAIL
  6
CONTINUOUS
 62
     5
 39
50.0
 10
76.872476000000006
 20
17.352651000000002
 30
0.0
 40
2.5048169999999992
 50
180.06839499999981
 51
272.31622499999992
  0
CIRCLE
  5
6AA
  8
DETAIL
  6
CONTINUOUS
 62
     5
 39
50.0
 10
35.542996000000002
 20
23.860355999999999
 30
0.0
 40
2.5048169999999992
  0
CIRCLE
  5
6AB
  8
DETAIL
  6
CONTINUOUS
 62
     5
 39
50.0
 10
69.358024999999998
 20
4.3376219999999979
 30
0.0
 40
2.5048169999999992
  0
CIRCLE
  5
6AC
  8
DETAIL
  6
CONTINUOUS
 62
     5
 39
50.0
 10
76.872476000000006
 20
4.3376219999999979
 30
0.0
 40
2.5048169999999992
  0
CIRCLE
  5
6AD
  8
DETAIL
  6
CONTINUOUS
 62
     5
 39
50.0
 10
61.84357399999999
 20
4.3376219999999979
 30
0.0
 40
2.5048169999999992
  0
CIRCLE
  5
6AE
  8
DETAIL
  6
CONTINUOUS
 62
     5
 39
50.0
 10
80.629700999999983
 20
-2.169702
 30
0.0
 40
2.5048169999999992
  0
CIRCLE
  5
6AF
  8
DETAIL
  6
CONTINUOUS
 62
     5
 39
50.0
 10
73.115250000000003
 20
-2.169702
 30
0.0
 40
2.5048169999999992
  0
CIRCLE
  5
6B0
  8
DETAIL
  6
CONTINUOUS
 62
     5
 39
50.0
 10
65.600800000000007
 20
-2.169702
 30
0.0
 40
2.5048169999999992
  0
ARC
  5
6B1
  8
DETAIL
  6
CONTINUOUS
 62
     5
 39
50.0
 10
88.144152000000005
 20
-2.169702
 30
0.0
 40
2.5048169999999992
 50
57.228695999999992
 51
299.9511589999999
  0
ARC
  5
6B2
  8
DETAIL
  6
CONTINUOUS
 62
     5
 39
50.0
 10
84.386927
 20
4.3376219999999979
 30
0.0
 40
2.5048169999999992
 50
92.264205000000004
 51
344.73656199999982
  0
CIRCLE
  5
6B3
  8
DETAIL
  6
CONTINUOUS
 62
     5
 39
50.0
 10
-43.358738000000002
 20
17.352651000000002
 30
0.0
 40
2.5048169999999992
  0
CIRCLE
  5
6B4
  8
DETAIL
  6
CONTINUOUS
 62
     5
 39
50.0
 10
-65.902090999999999
 20
17.352651000000002
 30
0.0
 40
2.5048169999999992
  0
CIRCLE
  5
6B5
  8
DETAIL
  6
CONTINUOUS
 62
     5
 39
50.0
 10
-58.387640000000012
 20
17.352651000000002
 30
0.0
 40
2.5048169999999992
  0
CIRCLE
  5
6B6
  8
DETAIL
  6
CONTINUOUS
 62
     5
 39
50.0
 10
-50.873189000000004
 20
17.352651000000002
 30
0.0
 40
2.5048169999999992
  0
ARC
  5
6B7
  8
DETAIL
  6
CONTINUOUS
 62
     5
 39
50.0
 10
-73.416541000000024
 20
17.352651000000002
 30
0.0
 40
2.5048169999999992
 50
208.2663189999999
 51
56.719258999999987
  0
CIRCLE
  5
6B8
  8
DETAIL
  6
CONTINUOUS
 62
     5
 39
50.0
 10
-54.630414000000002
 20
23.860355999999999
 30
0.0
 40
2.5048169999999992
  0
CIRCLE
  5
6B9
  8
DETAIL
  6
CONTINUOUS
 62
     5
 39
50.0
 10
-62.144865000000003
 20
23.860355999999999
 30
0.0
 40
2.5048169999999992
  0
ARC
  5
6BA
  8
DETAIL
  6
CONTINUOUS
 62
     5
 39
50.0
 10
-69.659316000000004
 20
23.860355999999999
 30
0.0
 40
2.5048169999999992
 50
266.817858
 51
350.77611399999972
  0
CIRCLE
  5
6BB
  8
DETAIL
  6
CONTINUOUS
 62
     5
 39
50.0
 10
-47.115963000000001
 20
23.860355999999999
 30
0.0
 40
2.5048169999999992
  0
CIRCLE
  5
6BC
  8
DETAIL
  6
CONTINUOUS
 62
     5
 39
50.0
 10
-39.60151299999999
 20
23.860355999999999
 30
0.0
 40
2.5048169999999992
  0
CIRCLE
  5
6BD
  8
DETAIL
  6
CONTINUOUS
 62
     5
 39
50.0
 10
-32.087062000000003
 20
23.860355999999999
 30
0.0
 40
2.5048169999999992
  0
CIRCLE
  5
6BE
  8
DETAIL
  6
CONTINUOUS
 62
     5
 39
50.0
 10
39.300221999999991
 20
30.36806099999999
 30
0.0
 40
2.5048169999999992
  0
ARC
  5
6BF
  8
DETAIL
  6
CONTINUOUS
 62
     5
 39
50.0
 10
54.329122999999989
 20
30.36806099999999
 30
0.0
 40
2.5048169999999992
 50
113.8700959999999
 51
5.627798999999996
  0
CIRCLE
  5
6C0
  8
DETAIL
  6
CONTINUOUS
 62
     5
 39
50.0
 10
46.814671999999987
 20
30.36806099999999
 30
0.0
 40
2.5048169999999992
  0
CIRCLE
  5
6C1
  8
DETAIL
  6
CONTINUOUS
 62
     5
 39
50.0
 10
24.271319999999999
 20
30.36806099999999
 30
0.0
 40
2.5048169999999992
  0
CIRCLE
  5
6C2
  8
DETAIL
  6
CONTINUOUS
 62
     5
 39
50.0
 10
9.2424179999999971
 20
30.36806099999999
 30
0.0
 40
2.5048169999999992
  0
CIRCLE
  5
6C3
  8
DETAIL
  6
CONTINUOUS
 62
     5
 39
50.0
 10
16.756868999999991
 20
30.36806099999999
 30
0.0
 40
2.5048169999999992
  0
CIRCLE
  5
6C4
  8
DETAIL
  6
CONTINUOUS
 62
     5
 39
50.0
 10
31.785771
 20
30.36806099999999
 30
0.0
 40
2.5048169999999992
  0
CIRCLE
  5
6C5
  8
DETAIL
  6
CONTINUOUS
 62
     5
 39
50.0
 10
1.7279669999999969
 20
30.36806099999999
 30
0.0
 40
2.5048169999999992
  0
CIRCLE
  5
6C6
  8
DETAIL
  6
CONTINUOUS
 62
     5
 39
50.0
 10
-28.329836
 20
30.36806099999999
 30
0.0
 40
2.5048169999999992
  0
CIRCLE
  5
6C7
  8
DETAIL
  6
CONTINUOUS
 62
     5
 39
50.0
 10
-35.844287000000001
 20
30.36806099999999
 30
0.0
 40
2.5048169999999992
  0
CIRCLE
  5
6C8
  8
DETAIL
  6
CONTINUOUS
 62
     5
 39
50.0
 10
-43.358738000000002
 20
30.36806099999999
 30
0.0
 40
2.5048169999999992
  0
ARC
  5
6C9
  8
DETAIL
  6
CONTINUOUS
 62
     5
 39
50.0
 10
-58.387640000000012
 20
30.36806099999999
 30
0.0
 40
2.5048169999999992
 50
226.89455699999999
 51
17.262307
  0
CIRCLE
  5
6CA
  8
DETAIL
  6
CONTINUOUS
 62
     5
 39
50.0
 10
-50.873189000000004
 20
30.36806099999999
 30
0.0
 40
2.5048169999999992
  0
CIRCLE
  5
6CB
  8
DETAIL
  6
CONTINUOUS
 62
     5
 39
50.0
 10
-13.300935000000001
 20
30.36806099999999
 30
0.0
 40
2.5048169999999992
  0
CIRCLE
  5
6CC
  8
DETAIL
  6
CONTINUOUS
 62
     5
 39
50.0
 10
-5.7864839999999971
 20
30.36806099999999
 30
0.0
 40
2.5048169999999992
  0
CIRCLE
  5
6CD
  8
DETAIL
  6
CONTINUOUS
 62
     5
 39
50.0
 10
-20.815384999999999
 20
30.36806099999999
 30
0.0
 40
2.5048169999999992
  0
CIRCLE
  5
6CE
  8
DETAIL
  6
CONTINUOUS
 62
     5
 39
50.0
 10
5.4851929999999971
 20
36.875766999999989
 30
0.0
 40
2.5048169999999992
  0
CIRCLE
  5
6CF
  8
DETAIL
  6
CONTINUOUS
 62
     5
 39
50.0
 10
35.542996000000002
 20
36.875766999999989
 30
0.0
 40
2.5048169999999992
  0
CIRCLE
  5
6D0
  8
DETAIL
  6
CONTINUOUS
 62
     5
 39
50.0
 10
20.514094
 20
36.875766999999989
 30
0.0
 40
2.5048169999999992
  0
CIRCLE
  5
6D1
  8
DETAIL
  6
CONTINUOUS
 62
     5
 39
50.0
 10
12.999644
 20
36.875766999999989
 30
0.0
 40
2.5048169999999992
  0
CIRCLE
  5
6D2
  8
DETAIL
  6
CONTINUOUS
 62
     5
 39
50.0
 10
28.028545000000001
 20
36.875766999999989
 30
0.0
 40
2.5048169999999992
  0
ARC
  5
6D3
  8
DETAIL
  6
CONTINUOUS
 62
     5
 39
50.0
 10
43.057446999999989
 20
36.875766999999989
 30
0.0
 40
2.5048169999999992
 50
139.57850300000001
 51
353.69006400000001
  0
CIRCLE
  5
6D4
  8
DETAIL
  6
CONTINUOUS
 62
     5
 39
50.0
 10
-17.058160000000001
 20
36.875766999999989
 30
0.0
 40
2.5048169999999992
  0
CIRCLE
  5
6D5
  8
DETAIL
  6
CONTINUOUS
 62
     5
 39
50.0
 10
-2.029258
 20
36.875766999999989
 30
0.0
 40
2.5048169999999992
  0
CIRCLE
  5
6D6
  8
DETAIL
  6
CONTINUOUS
 62
     5
 39
50.0
 10
-9.5437089999999998
 20
36.875766999999989
 30
0.0
 40
2.5048169999999992
  0
ARC
  5
6D7
  8
DETAIL
  6
CONTINUOUS
 62
     5
 39
50.0
 10
-47.115963000000001
 20
36.875766999999989
 30
0.0
 40
2.5048169999999992
 50
227.2542609999999
 51
3.350683999999998
  0
CIRCLE
  5
6D8
  8
DETAIL
  6
CONTINUOUS
 62
     5
 39
50.0
 10
-39.60151299999999
 20
36.875766999999989
 30
0.0
 40
2.5048169999999992
  0
CIRCLE
  5
6D9
  8
DETAIL
  6
CONTINUOUS
 62
     5
 39
50.0
 10
-32.087062000000003
 20
36.875766999999989
 30
0.0
 40
2.5048169999999992
  0
CIRCLE
  5
6DA
  8
DETAIL
  6
CONTINUOUS
 62
     5
 39
50.0
 10
-24.572610999999998
 20
36.875766999999989
 30
0.0
 40
2.5048169999999992
  0
CIRCLE
  5
6DB
  8
DETAIL
  6
CONTINUOUS
 62
     5
 39
50.0
 10
-5.7864839999999971
 20
43.383471999999998
 30
0.0
 40
2.5048169999999992
  0
ARC
  5
6DC
  8
DETAIL
  6
CONTINUOUS
 62
     5
 39
50.0
 10
-28.329836
 20
43.383471999999998
 30
0.0
 40
2.5048169999999992
 50
208.45274599999991
 51
1.427748
  0
ARC
  5
6DD
  8
DETAIL
  6
CONTINUOUS
 62
     5
 39
50.0
 10
-13.300935000000001
 20
43.383471999999998
 30
0.0
 40
2.5048169999999992
 50
119.130713
 51
75.150710000000004
  0
ARC
  5
6DE
  8
DETAIL
  6
CONTINUOUS
 62
     5
 39
50.0
 10
-20.815384999999999
 20
43.383471999999998
 30
0.0
 40
2.5048169999999992
 50
164.7302389999999
 51
37.454619000000001
  0
ARC
  5
6DF
  8
DETAIL
  6
CONTINUOUS
 62
     5
 39
50.0
 10
24.271319999999999
 20
43.383471999999998
 30
0.0
 40
2.5048169999999992
 50
158.175611
 51
356.07066800000001
  0
CIRCLE
  5
6E0
  8
DETAIL
  6
CONTINUOUS
 62
     5
 39
50.0
 10
9.2424179999999971
 20
43.383471999999998
 30
0.0
 40
2.5048169999999992
  0
ARC
  5
6E1
  8
DETAIL
  6
CONTINUOUS
 62
     5
 39
50.0
 10
16.756868999999991
 20
43.383471999999998
 30
0.0
 40
2.5048169999999992
 50
124.13161699999991
 51
37.930500000000002
  0
ARC
  5
6E2
  8
DETAIL
  6
CONTINUOUS
 62
     5
 39
50.0
 10
31.785771
 20
43.383471999999998
 30
0.0
 40
2.5048169999999992
 50
200.62471999999991
 51
306.04173800000001
  0
CIRCLE
  5
6E3
  8
DETAIL
  6
CONTINUOUS
 62
     5
 39
50.0
 10
1.7279669999999969
 20
43.383471999999998
 30
0.0
 40
2.5048169999999992
  0
TEXT
  5
6E4
  8
ETC
  6
CONTINUOUS
 62
    61
 10
438.76062639894599
 20
125.693880555736
 30
0.0
 40
50.0
  1
P-18DFADK2
 41
0.9
  0
TEXT
  5
6E5
  8
ETC
  6
CONTINUOUS
 62
    61
 10
438.76062639894599
 20
199.71267231641551
 30
0.0
 40
50.0
  1
P-18DFAD2
 41
0.9
  0
TEXT
  5
6E6
  8
ETC
  6
CONTINUOUS
 62
    61
 10
327.63569306082798
 20
465.49545664711229
 30
0.0
 40
64.0
  1
P-18DFA2_2
 41
0.9
  0
TEXT
  5
6E7
  8
ETC
  6
CONTINUOUS
 62
    61
 10
316.0357700608281
 20
368.93508264711221
 30
0.0
 40
64.0
  1
システム部材
 41
0.9
  0
TEXT
  5
6E8
  8
ETC
  6
CONTINUOUS
 62
    61
 10
439.48964725147999
 20
279.0888167232369
 30
0.0
 40
50.0
  1
P-18DFA2
 41
0.9
  0
LINE
  5
6F9
  8
SIZE
  6
CONTINUOUS
 62
    30
 10
20.0
 20
-115.0
 30
0.0
 11
284.63281258409
 21
-115.0
 31
0.0
  0
LINE
  5
6FA
  8
SIZE
  6
CONTINUOUS
 62
    30
 10
195.4092939999999
 20
-0.0000000000000057
 30
0.0
 11
284.63281258409
 21
-0.0000000000000309
 31
0.0
  0
LINE
  5
6FC
  8
SIZE
  6
CONTINUOUS
 62
    30
 10
264.63281258409
 20
11.99999999999997
 30
0.0
 11
264.63281258409
 21
23.999999999999972
 31
0.0
  0
LINE
  5
6FD
  8
SIZE
  6
CONTINUOUS
 62
    30
 10
264.63281258409
 20
-115.0
 30
0.0
 11
264.63281258409
 21
-0.0000000000000253
 31
0.0
  0
LINE
  5
701
  8
SIZE
  6
CONTINUOUS
 62
    30
 39
50.0
 10
264.63281258409
 20
-115.0
 30
0.0
 11
264.63281258409
 21
-287.78156984574792
 31
0.0
  0
CIRCLE
  5
702
  8
SIZE
  6
CONTINUOUS
 62
    30
 39
50.0
 10
264.63281258409
 20
-115.0
 30
0.0
 40
6.0
  0
ENDSEC
  0
EOF
