  0
SECTION
  2
HEADER
  9
$ACADVER
  1
AC1009
  9
$DWGCODEPAGE
  3
dos932
  9
$INSBASE
 10
0.0
 20
0.0
 30
0.0
  9
$EXTMIN
 10
-267.379744
 20
-346.069324
 30
-0.003052
  9
$EXTMAX
 10
848.364269
 20
459.182747
 30
50.003052
  9
$LIMMIN
 10
-2970.0
 20
-2100.0
  9
$LIMMAX
 10
2970.0
 20
2100.0
  9
$ORTHOMODE
 70
     1
  9
$REGENMODE
 70
     1
  9
$FILLMODE
 70
     1
  9
$QTEXTMODE
 70
     0
  9
$MIRRTEXT
 70
     0
  9
$DRAGMODE
 70
     2
  9
$LTSCALE
 40
20.0
  9
$OSMODE
 70
  1023
  9
$ATTMODE
 70
     1
  9
$TEXTSIZE
 40
64.0
  9
$TRACEWID
 40
0.05
  9
$TEXTSTYLE
  7
STANDARD
  9
$CLAYER
  8
SIZE
  9
$CELTYPE
  6
CONTINUOUS
  9
$CECOLOR
 62
    30
  9
$DIMSCALE
 40
1.0
  9
$DIMASZ
 40
12.0
  9
$DIMEXO
 40
20.0
  9
$DIMDLI
 40
200.0
  9
$DIMRND
 40
0.0
  9
$DIMDLE
 40
0.0
  9
$DIMEXE
 40
20.0
  9
$DIMTP
 40
0.0
  9
$DIMTM
 40
0.0
  9
$DIMTXT
 40
64.0
  9
$DIMCEN
 40
0.09
  9
$DIMTSZ
 40
0.0
  9
$DIMTOL
 70
     0
  9
$DIMLIM
 70
     0
  9
$DIMTIH
 70
     0
  9
$DIMTOH
 70
     0
  9
$DIMSE1
 70
     0
  9
$DIMSE2
 70
     0
  9
$DIMTAD
 70
     1
  9
$DIMZIN
 70
     8
  9
$DIMBLK
  1
DOT1
  9
$DIMASO
 70
     1
  9
$DIMSHO
 70
     0
  9
$DIMPOST
  1

  9
$DIMAPOST
  1

  9
$DIMALT
 70
     0
  9
$DIMALTD
 70
     2
  9
$DIMALTF
 40
25.4
  9
$DIMLFAC
 40
1.0
  9
$DIMTOFL
 70
     1
  9
$DIMTVP
 40
0.0
  9
$DIMTIX
 70
     1
  9
$DIMSOXD
 70
     0
  9
$DIMSAH
 70
     1
  9
$DIMBLK1
  1
_ORIGIN
  9
$DIMBLK2
  1
_ORIGIN
  9
$DIMSTYLE
  2
STANDARD
  9
$DIMCLRD
 70
     7
  9
$DIMCLRE
 70
     7
  9
$DIMCLRT
 70
     7
  9
$DIMTFAC
 40
1.0
  9
$DIMGAP
 40
25.0
  9
$LUNITS
 70
     2
  9
$LUPREC
 70
     4
  9
$SKETCHINC
 40
0.1
  9
$FILLETRAD
 40
10.0
  9
$AUNITS
 70
     1
  9
$AUPREC
 70
     3
  9
$MENU
  1
ACAD
  9
$ELEVATION
 40
0.0
  9
$PELEVATION
 40
0.0
  9
$THICKNESS
 40
50.0
  9
$LIMCHECK
 70
     0
  9
$BLIPMODE
 70
     0
  9
$CHAMFERA
 40
0.0
  9
$CHAMFERB
 40
0.0
  9
$SKPOLY
 70
     0
  9
$TDCREATE
 40
2451453.493850809
  9
$TDUPDATE
 40
2453481.692066852
  9
$TDINDWG
 40
0.6746298958
  9
$TDUSRTIMER
 40
0.6746298958
  9
$USRTIMER
 70
     1
  9
$ANGBASE
 50
0.0
  9
$ANGDIR
 70
     0
  9
$PDMODE
 70
     3
  9
$PDSIZE
 40
-2.0
  9
$PLINEWID
 40
0.0
  9
$COORDS
 70
     1
  9
$SPLFRAME
 70
     0
  9
$SPLINETYPE
 70
     6
  9
$SPLINESEGS
 70
     8
  9
$ATTDIA
 70
     0
  9
$ATTREQ
 70
     1
  9
$HANDLING
 70
     0
  9
$HANDSEED
  5
1E25
  9
$SURFTAB1
 70
     6
  9
$SURFTAB2
 70
     6
  9
$SURFTYPE
 70
     6
  9
$SURFU
 70
     6
  9
$SURFV
 70
     6
  9
$UCSNAME
  2

  9
$UCSORG
 10
0.0
 20
0.0
 30
0.0
  9
$UCSXDIR
 10
1.0
 20
0.0
 30
0.0
  9
$UCSYDIR
 10
0.0
 20
1.0
 30
0.0
  9
$PUCSNAME
  2

  9
$PUCSORG
 10
0.0
 20
0.0
 30
0.0
  9
$PUCSXDIR
 10
1.0
 20
0.0
 30
0.0
  9
$PUCSYDIR
 10
0.0
 20
1.0
 30
0.0
  9
$USERI1
 70
     0
  9
$USERI2
 70
     0
  9
$USERI3
 70
     0
  9
$USERI4
 70
     0
  9
$USERI5
 70
     0
  9
$USERR1
 40
20.0
  9
$USERR2
 40
0.0
  9
$USERR3
 40
0.0
  9
$USERR4
 40
0.0
  9
$USERR5
 40
0.0
  9
$WORLDVIEW
 70
     1
  9
$SHADEDGE
 70
     3
  9
$SHADEDIF
 70
    70
  9
$TILEMODE
 70
     1
  9
$MAXACTVP
 70
    48
  9
$PINSBASE
 10
0.0
 20
0.0
 30
0.0
  9
$PLIMCHECK
 70
     0
  9
$PEXTMIN
 10
-100000000000000000000.0
 20
-100000000000000000000.0
 30
-100000000000000000000.0
  9
$PEXTMAX
 10
100000000000000000000.0
 20
100000000000000000000.0
 30
100000000000000000000.0
  9
$PLIMMIN
 10
0.0
 20
0.0
  9
$PLIMMAX
 10
12.0
 20
9.0
  9
$UNITMODE
 70
     0
  9
$VISRETAIN
 70
     0
  9
$PLINEGEN
 70
     0
  9
$PSLTSCALE
 70
     0
  9
$TREEDEPTH
 70
  3020
  0
ENDSEC
  0
SECTION
  2
TABLES
  0
TABLE
  2
LTYPE
 70
     2
  0
LTYPE
  2
CONTINUOUS
 70
     0
  3
実線
 72
    65
 73
     0
 40
0.0
  0
LTYPE
  2
DASHDOT
 70
     0
  3
____ _ ____ _ ____ _ ____ _ ____ _ ____ _ ____
 72
    65
 73
     4
 40
5.5
 49
4.0
 49
-0.6
 49
0.3
 49
-0.6
  0
ENDTAB
  0
TABLE
  2
LAYER
 70
    12
  0
LAYER
  2
0
 70
     0
 62
     7
  6
CONTINUOUS
  0
LAYER
  2
BASIS
 70
     0
 62
     6
  6
DASHDOT
  0
LAYER
  2
OUTLINE
 70
     0
 62
     3
  6
CONTINUOUS
  0
LAYER
  2
DETAIL
 70
     0
 62
     5
  6
CONTINUOUS
  0
LAYER
  2
SIZE
 70
     0
 62
    30
  6
CONTINUOUS
  0
LAYER
  2
ARRANGE
 70
     0
 62
     1
  6
CONTINUOUS
  0
LAYER
  2
DEFPOINTS
 70
     0
 62
     7
  6
CONTINUOUS
  0
LAYER
  2
ETC
 70
     0
 62
    61
  6
CONTINUOUS
  0
LAYER
  2
FIX
 70
    64
 62
    11
  6
CONTINUOUS
  0
LAYER
  2
NOTE
 70
    64
 62
     4
  6
CONTINUOUS
  0
LAYER
  2
SERVICESPACE
 70
    64
 62
     2
  6
DASHDOT
  0
LAYER
  2
SYMBOLLINE
 70
    64
 62
    15
  6
CONTINUOUS
  0
ENDTAB
  0
TABLE
  2
STYLE
 70
     1
  0
STYLE
  2
STANDARD
 70
     0
 40
64.0
 41
0.9
 50
0.0
 71
     0
 42
64.0
  3
SIMPLEX.shx
  4
BIGFONT.shx
  0
ENDTAB
  0
TABLE
  2
APPID
 70
     2
  0
APPID
  2
ACAD
 70
     0
  0
APPID
  2
AUTOCAD_POSTSCRIPT_FIGURE
 70
     0
  0
ENDTAB
  0
TABLE
  2
DIMSTYLE
 70
     1
  0
DIMSTYLE
  2
STANDARD
 70
     0
  3

  4

  5

  6

  7

 40
1.0
 41
0.18
 42
0.0625
 43
0.38
 44
0.18
 45
0.0
 46
0.0
 47
0.0
 48
0.0
140
0.18
141
0.09
142
0.0
143
25.4
144
1.0
145
0.0
146
1.0
147
0.09
 71
     0
 72
     0
 73
     1
 74
     1
 75
     0
 76
     0
 77
     0
 78
     0
170
     0
171
     2
172
     0
173
     0
174
     0
175
     0
176
     7
177
     7
178
     7
  0
ENDTAB
  0
TABLE
  2
VIEW
 70
     1
  0
VIEW
  2
ALL
 70
     0
 40
4282.619808
 10
0.0
 20
41.309904
 41
5940.0
 11
0.0
 21
0.0
 31
1.0
 12
0.0
 22
0.0
 32
0.0
 42
50.0
 43
0.0
 44
0.0
 50
0.0
 71
     0
  0
ENDTAB
  0
TABLE
  2
UCS
 70
     0
  0
ENDTAB
  0
TABLE
  2
VPORT
 70
     1
  0
VPORT
  2
*ACTIVE
 70
     0
 10
0.0
 20
0.0
 11
1.0
 21
1.0
 12
290.492263
 22
56.556712
 13
0.0
 23
0.0
 14
1.0
 24
1.0
 15
0.0
 25
0.0
 16
0.0
 26
0.0
 36
1.0
 17
0.0
 27
0.0
 37
0.0
 40
811.719959
 41
1.571046
 42
50.0
 43
0.0
 44
0.0
 50
0.0
 51
0.0
 71
     0
 72
   100
 73
     1
 74
     1
 75
     0
 76
     0
 77
     0
 78
     0
  0
ENDTAB
  0
ENDSEC
  0
SECTION
  2
BLOCKS
  0
BLOCK
  8
0
  2
DOT1
 70
     0
 10
0.0
 20
0.0
 30
0.0
  3
DOT1
  1

  0
CIRCLE
  8
SIZE
  6
CONTINUOUS
 62
     7
 10
0.0
 20
0.0
 30
0.0
 40
3.0
  0
ENDBLK
  8
0
  0
BLOCK
  8
0
  2
_ORIGIN
 70
     0
 10
0.0
 20
0.0
 30
0.0
  3
_ORIGIN
  1

  0
CIRCLE
  8
0
  6
CONTINUOUS
 62
     7
 10
0.0
 20
0.0
 30
0.0
 40
0.5
  0
LINE
  8
0
  6
CONTINUOUS
 62
     7
 10
0.0
 20
0.0
 30
0.0
 11
-1.0
 21
0.0
 31
0.0
  0
ENDBLK
  8
0
  0
ENDSEC
  0
SECTION
  2
ENTITIES
  0
TEXT
  8
ETC
  6
CONTINUOUS
 62
    61
 10
503.817336
 20
363.411782
 30
0.0
 40
40.0
  1
システム部材
 41
0.9
  0
TEXT
  8
ETC
  6
CONTINUOUS
 62
    61
 10
505.175187
 20
418.883979
 30
0.0
 40
40.0
  1
P-18DFS2_5
 41
0.9
  0
LINE
  8
DETAIL
  6
CONTINUOUS
 62
     5
 10
52.0
 20
73.5
 30
0.0
 11
0.0
 21
73.5
 31
0.0
  0
LINE
  8
DETAIL
  6
CONTINUOUS
 62
     5
 10
52.0
 20
-73.5
 30
0.0
 11
0.0
 21
-73.5
 31
0.0
  0
LINE
  8
BASIS
  6
DASHDOT
 62
     6
 10
-33.616951
 20
0.0
 30
0.0
 11
201.008836
 21
0.0
 31
0.0
  0
LINE
  8
SIZE
  6
CONTINUOUS
 62
    30
 10
-20.0
 20
73.5
 30
0.0
 11
-179.127939
 21
73.5
 31
0.0
  0
LINE
  8
SIZE
  6
CONTINUOUS
 62
    30
 10
-20.0
 20
-73.5
 30
0.0
 11
-179.127939
 21
-73.5
 31
0.0
  0
LINE
  8
SIZE
  6
CONTINUOUS
 62
    30
 10
-159.127939
 20
61.5
 30
0.0
 11
-159.127939
 21
-61.5
 31
0.0
  0
TEXT
  8
SIZE
  6
CONTINUOUS
 62
    30
 10
-203.044764
 20
-111.746691
 30
0.0
 40
64.0
  1
φ147
 50
90.0
 41
0.9
 51
0.0
  7
STANDARD
 71
     0
 72
     1
 11
-203.044764
 21
-2.018691
 31
0.0
210
0.0
220
0.0
230
1.0
  0
CIRCLE
  8
SIZE
  6
CONTINUOUS
 62
    30
 10
-159.127939
 20
73.5
 30
0.0
 40
6.0
  0
LINE
  8
SIZE
  6
CONTINUOUS
 62
    30
 10
-159.127939
 20
73.5
 30
0.0
 11
-159.127939
 21
61.5
 31
0.0
  0
CIRCLE
  8
SIZE
  6
CONTINUOUS
 62
    30
 10
-159.127939
 20
-73.5
 30
0.0
 40
6.0
  0
LINE
  8
SIZE
  6
CONTINUOUS
 62
    30
 10
-159.127939
 20
-73.5
 30
0.0
 11
-159.127939
 21
-61.5
 31
0.0
  0
POINT
  8
DEFPOINTS
  6
CONTINUOUS
 62
    30
 10
0.0
 20
73.5
 30
0.0
  0
POINT
  8
DEFPOINTS
  6
CONTINUOUS
 62
    30
 10
0.0
 20
-73.5
 30
0.0
  0
POINT
  8
DEFPOINTS
  6
CONTINUOUS
 62
    30
 10
-159.127939
 20
-73.5
 30
0.0
  0
LINE
  8
DETAIL
  6
CONTINUOUS
 62
     5
 10
0.0
 20
73.5
 30
0.0
 11
0.0
 21
-73.5
 31
0.0
  0
LINE
  8
OUTLINE
  6
CONTINUOUS
 62
     3
 10
0.0
 20
73.5
 30
0.0
 11
0.0
 21
-73.5
 31
0.0
  0
LINE
  8
OUTLINE
  6
CONTINUOUS
 62
     3
 10
52.0
 20
73.5
 30
0.0
 11
0.0
 21
73.5
 31
0.0
  0
LINE
  8
OUTLINE
  6
CONTINUOUS
 62
     3
 10
52.0
 20
-73.5
 30
0.0
 11
0.0
 21
-73.5
 31
0.0
  0
LINE
  8
SIZE
  6
CONTINUOUS
 62
    30
 10
52.0
 20
128.0
 30
0.0
 11
52.0
 21
195.699618
 31
0.0
  0
LINE
  8
SIZE
  6
CONTINUOUS
 62
    30
 10
65.0
 20
130.0
 30
0.0
 11
65.0
 21
195.699618
 31
0.0
  0
LINE
  8
SIZE
  6
CONTINUOUS
 62
    30
 10
40.0
 20
175.699618
 30
0.0
 11
28.0
 21
175.699618
 31
0.0
  0
LINE
  8
SIZE
  6
CONTINUOUS
 62
    30
 10
77.0
 20
175.699618
 30
0.0
 11
89.0
 21
175.699618
 31
0.0
  0
LINE
  8
SIZE
  6
CONTINUOUS
 62
    30
 10
-155.996654
 20
175.699618
 30
0.0
 11
52.0
 21
175.699618
 31
0.0
  0
TEXT
  8
SIZE
  6
CONTINUOUS
 62
    30
 10
-137.661797
 20
200.699618
 30
0.0
 40
64.0
  1
13
 50
0.0
 41
0.9
 51
0.0
  7
STANDARD
 71
     0
 72
     1
 11
-89.853797
 21
200.699618
 31
0.0
210
0.0
220
0.0
230
1.0
  0
LINE
  8
SIZE
  6
CONTINUOUS
 62
    30
 10
52.0
 20
175.699618
 30
0.0
 11
65.0
 21
175.699618
 31
0.0
  0
LINE
  8
SIZE
  6
CONTINUOUS
 62
    30
 10
52.0
 20
175.699618
 30
0.0
 11
65.0
 21
175.699618
 31
0.0
  0
CIRCLE
  8
SIZE
  6
CONTINUOUS
 62
    30
 10
52.0
 20
175.699618
 30
0.0
 40
6.0
  0
LINE
  8
SIZE
  6
CONTINUOUS
 62
    30
 10
52.0
 20
175.699618
 30
0.0
 11
40.0
 21
175.699618
 31
0.0
  0
CIRCLE
  8
SIZE
  6
CONTINUOUS
 62
    30
 10
65.0
 20
175.699618
 30
0.0
 40
6.0
  0
LINE
  8
SIZE
  6
CONTINUOUS
 62
    30
 10
65.0
 20
175.699618
 30
0.0
 11
77.0
 21
175.699618
 31
0.0
  0
POINT
  8
DEFPOINTS
  6
CONTINUOUS
 62
    30
 10
52.0
 20
108.0
 30
0.0
  0
POINT
  8
DEFPOINTS
  6
CONTINUOUS
 62
    30
 10
65.0
 20
110.0
 30
0.0
  0
POINT
  8
DEFPOINTS
  6
CONTINUOUS
 62
    30
 10
65.0
 20
175.699618
 30
0.0
  0
LINE
  8
OUTLINE
  6
CONTINUOUS
 62
     3
 10
70.0
 20
-4.722134
 30
0.0
 11
70.0
 21
-115.0
 31
0.0
  0
LINE
  8
DETAIL
  6
CONTINUOUS
 62
     5
 10
70.0
 20
-4.722134
 30
0.0
 11
70.0
 21
-115.0
 31
0.0
  0
LINE
  8
DETAIL
  6
CONTINUOUS
 62
     5
 10
52.0
 20
108.0
 30
0.0
 11
52.0
 21
-113.0
 31
0.0
  0
LINE
  8
OUTLINE
  6
CONTINUOUS
 62
     3
 10
54.0
 20
-115.0
 30
0.0
 11
70.0
 21
-115.0
 31
0.0
  0
ARC
  8
OUTLINE
  6
CONTINUOUS
 62
     3
 10
54.0
 20
-113.0
 30
0.0
 40
2.0
 50
180.0
 51
270.0
  0
ARC
  8
DETAIL
  6
CONTINUOUS
 62
     5
 10
54.0
 20
-113.0
 30
0.0
 40
2.0
 50
180.0
 51
270.0
  0
LINE
  8
DETAIL
  6
CONTINUOUS
 62
     5
 10
54.0
 20
-115.0
 30
0.0
 11
70.0
 21
-115.0
 31
0.0
  0
LINE
  8
OUTLINE
  6
CONTINUOUS
 62
     3
 10
65.0
 20
110.0
 30
0.0
 11
65.0
 21
-4.024536
 31
0.0
  0
LINE
  8
OUTLINE
  6
CONTINUOUS
 62
     3
 10
52.0
 20
108.0
 30
0.0
 11
52.0
 21
-113.0
 31
0.0
  0
LINE
  8
DETAIL
  6
CONTINUOUS
 62
     5
 10
65.0
 20
110.0
 30
0.0
 11
65.0
 21
-4.024536
 31
0.0
  0
LINE
  8
OUTLINE
  6
CONTINUOUS
 62
     3
 10
65.0
 20
4.404827
 30
0.0
 11
52.0
 21
2.210782
 31
0.0
  0
LINE
  8
OUTLINE
  6
CONTINUOUS
 62
     3
 10
52.0
 20
-2.210782
 30
0.0
 11
70.0
 21
-4.722134
 31
0.0
  0
LINE
  8
DETAIL
  6
CONTINUOUS
 62
     5
 10
52.0
 20
-2.210782
 30
0.0
 11
70.0
 21
-4.722134
 31
0.0
  0
LINE
  8
DETAIL
  6
CONTINUOUS
 62
     5
 10
65.0
 20
4.404827
 30
0.0
 11
52.0
 21
2.210782
 31
0.0
  0
LINE
  8
DETAIL
  6
CONTINUOUS
 62
     5
 10
65.0
 20
-3.92611
 30
0.0
 11
67.58586
 21
-0.010695
 31
0.0
  0
LINE
  8
OUTLINE
  6
CONTINUOUS
 62
     3
 10
54.0
 20
110.0
 30
0.0
 11
65.0
 21
110.0
 31
0.0
  0
ARC
  8
OUTLINE
  6
CONTINUOUS
 62
     3
 10
54.0
 20
108.0
 30
0.0
 40
2.0
 50
90.0
 51
180.0
  0
ARC
  8
DETAIL
  6
CONTINUOUS
 62
     5
 10
54.0
 20
108.0
 30
0.0
 40
2.0
 50
90.0
 51
180.0
  0
LINE
  8
DETAIL
  6
CONTINUOUS
 62
     5
 10
54.0
 20
110.0
 30
0.0
 11
65.0
 21
110.0
 31
0.0
  0
LINE
  8
SIZE
  6
CONTINUOUS
 62
    30
 10
52.0
 20
128.0
 30
0.0
 11
52.0
 21
323.057961
 31
0.0
  0
LINE
  8
SIZE
  6
CONTINUOUS
 62
    30
 10
0.0
 20
93.5
 30
0.0
 11
0.0
 21
323.057961
 31
0.0
  0
LINE
  8
SIZE
  6
CONTINUOUS
 62
    30
 10
64.0
 20
303.057961
 30
0.0
 11
76.0
 21
303.057961
 31
0.0
  0
LINE
  8
SIZE
  6
CONTINUOUS
 62
    30
 10
-12.0
 20
303.057961
 30
0.0
 11
-24.0
 21
303.057961
 31
0.0
  0
LINE
  8
SIZE
  6
CONTINUOUS
 62
    30
 10
-171.411124
 20
303.057961
 30
0.0
 11
0.0
 21
303.057961
 31
0.0
  0
TEXT
  8
SIZE
  6
CONTINUOUS
 62
    30
 10
-153.350553
 20
328.057961
 30
0.0
 40
64.0
  1
52
 50
0.0
 41
0.9
 51
0.0
  7
STANDARD
 71
     0
 72
     1
 11
-99.782553
 21
328.057961
 31
0.0
210
0.0
220
0.0
230
1.0
  0
LINE
  8
SIZE
  6
CONTINUOUS
 62
    30
 10
52.0
 20
303.057961
 30
0.0
 11
0.0
 21
303.057961
 31
0.0
  0
LINE
  8
SIZE
  6
CONTINUOUS
 62
    30
 10
52.0
 20
303.057961
 30
0.0
 11
0.0
 21
303.057961
 31
0.0
  0
CIRCLE
  8
SIZE
  6
CONTINUOUS
 62
    30
 10
52.0
 20
303.057961
 30
0.0
 40
6.0
  0
LINE
  8
SIZE
  6
CONTINUOUS
 62
    30
 10
52.0
 20
303.057961
 30
0.0
 11
64.0
 21
303.057961
 31
0.0
  0
CIRCLE
  8
SIZE
  6
CONTINUOUS
 62
    30
 10
0.0
 20
303.057961
 30
0.0
 40
6.0
  0
LINE
  8
SIZE
  6
CONTINUOUS
 62
    30
 10
0.0
 20
303.057961
 30
0.0
 11
-12.0
 21
303.057961
 31
0.0
  0
POINT
  8
DEFPOINTS
  6
CONTINUOUS
 62
    30
 10
52.0
 20
108.0
 30
0.0
  0
POINT
  8
DEFPOINTS
  6
CONTINUOUS
 62
    30
 10
0.0
 20
73.5
 30
0.0
  0
POINT
  8
DEFPOINTS
  6
CONTINUOUS
 62
    30
 10
0.0
 20
303.057961
 30
0.0
  0
LINE
  8
SIZE
  6
CONTINUOUS
 62
    30
 10
52.0
 20
128.0
 30
0.0
 11
52.0
 21
323.057961
 31
0.0
  0
LINE
  8
SIZE
  6
CONTINUOUS
 62
    30
 10
155.0
 20
20.0
 30
0.0
 11
155.0
 21
323.057961
 31
0.0
  0
LINE
  8
SIZE
  6
CONTINUOUS
 62
    30
 10
64.0
 20
303.057961
 30
0.0
 11
143.0
 21
303.057961
 31
0.0
  0
LINE
  8
SIZE
  6
CONTINUOUS
 62
    30
 10
355.733762
 20
303.057961
 30
0.0
 11
155.0
 21
303.057961
 31
0.0
  0
TEXT
  8
SIZE
  6
CONTINUOUS
 62
    30
 10
186.994333
 20
328.057961
 30
0.0
 40
64.0
  1
103
 50
0.0
 41
0.9
 51
0.0
  7
STANDARD
 71
     0
 72
     1
 11
262.162333
 21
328.057961
 31
0.0
210
0.0
220
0.0
230
1.0
  0
CIRCLE
  8
SIZE
  6
CONTINUOUS
 62
    30
 10
52.0
 20
303.057961
 30
0.0
 40
6.0
  0
LINE
  8
SIZE
  6
CONTINUOUS
 62
    30
 10
52.0
 20
303.057961
 30
0.0
 11
64.0
 21
303.057961
 31
0.0
  0
CIRCLE
  8
SIZE
  6
CONTINUOUS
 62
    30
 10
155.0
 20
303.057961
 30
0.0
 40
6.0
  0
LINE
  8
SIZE
  6
CONTINUOUS
 62
    30
 10
155.0
 20
303.057961
 30
0.0
 11
143.0
 21
303.057961
 31
0.0
  0
POINT
  8
DEFPOINTS
  6
CONTINUOUS
 62
    30
 10
52.0
 20
108.0
 30
0.0
  0
POINT
  8
DEFPOINTS
  6
CONTINUOUS
 62
    30
 10
155.0
 20
0.0
 30
0.0
  0
POINT
  8
DEFPOINTS
  6
CONTINUOUS
 62
    30
 10
155.0
 20
303.057961
 30
0.0
  0
LINE
  8
DETAIL
  6
CONTINUOUS
 62
     5
 10
70.176924
 20
2.657539
 30
0.0
 11
139.0
 21
51.069016
 31
0.0
  0
ARC
  8
DETAIL
  6
CONTINUOUS
 62
     5
 10
75.930302
 20
-5.52162
 30
0.0
 40
10.0
 50
125.123292
 51
146.558003
  0
LINE
  8
SIZE
  6
CONTINUOUS
 62
    30
 10
52.0
 20
-133.0
 30
0.0
 11
52.0
 21
-287.733037
 31
0.0
  0
LINE
  8
SIZE
  6
CONTINUOUS
 62
    30
 10
70.0
 20
-135.0
 30
0.0
 11
70.0
 21
-287.733037
 31
0.0
  0
LINE
  8
SIZE
  6
CONTINUOUS
 62
    30
 10
40.0
 20
-267.733037
 30
0.0
 11
28.0
 21
-267.733037
 31
0.0
  0
LINE
  8
SIZE
  6
CONTINUOUS
 62
    30
 10
82.0
 20
-267.733037
 30
0.0
 11
94.0
 21
-267.733037
 31
0.0
  0
LINE
  8
SIZE
  6
CONTINUOUS
 62
    30
 10
-121.282398
 20
-267.733037
 30
0.0
 11
52.0
 21
-267.733037
 31
0.0
  0
TEXT
  8
SIZE
  6
CONTINUOUS
 62
    30
 10
-102.947541
 20
-242.733037
 30
0.0
 40
64.0
  1
18
 50
0.0
 41
0.9
 51
0.0
  7
STANDARD
 71
     0
 72
     1
 11
-55.139541
 21
-242.733037
 31
0.0
210
0.0
220
0.0
230
1.0
  0
LINE
  8
SIZE
  6
CONTINUOUS
 62
    30
 10
52.0
 20
-267.733037
 30
0.0
 11
70.0
 21
-267.733037
 31
0.0
  0
LINE
  8
SIZE
  6
CONTINUOUS
 62
    30
 10
52.0
 20
-267.733037
 30
0.0
 11
70.0
 21
-267.733037
 31
0.0
  0
CIRCLE
  8
SIZE
  6
CONTINUOUS
 62
    30
 10
52.0
 20
-267.733037
 30
0.0
 40
6.0
  0
LINE
  8
SIZE
  6
CONTINUOUS
 62
    30
 10
52.0
 20
-267.733037
 30
0.0
 11
40.0
 21
-267.733037
 31
0.0
  0
CIRCLE
  8
SIZE
  6
CONTINUOUS
 62
    30
 10
70.0
 20
-267.733037
 30
0.0
 40
6.0
  0
LINE
  8
SIZE
  6
CONTINUOUS
 62
    30
 10
70.0
 20
-267.733037
 30
0.0
 11
82.0
 21
-267.733037
 31
0.0
  0
POINT
  8
DEFPOINTS
  6
CONTINUOUS
 62
    30
 10
52.0
 20
-113.0
 30
0.0
  0
POINT
  8
DEFPOINTS
  6
CONTINUOUS
 62
    30
 10
70.0
 20
-115.0
 30
0.0
  0
POINT
  8
DEFPOINTS
  6
CONTINUOUS
 62
    30
 10
70.0
 20
-267.733037
 30
0.0
  0
CIRCLE
  8
DETAIL
  6
CONTINUOUS
 62
     5
 10
106.201278
 20
-40.36477
 30
0.0
 40
2.504817
  0
CIRCLE
  8
DETAIL
  6
CONTINUOUS
 62
     5
 10
106.201278
 20
-27.349741
 30
0.0
 40
2.504817
  0
CIRCLE
  8
DETAIL
  6
CONTINUOUS
 62
     5
 10
117.472954
 20
-20.842036
 30
0.0
 40
2.504817
  0
CIRCLE
  8
DETAIL
  6
CONTINUOUS
 62
     5
 10
109.958504
 20
-33.857065
 30
0.0
 40
2.504817
  0
CIRCLE
  8
DETAIL
  6
CONTINUOUS
 62
     5
 10
109.958504
 20
-20.842036
 30
0.0
 40
2.504817
  0
CIRCLE
  8
DETAIL
  6
CONTINUOUS
 62
     5
 10
113.715729
 20
-27.349741
 30
0.0
 40
2.504817
  0
CIRCLE
  8
DETAIL
  6
CONTINUOUS
 62
     5
 10
91.172376
 20
-40.36477
 30
0.0
 40
2.504817
  0
CIRCLE
  8
DETAIL
  6
CONTINUOUS
 62
     5
 10
94.929602
 20
-33.857065
 30
0.0
 40
2.504817
  0
CIRCLE
  8
DETAIL
  6
CONTINUOUS
 62
     5
 10
83.657926
 20
-40.36477
 30
0.0
 40
2.504817
  0
CIRCLE
  8
DETAIL
  6
CONTINUOUS
 62
     5
 10
87.415151
 20
-33.857065
 30
0.0
 40
2.504817
  0
CIRCLE
  8
DETAIL
  6
CONTINUOUS
 62
     5
 10
76.143475
 20
-40.36477
 30
0.0
 40
2.504817
  0
CIRCLE
  8
DETAIL
  6
CONTINUOUS
 62
     5
 10
79.9007
 20
-33.857065
 30
0.0
 40
2.504817
  0
ARC
  8
DETAIL
  6
CONTINUOUS
 62
     5
 10
68.629024
 20
-40.36477
 30
0.0
 40
2.504817
 50
303.184434
 51
56.815566
  0
CIRCLE
  8
DETAIL
  6
CONTINUOUS
 62
     5
 10
72.386249
 20
-33.857065
 30
0.0
 40
2.504817
  0
CIRCLE
  8
DETAIL
  6
CONTINUOUS
 62
     5
 10
102.444053
 20
-46.872094
 30
0.0
 40
2.504817
  0
CIRCLE
  8
DETAIL
  6
CONTINUOUS
 62
     5
 10
91.172376
 20
-53.379799
 30
0.0
 40
2.504817
  0
CIRCLE
  8
DETAIL
  6
CONTINUOUS
 62
     5
 10
94.929602
 20
-46.872094
 30
0.0
 40
2.504817
  0
CIRCLE
  8
DETAIL
  6
CONTINUOUS
 62
     5
 10
83.657926
 20
-53.379799
 30
0.0
 40
2.504817
  0
CIRCLE
  8
DETAIL
  6
CONTINUOUS
 62
     5
 10
87.415151
 20
-46.872094
 30
0.0
 40
2.504817
  0
CIRCLE
  8
DETAIL
  6
CONTINUOUS
 62
     5
 10
76.143475
 20
-53.379799
 30
0.0
 40
2.504817
  0
CIRCLE
  8
DETAIL
  6
CONTINUOUS
 62
     5
 10
79.9007
 20
-46.872094
 30
0.0
 40
2.504817
  0
ARC
  8
DETAIL
  6
CONTINUOUS
 62
     5
 10
68.629024
 20
-53.379799
 30
0.0
 40
2.504817
 50
303.184434
 51
56.815566
  0
ARC
  8
DETAIL
  6
CONTINUOUS
 62
     5
 10
72.386249
 20
-46.872094
 30
0.0
 40
2.504817
 50
197.699501
 51
162.300499
  0
CIRCLE
  8
DETAIL
  6
CONTINUOUS
 62
     5
 10
98.686827
 20
-40.36477
 30
0.0
 40
2.504817
  0
CIRCLE
  8
DETAIL
  6
CONTINUOUS
 62
     5
 10
102.444053
 20
-33.857065
 30
0.0
 40
2.504817
  0
ARC
  8
DETAIL
  6
CONTINUOUS
 62
     5
 10
72.386249
 20
-59.887123
 30
0.0
 40
2.504817
 50
197.699501
 51
162.300499
  0
CIRCLE
  8
DETAIL
  6
CONTINUOUS
 62
     5
 10
98.686827
 20
-27.349741
 30
0.0
 40
2.504817
  0
CIRCLE
  8
DETAIL
  6
CONTINUOUS
 62
     5
 10
102.444053
 20
-20.842036
 30
0.0
 40
2.504817
  0
CIRCLE
  8
DETAIL
  6
CONTINUOUS
 62
     5
 10
91.172376
 20
-27.349741
 30
0.0
 40
2.504817
  0
CIRCLE
  8
DETAIL
  6
CONTINUOUS
 62
     5
 10
94.929602
 20
-20.842036
 30
0.0
 40
2.504817
  0
CIRCLE
  8
DETAIL
  6
CONTINUOUS
 62
     5
 10
83.657926
 20
-27.349741
 30
0.0
 40
2.504817
  0
CIRCLE
  8
DETAIL
  6
CONTINUOUS
 62
     5
 10
87.415151
 20
-20.842036
 30
0.0
 40
2.504817
  0
CIRCLE
  8
DETAIL
  6
CONTINUOUS
 62
     5
 10
76.143475
 20
-27.349741
 30
0.0
 40
2.504817
  0
CIRCLE
  8
DETAIL
  6
CONTINUOUS
 62
     5
 10
79.9007
 20
-20.842036
 30
0.0
 40
2.504817
  0
ARC
  8
DETAIL
  6
CONTINUOUS
 62
     5
 10
68.629024
 20
-27.349741
 30
0.0
 40
2.504817
 50
303.184434
 51
56.815566
  0
ARC
  8
DETAIL
  6
CONTINUOUS
 62
     5
 10
72.386249
 20
-20.842036
 30
0.0
 40
2.504817
 50
197.699501
 51
162.300499
  0
CIRCLE
  8
DETAIL
  6
CONTINUOUS
 62
     5
 10
106.201278
 20
24.710374
 30
0.0
 40
2.504817
  0
CIRCLE
  8
DETAIL
  6
CONTINUOUS
 62
     5
 10
106.201278
 20
-1.319684
 30
0.0
 40
2.504817
  0
CIRCLE
  8
DETAIL
  6
CONTINUOUS
 62
     5
 10
106.201278
 20
11.695345
 30
0.0
 40
2.504817
  0
CIRCLE
  8
DETAIL
  6
CONTINUOUS
 62
     5
 10
106.201278
 20
-14.334713
 30
0.0
 40
2.504817
  0
CIRCLE
  8
DETAIL
  6
CONTINUOUS
 62
     5
 10
117.472954
 20
5.188022
 30
0.0
 40
2.504817
  0
CIRCLE
  8
DETAIL
  6
CONTINUOUS
 62
     5
 10
117.472954
 20
18.203051
 30
0.0
 40
2.504817
  0
CIRCLE
  8
DETAIL
  6
CONTINUOUS
 62
     5
 10
124.987405
 20
5.188022
 30
0.0
 40
2.504817
  0
CIRCLE
  8
DETAIL
  6
CONTINUOUS
 62
     5
 10
121.23018
 20
-1.319684
 30
0.0
 40
2.504817
  0
CIRCLE
  8
DETAIL
  6
CONTINUOUS
 62
     5
 10
121.23018
 20
11.695345
 30
0.0
 40
2.504817
  0
CIRCLE
  8
DETAIL
  6
CONTINUOUS
 62
     5
 10
113.715729
 20
24.710374
 30
0.0
 40
2.504817
  0
ARC
  8
DETAIL
  6
CONTINUOUS
 62
     5
 10
109.958504
 20
31.217698
 30
0.0
 40
2.504817
 50
225.370111
 51
23.169932
  0
CIRCLE
  8
DETAIL
  6
CONTINUOUS
 62
     5
 10
109.958504
 20
5.188022
 30
0.0
 40
2.504817
  0
CIRCLE
  8
DETAIL
  6
CONTINUOUS
 62
     5
 10
113.715729
 20
-1.319684
 30
0.0
 40
2.504817
  0
CIRCLE
  8
DETAIL
  6
CONTINUOUS
 62
     5
 10
109.958504
 20
18.203051
 30
0.0
 40
2.504817
  0
CIRCLE
  8
DETAIL
  6
CONTINUOUS
 62
     5
 10
113.715729
 20
11.695345
 30
0.0
 40
2.504817
  0
CIRCLE
  8
DETAIL
  6
CONTINUOUS
 62
     5
 10
117.472954
 20
-7.827007
 30
0.0
 40
2.504817
  0
CIRCLE
  8
DETAIL
  6
CONTINUOUS
 62
     5
 10
124.987405
 20
-7.827007
 30
0.0
 40
2.504817
  0
CIRCLE
  8
DETAIL
  6
CONTINUOUS
 62
     5
 10
121.23018
 20
-14.334713
 30
0.0
 40
2.504817
  0
CIRCLE
  8
DETAIL
  6
CONTINUOUS
 62
     5
 10
109.958504
 20
-7.827007
 30
0.0
 40
2.504817
  0
CIRCLE
  8
DETAIL
  6
CONTINUOUS
 62
     5
 10
113.715729
 20
-14.334713
 30
0.0
 40
2.504817
  0
ARC
  8
DETAIL
  6
CONTINUOUS
 62
     5
 10
98.686827
 20
24.710374
 30
0.0
 40
2.504817
 50
249.68816
 51
358.851883
  0
CIRCLE
  8
DETAIL
  6
CONTINUOUS
 62
     5
 10
98.686827
 20
-1.319684
 30
0.0
 40
2.504817
  0
CIRCLE
  8
DETAIL
  6
CONTINUOUS
 62
     5
 10
102.444053
 20
5.188022
 30
0.0
 40
2.504817
  0
CIRCLE
  8
DETAIL
  6
CONTINUOUS
 62
     5
 10
91.172376
 20
-1.319684
 30
0.0
 40
2.504817
  0
CIRCLE
  8
DETAIL
  6
CONTINUOUS
 62
     5
 10
94.929602
 20
5.188022
 30
0.0
 40
2.504817
  0
CIRCLE
  8
DETAIL
  6
CONTINUOUS
 62
     5
 10
83.657926
 20
-1.319684
 30
0.0
 40
2.504817
  0
CIRCLE
  8
DETAIL
  6
CONTINUOUS
 62
     5
 10
87.415151
 20
5.188022
 30
0.0
 40
2.504817
  0
CIRCLE
  8
DETAIL
  6
CONTINUOUS
 62
     5
 10
76.143475
 20
-1.319684
 30
0.0
 40
2.504817
  0
CIRCLE
  8
DETAIL
  6
CONTINUOUS
 62
     5
 10
79.9007
 20
5.188022
 30
0.0
 40
2.504817
  0
ARC
  8
DETAIL
  6
CONTINUOUS
 62
     5
 10
68.629024
 20
-1.319684
 30
0.0
 40
2.504817
 50
197.100203
 51
92.717999
  0
ARC
  8
DETAIL
  6
CONTINUOUS
 62
     5
 10
72.386249
 20
5.188022
 30
0.0
 40
2.504817
 50
233.715549
 51
16.531035
  0
CIRCLE
  8
DETAIL
  6
CONTINUOUS
 62
     5
 10
98.686827
 20
11.695345
 30
0.0
 40
2.504817
  0
CIRCLE
  8
DETAIL
  6
CONTINUOUS
 62
     5
 10
102.444053
 20
18.203051
 30
0.0
 40
2.504817
  0
CIRCLE
  8
DETAIL
  6
CONTINUOUS
 62
     5
 10
91.172376
 20
11.695345
 30
0.0
 40
2.504817
  0
ARC
  8
DETAIL
  6
CONTINUOUS
 62
     5
 10
94.929602
 20
18.203051
 30
0.0
 40
2.504817
 50
167.98999
 51
80.550053
  0
ARC
  8
DETAIL
  6
CONTINUOUS
 62
     5
 10
83.657926
 20
11.695345
 30
0.0
 40
2.504817
 50
206.768309
 51
43.478275
  0
CIRCLE
  8
DETAIL
  6
CONTINUOUS
 62
     5
 10
98.686827
 20
-14.334713
 30
0.0
 40
2.504817
  0
CIRCLE
  8
DETAIL
  6
CONTINUOUS
 62
     5
 10
102.444053
 20
-7.827007
 30
0.0
 40
2.504817
  0
CIRCLE
  8
DETAIL
  6
CONTINUOUS
 62
     5
 10
91.172376
 20
-14.334713
 30
0.0
 40
2.504817
  0
CIRCLE
  8
DETAIL
  6
CONTINUOUS
 62
     5
 10
94.929602
 20
-7.827007
 30
0.0
 40
2.504817
  0
CIRCLE
  8
DETAIL
  6
CONTINUOUS
 62
     5
 10
83.657926
 20
-14.334713
 30
0.0
 40
2.504817
  0
CIRCLE
  8
DETAIL
  6
CONTINUOUS
 62
     5
 10
87.415151
 20
-7.827007
 30
0.0
 40
2.504817
  0
CIRCLE
  8
DETAIL
  6
CONTINUOUS
 62
     5
 10
76.143475
 20
-14.334713
 30
0.0
 40
2.504817
  0
CIRCLE
  8
DETAIL
  6
CONTINUOUS
 62
     5
 10
79.9007
 20
-7.827007
 30
0.0
 40
2.504817
  0
ARC
  8
DETAIL
  6
CONTINUOUS
 62
     5
 10
68.629024
 20
-14.334713
 30
0.0
 40
2.504817
 50
303.184434
 51
56.815566
  0
ARC
  8
DETAIL
  6
CONTINUOUS
 62
     5
 10
72.386249
 20
-7.827007
 30
0.0
 40
2.504817
 50
197.699501
 51
162.300499
  0
ARC
  8
DETAIL
  6
CONTINUOUS
 62
     5
 10
155.045209
 20
5.188022
 30
0.0
 40
2.504817
 50
98.587346
 51
268.044281
  0
CIRCLE
  8
DETAIL
  6
CONTINUOUS
 62
     5
 10
147.530758
 20
5.188022
 30
0.0
 40
2.504817
  0
CIRCLE
  8
DETAIL
  6
CONTINUOUS
 62
     5
 10
140.016307
 20
5.188022
 30
0.0
 40
2.504817
  0
CIRCLE
  8
DETAIL
  6
CONTINUOUS
 62
     5
 10
132.501856
 20
5.188022
 30
0.0
 40
2.504817
  0
CIRCLE
  8
DETAIL
  6
CONTINUOUS
 62
     5
 10
136.259082
 20
11.695345
 30
0.0
 40
2.504817
  0
CIRCLE
  8
DETAIL
  6
CONTINUOUS
 62
     5
 10
143.773532
 20
11.695345
 30
0.0
 40
2.504817
  0
CIRCLE
  8
DETAIL
  6
CONTINUOUS
 62
     5
 10
151.287983
 20
11.695345
 30
0.0
 40
2.504817
  0
CIRCLE
  8
DETAIL
  6
CONTINUOUS
 62
     5
 10
128.744631
 20
11.695345
 30
0.0
 40
2.504817
  0
CIRCLE
  8
DETAIL
  6
CONTINUOUS
 62
     5
 10
147.530758
 20
18.203051
 30
0.0
 40
2.504817
  0
CIRCLE
  8
DETAIL
  6
CONTINUOUS
 62
     5
 10
140.016307
 20
18.203051
 30
0.0
 40
2.504817
  0
CIRCLE
  8
DETAIL
  6
CONTINUOUS
 62
     5
 10
132.501856
 20
18.203051
 30
0.0
 40
2.504817
  0
CIRCLE
  8
DETAIL
  6
CONTINUOUS
 62
     5
 10
124.987405
 20
18.203051
 30
0.0
 40
2.504817
  0
ARC
  8
DETAIL
  6
CONTINUOUS
 62
     5
 10
121.23018
 20
37.725403
 30
0.0
 40
2.504817
 50
199.126071
 51
51.120513
  0
CIRCLE
  8
DETAIL
  6
CONTINUOUS
 62
     5
 10
128.744631
 20
37.725403
 30
0.0
 40
2.504817
  0
CIRCLE
  8
DETAIL
  6
CONTINUOUS
 62
     5
 10
136.259082
 20
37.725403
 30
0.0
 40
2.504817
  0
CIRCLE
  8
DETAIL
  6
CONTINUOUS
 62
     5
 10
143.773532
 20
37.725403
 30
0.0
 40
2.504817
  0
CIRCLE
  8
DETAIL
  6
CONTINUOUS
 62
     5
 10
124.987405
 20
31.217698
 30
0.0
 40
2.504817
  0
ARC
  8
DETAIL
  6
CONTINUOUS
 62
     5
 10
147.530758
 20
31.217698
 30
0.0
 40
2.504817
 50
67.739984
 51
333.929105
  0
CIRCLE
  8
DETAIL
  6
CONTINUOUS
 62
     5
 10
140.016307
 20
31.217698
 30
0.0
 40
2.504817
  0
CIRCLE
  8
DETAIL
  6
CONTINUOUS
 62
     5
 10
132.501856
 20
31.217698
 30
0.0
 40
2.504817
  0
CIRCLE
  8
DETAIL
  6
CONTINUOUS
 62
     5
 10
128.744631
 20
24.710374
 30
0.0
 40
2.504817
  0
CIRCLE
  8
DETAIL
  6
CONTINUOUS
 62
     5
 10
136.259082
 20
24.710374
 30
0.0
 40
2.504817
  0
CIRCLE
  8
DETAIL
  6
CONTINUOUS
 62
     5
 10
143.773532
 20
24.710374
 30
0.0
 40
2.504817
  0
ARC
  8
DETAIL
  6
CONTINUOUS
 62
     5
 10
151.287983
 20
24.710374
 30
0.0
 40
2.504817
 50
101.733382
 51
290.403163
  0
CIRCLE
  8
DETAIL
  6
CONTINUOUS
 62
     5
 10
117.472954
 20
31.217698
 30
0.0
 40
2.504817
  0
CIRCLE
  8
DETAIL
  6
CONTINUOUS
 62
     5
 10
121.23018
 20
24.710374
 30
0.0
 40
2.504817
  0
CIRCLE
  8
DETAIL
  6
CONTINUOUS
 62
     5
 10
140.016307
 20
44.232727
 30
0.0
 40
2.504817
  0
ARC
  8
DETAIL
  6
CONTINUOUS
 62
     5
 10
132.501856
 20
44.232727
 30
0.0
 40
2.504817
 50
167.41507
 51
82.831514
  0
ARC
  8
DETAIL
  6
CONTINUOUS
 62
     5
 10
136.259082
 20
50.740432
 30
0.0
 40
2.504817
 50
246.608167
 51
3.638417
  0
CIRCLE
  8
DETAIL
  6
CONTINUOUS
 62
     5
 10
128.744631
 20
-1.319302
 30
0.0
 40
2.504817
  0
CIRCLE
  8
DETAIL
  6
CONTINUOUS
 62
     5
 10
136.259082
 20
-1.319302
 30
0.0
 40
2.504817
  0
CIRCLE
  8
DETAIL
  6
CONTINUOUS
 62
     5
 10
143.773532
 20
-1.319302
 30
0.0
 40
2.504817
  0
CIRCLE
  8
DETAIL
  6
CONTINUOUS
 62
     5
 10
151.287983
 20
-1.319302
 30
0.0
 40
2.504817
  0
CIRCLE
  8
DETAIL
  6
CONTINUOUS
 62
     5
 10
132.501856
 20
-7.827007
 30
0.0
 40
2.504817
  0
ARC
  8
DETAIL
  6
CONTINUOUS
 62
     5
 10
155.045209
 20
-7.827007
 30
0.0
 40
2.504817
 50
94.673519
 51
255.335758
  0
CIRCLE
  8
DETAIL
  6
CONTINUOUS
 62
     5
 10
147.530758
 20
-7.827007
 30
0.0
 40
2.504817
  0
CIRCLE
  8
DETAIL
  6
CONTINUOUS
 62
     5
 10
140.016307
 20
-7.827007
 30
0.0
 40
2.504817
  0
CIRCLE
  8
DETAIL
  6
CONTINUOUS
 62
     5
 10
136.259082
 20
-14.334331
 30
0.0
 40
2.504817
  0
CIRCLE
  8
DETAIL
  6
CONTINUOUS
 62
     5
 10
143.773532
 20
-14.334331
 30
0.0
 40
2.504817
  0
CIRCLE
  8
DETAIL
  6
CONTINUOUS
 62
     5
 10
151.287983
 20
-14.334331
 30
0.0
 40
2.504817
  0
CIRCLE
  8
DETAIL
  6
CONTINUOUS
 62
     5
 10
128.744631
 20
-14.334331
 30
0.0
 40
2.504817
  0
CIRCLE
  8
DETAIL
  6
CONTINUOUS
 62
     5
 10
124.987405
 20
-7.827007
 30
0.0
 40
2.504817
  0
ARC
  8
DETAIL
  6
CONTINUOUS
 62
     5
 10
155.045209
 20
-20.841654
 30
0.0
 40
2.504817
 50
153.876951
 51
179.918791
  0
CIRCLE
  8
DETAIL
  6
CONTINUOUS
 62
     5
 10
147.530758
 20
-20.841654
 30
0.0
 40
2.504817
  0
CIRCLE
  8
DETAIL
  6
CONTINUOUS
 62
     5
 10
140.016307
 20
-20.841654
 30
0.0
 40
2.504817
  0
CIRCLE
  8
DETAIL
  6
CONTINUOUS
 62
     5
 10
132.501856
 20
-20.841654
 30
0.0
 40
2.504817
  0
CIRCLE
  8
DETAIL
  6
CONTINUOUS
 62
     5
 10
124.987405
 20
-20.842036
 30
0.0
 40
2.504817
  0
CIRCLE
  8
DETAIL
  6
CONTINUOUS
 62
     5
 10
128.744631
 20
-27.34936
 30
0.0
 40
2.504817
  0
CIRCLE
  8
DETAIL
  6
CONTINUOUS
 62
     5
 10
132.501856
 20
-33.856683
 30
0.0
 40
2.504817
  0
ARC
  8
DETAIL
  6
CONTINUOUS
 62
     5
 10
147.530758
 20
-33.856683
 30
0.0
 40
2.504817
 50
50.748666
 51
264.397048
  0
CIRCLE
  8
DETAIL
  6
CONTINUOUS
 62
     5
 10
140.016307
 20
-33.856683
 30
0.0
 40
2.504817
  0
CIRCLE
  8
DETAIL
  6
CONTINUOUS
 62
     5
 10
143.773532
 20
-27.34936
 30
0.0
 40
2.504817
  0
ARC
  8
DETAIL
  6
CONTINUOUS
 62
     5
 10
151.287983
 20
-27.34936
 30
0.0
 40
2.504817
 50
85.59278
 51
239.043011
  0
CIRCLE
  8
DETAIL
  6
CONTINUOUS
 62
     5
 10
136.259082
 20
-27.34936
 30
0.0
 40
2.504817
  0
CIRCLE
  8
DETAIL
  6
CONTINUOUS
 62
     5
 10
124.987405
 20
-33.857065
 30
0.0
 40
2.504817
  0
CIRCLE
  8
DETAIL
  6
CONTINUOUS
 62
     5
 10
128.744631
 20
-27.34936
 30
0.0
 40
2.504817
  0
CIRCLE
  8
DETAIL
  6
CONTINUOUS
 62
     5
 10
121.23018
 20
-27.349741
 30
0.0
 40
2.504817
  0
CIRCLE
  8
DETAIL
  6
CONTINUOUS
 62
     5
 10
117.472954
 20
-33.857065
 30
0.0
 40
2.504817
  0
CIRCLE
  8
DETAIL
  6
CONTINUOUS
 62
     5
 10
109.958504
 20
-59.887123
 30
0.0
 40
2.504817
  0
CIRCLE
  8
DETAIL
  6
CONTINUOUS
 62
     5
 10
113.715729
 20
-53.379799
 30
0.0
 40
2.504817
  0
CIRCLE
  8
DETAIL
  6
CONTINUOUS
 62
     5
 10
121.23018
 20
-53.379417
 30
0.0
 40
2.504817
  0
CIRCLE
  8
DETAIL
  6
CONTINUOUS
 62
     5
 10
117.472954
 20
-59.887123
 30
0.0
 40
2.504817
  0
CIRCLE
  8
DETAIL
  6
CONTINUOUS
 62
     5
 10
128.744631
 20
-53.379417
 30
0.0
 40
2.504817
  0
ARC
  8
DETAIL
  6
CONTINUOUS
 62
     5
 10
136.259082
 20
-53.379417
 30
0.0
 40
2.504817
 50
33.525579
 51
252.414972
  0
ARC
  8
DETAIL
  6
CONTINUOUS
 62
     5
 10
132.501856
 20
-59.886741
 30
0.0
 40
2.504817
 50
57.365468
 51
219.054564
  0
CIRCLE
  8
DETAIL
  6
CONTINUOUS
 62
     5
 10
124.987405
 20
-59.886741
 30
0.0
 40
2.504817
  0
CIRCLE
  8
DETAIL
  6
CONTINUOUS
 62
     5
 10
121.23018
 20
-53.379417
 30
0.0
 40
2.504817
  0
CIRCLE
  8
DETAIL
  6
CONTINUOUS
 62
     5
 10
117.472954
 20
-46.872094
 30
0.0
 40
2.504817
  0
CIRCLE
  8
DETAIL
  6
CONTINUOUS
 62
     5
 10
124.987405
 20
-46.871712
 30
0.0
 40
2.504817
  0
CIRCLE
  8
DETAIL
  6
CONTINUOUS
 62
     5
 10
132.501856
 20
-46.871712
 30
0.0
 40
2.504817
  0
ARC
  8
DETAIL
  6
CONTINUOUS
 62
     5
 10
140.016307
 20
-46.871712
 30
0.0
 40
2.504817
 50
22.603775
 51
273.05635
  0
CIRCLE
  8
DETAIL
  6
CONTINUOUS
 62
     5
 10
121.23018
 20
-40.364389
 30
0.0
 40
2.504817
  0
ARC
  8
DETAIL
  6
CONTINUOUS
 62
     5
 10
143.773532
 20
-40.364389
 30
0.0
 40
2.504817
 50
28.522838
 51
276.919146
  0
CIRCLE
  8
DETAIL
  6
CONTINUOUS
 62
     5
 10
136.259082
 20
-40.364389
 30
0.0
 40
2.504817
  0
CIRCLE
  8
DETAIL
  6
CONTINUOUS
 62
     5
 10
128.744631
 20
-40.364389
 30
0.0
 40
2.504817
  0
CIRCLE
  8
DETAIL
  6
CONTINUOUS
 62
     5
 10
113.715729
 20
-40.36477
 30
0.0
 40
2.504817
  0
CIRCLE
  8
DETAIL
  6
CONTINUOUS
 62
     5
 10
109.958504
 20
-46.872094
 30
0.0
 40
2.504817
  0
CIRCLE
  8
DETAIL
  6
CONTINUOUS
 62
     5
 10
106.201278
 20
-53.379799
 30
0.0
 40
2.504817
  0
CIRCLE
  8
DETAIL
  6
CONTINUOUS
 62
     5
 10
98.686827
 20
-53.379799
 30
0.0
 40
2.504817
  0
CIRCLE
  8
DETAIL
  6
CONTINUOUS
 62
     5
 10
109.958504
 20
-59.887123
 30
0.0
 40
2.504817
  0
CIRCLE
  8
DETAIL
  6
CONTINUOUS
 62
     5
 10
79.9007
 20
-59.887123
 30
0.0
 40
2.504817
  0
CIRCLE
  8
DETAIL
  6
CONTINUOUS
 62
     5
 10
87.415151
 20
-59.887123
 30
0.0
 40
2.504817
  0
CIRCLE
  8
DETAIL
  6
CONTINUOUS
 62
     5
 10
94.929602
 20
-59.887123
 30
0.0
 40
2.504817
  0
CIRCLE
  8
DETAIL
  6
CONTINUOUS
 62
     5
 10
102.444053
 20
-59.887123
 30
0.0
 40
2.504817
  0
CIRCLE
  8
DETAIL
  6
CONTINUOUS
 62
     5
 10
109.958504
 20
-72.902152
 30
0.0
 40
2.504817
  0
CIRCLE
  8
DETAIL
  6
CONTINUOUS
 62
     5
 10
113.715729
 20
-66.394828
 30
0.0
 40
2.504817
  0
ARC
  8
DETAIL
  6
CONTINUOUS
 62
     5
 10
128.744631
 20
-66.394446
 30
0.0
 40
2.504817
 50
105.202413
 51
162.015183
  0
CIRCLE
  8
DETAIL
  6
CONTINUOUS
 62
     5
 10
121.23018
 20
-66.394446
 30
0.0
 40
2.504817
  0
ARC
  8
DETAIL
  6
CONTINUOUS
 62
     5
 10
117.472954
 20
-72.902152
 30
0.0
 40
2.504817
 50
36.997896
 51
213.974746
  0
ARC
  8
DETAIL
  6
CONTINUOUS
 62
     5
 10
94.929602
 20
-85.917181
 30
0.0
 40
2.504817
 50
51.299641
 51
166.518223
  0
ARC
  8
DETAIL
  6
CONTINUOUS
 62
     5
 10
87.415151
 20
-85.917181
 30
0.0
 40
2.504817
 50
355.64947
 51
212.971225
  0
ARC
  8
DETAIL
  6
CONTINUOUS
 62
     5
 10
79.9007
 20
-85.917181
 30
0.0
 40
2.504817
 50
297.522916
 51
261.508848
  0
CIRCLE
  8
DETAIL
  6
CONTINUOUS
 62
     5
 10
98.686827
 20
-79.409857
 30
0.0
 40
2.504817
  0
ARC
  8
DETAIL
  6
CONTINUOUS
 62
     5
 10
106.201278
 20
-79.409857
 30
0.0
 40
2.504817
 50
21.799471
 51
212.476654
  0
ARC
  8
DETAIL
  6
CONTINUOUS
 62
     5
 10
72.386249
 20
-85.917181
 30
0.0
 40
2.504817
 50
197.699501
 51
162.300499
  0
CIRCLE
  8
DETAIL
  6
CONTINUOUS
 62
     5
 10
98.686827
 20
-66.394828
 30
0.0
 40
2.504817
  0
ARC
  8
DETAIL
  6
CONTINUOUS
 62
     5
 10
72.386249
 20
-72.902152
 30
0.0
 40
2.504817
 50
197.699501
 51
162.300499
  0
ARC
  8
DETAIL
  6
CONTINUOUS
 62
     5
 10
68.629024
 20
-79.409857
 30
0.0
 40
2.504817
 50
303.184434
 51
56.815566
  0
CIRCLE
  8
DETAIL
  6
CONTINUOUS
 62
     5
 10
79.9007
 20
-72.902152
 30
0.0
 40
2.504817
  0
CIRCLE
  8
DETAIL
  6
CONTINUOUS
 62
     5
 10
76.143475
 20
-79.409857
 30
0.0
 40
2.504817
  0
CIRCLE
  8
DETAIL
  6
CONTINUOUS
 62
     5
 10
87.415151
 20
-72.902152
 30
0.0
 40
2.504817
  0
CIRCLE
  8
DETAIL
  6
CONTINUOUS
 62
     5
 10
83.657926
 20
-79.409857
 30
0.0
 40
2.504817
  0
CIRCLE
  8
DETAIL
  6
CONTINUOUS
 62
     5
 10
94.929602
 20
-72.902152
 30
0.0
 40
2.504817
  0
CIRCLE
  8
DETAIL
  6
CONTINUOUS
 62
     5
 10
91.172376
 20
-79.409857
 30
0.0
 40
2.504817
  0
CIRCLE
  8
DETAIL
  6
CONTINUOUS
 62
     5
 10
102.444053
 20
-72.902152
 30
0.0
 40
2.504817
  0
ARC
  8
DETAIL
  6
CONTINUOUS
 62
     5
 10
68.629024
 20
-66.394828
 30
0.0
 40
2.504817
 50
303.184434
 51
56.815566
  0
CIRCLE
  8
DETAIL
  6
CONTINUOUS
 62
     5
 10
76.143475
 20
-66.394828
 30
0.0
 40
2.504817
  0
CIRCLE
  8
DETAIL
  6
CONTINUOUS
 62
     5
 10
83.657926
 20
-66.394828
 30
0.0
 40
2.504817
  0
CIRCLE
  8
DETAIL
  6
CONTINUOUS
 62
     5
 10
91.172376
 20
-66.394828
 30
0.0
 40
2.504817
  0
CIRCLE
  8
DETAIL
  6
CONTINUOUS
 62
     5
 10
106.201278
 20
-66.394828
 30
0.0
 40
2.504817
  0
POINT
  8
ARRANGE
  6
CONTINUOUS
 62
     1
 10
0.0
 20
0.0
 30
0.0
 39
50.0
  0
CIRCLE
  8
ARRANGE
  6
CONTINUOUS
 62
     1
 39
50.0
 10
0.0
 20
0.0
 30
0.0
 40
40.0
  0
ARC
  8
DETAIL
  6
CONTINUOUS
 62
     5
 39
50.0
 10
67.5
 20
-2.5
 30
0.0
 40
89.534909
 50
271.600025
 51
91.600025
  0
LINE
  8
SIZE
  6
CONTINUOUS
 62
    30
 10
85.0
 20
87.0
 30
0.0
 11
330.132363
 21
87.0
 31
0.0
  0
LINE
  8
SIZE
  6
CONTINUOUS
 62
    30
 10
90.0
 20
-92.0
 30
0.0
 11
330.132363
 21
-92.0
 31
0.0
  0
LINE
  8
SIZE
  6
CONTINUOUS
 62
    30
 10
310.132363
 20
75.0
 30
0.0
 11
310.132363
 21
-80.0
 31
0.0
  0
LINE
  8
SIZE
  6
CONTINUOUS
 62
    30
 10
310.132363
 20
-345.82253
 30
0.0
 11
310.132363
 21
-92.0
 31
0.0
  0
TEXT
  8
SIZE
  6
CONTINUOUS
 62
    30
 10
285.132363
 20
-336.717387
 30
0.0
 40
64.0
  1
φ179
 50
90.0
 41
0.9
 51
0.0
  7
STANDARD
 71
     0
 72
     1
 11
285.132363
 21
-227.565387
 31
0.0
210
0.0
220
0.0
230
1.0
  0
CIRCLE
  8
SIZE
  6
CONTINUOUS
 62
    30
 10
310.132363
 20
87.0
 30
0.0
 40
6.0
  0
LINE
  8
SIZE
  6
CONTINUOUS
 62
    30
 10
310.132363
 20
87.0
 30
0.0
 11
310.132363
 21
75.0
 31
0.0
  0
CIRCLE
  8
SIZE
  6
CONTINUOUS
 62
    30
 10
310.132363
 20
-92.0
 30
0.0
 40
6.0
  0
LINE
  8
SIZE
  6
CONTINUOUS
 62
    30
 10
310.132363
 20
-92.0
 30
0.0
 11
310.132363
 21
-80.0
 31
0.0
  0
POINT
  8
DEFPOINTS
  6
CONTINUOUS
 62
    30
 10
65.0
 20
87.0
 30
0.0
  0
POINT
  8
DEFPOINTS
  6
CONTINUOUS
 62
    30
 10
70.0
 20
-92.0
 30
0.0
  0
POINT
  8
DEFPOINTS
  6
CONTINUOUS
 62
    30
 10
310.132363
 20
-92.0
 30
0.0
  0
LINE
  8
SIZE
  6
CONTINUOUS
 62
    30
 39
50.0
 10
310.132363
 20
-92.0
 30
0.0
 11
310.132363
 21
-318.888562
 31
0.0
  0
ARC
  8
OUTLINE
  6
CONTINUOUS
 62
     3
 39
50.0
 10
67.5
 20
-2.5
 30
0.0
 40
89.534909
 50
271.600025
 51
91.600025
  0
LINE
  8
SIZE
  6
CONTINUOUS
 62
    30
 10
85.0
 20
110.0
 30
0.0
 11
486.730322
 21
110.0
 31
0.0
  0
LINE
  8
SIZE
  6
CONTINUOUS
 62
    30
 10
177.0
 20
0.0
 30
0.0
 11
486.730322
 21
0.0
 31
0.0
  0
LINE
  8
SIZE
  6
CONTINUOUS
 62
    30
 10
466.730322
 20
98.0
 30
0.0
 11
466.730322
 21
12.0
 31
0.0
  0
TEXT
  8
SIZE
  6
CONTINUOUS
 62
    30
 10
442.382435
 20
138.100142
 30
0.0
 40
64.0
  1
110
 50
90.0
 41
0.9
 51
0.0
  7
STANDARD
 71
     0
 72
     1
 11
442.382435
 21
207.508142
 31
0.0
210
0.0
220
0.0
230
1.0
  0
CIRCLE
  8
SIZE
  6
CONTINUOUS
 62
    30
 10
466.730322
 20
110.0
 30
0.0
 40
6.0
  0
LINE
  8
SIZE
  6
CONTINUOUS
 62
    30
 10
466.730322
 20
110.0
 30
0.0
 11
466.730322
 21
98.0
 31
0.0
  0
CIRCLE
  8
SIZE
  6
CONTINUOUS
 62
    30
 10
466.730322
 20
0.0
 30
0.0
 40
6.0
  0
LINE
  8
SIZE
  6
CONTINUOUS
 62
    30
 10
466.730322
 20
0.0
 30
0.0
 11
466.730322
 21
12.0
 31
0.0
  0
POINT
  8
DEFPOINTS
  6
CONTINUOUS
 62
    30
 10
65.0
 20
110.0
 30
0.0
  0
POINT
  8
DEFPOINTS
  6
CONTINUOUS
 62
    30
 10
157.0
 20
0.0
 30
0.0
  0
POINT
  8
DEFPOINTS
  6
CONTINUOUS
 62
    30
 10
466.730322
 20
0.0
 30
0.0
  0
LINE
  8
SIZE
  6
CONTINUOUS
 62
    30
 10
177.0
 20
0.0
 30
0.0
 11
486.730322
 21
0.0
 31
0.0
  0
LINE
  8
SIZE
  6
CONTINUOUS
 62
    30
 10
90.0
 20
-115.0
 30
0.0
 11
486.730322
 21
-115.0
 31
0.0
  0
LINE
  8
SIZE
  6
CONTINUOUS
 62
    30
 10
466.730322
 20
-12.0
 30
0.0
 11
466.730322
 21
-103.0
 31
0.0
  0
LINE
  8
SIZE
  6
CONTINUOUS
 62
    30
 10
466.730322
 20
-315.007556
 30
0.0
 11
466.730322
 21
-115.0
 31
0.0
  0
TEXT
  8
SIZE
  6
CONTINUOUS
 62
    30
 10
441.730322
 20
-295.753842
 30
0.0
 40
64.0
  1
115
 50
90.0
 41
0.9
 51
0.0
  7
STANDARD
 71
     0
 72
     1
 11
441.730322
 21
-226.921842
 31
0.0
210
0.0
220
0.0
230
1.0
  0
CIRCLE
  8
SIZE
  6
CONTINUOUS
 62
    30
 10
466.730322
 20
0.0
 30
0.0
 40
6.0
  0
LINE
  8
SIZE
  6
CONTINUOUS
 62
    30
 10
466.730322
 20
0.0
 30
0.0
 11
466.730322
 21
-12.0
 31
0.0
  0
CIRCLE
  8
SIZE
  6
CONTINUOUS
 62
    30
 10
466.730322
 20
-115.0
 30
0.0
 40
6.0
  0
LINE
  8
SIZE
  6
CONTINUOUS
 62
    30
 10
466.730322
 20
-115.0
 30
0.0
 11
466.730322
 21
-103.0
 31
0.0
  0
POINT
  8
DEFPOINTS
  6
CONTINUOUS
 62
    30
 10
157.0
 20
0.0
 30
0.0
  0
POINT
  8
DEFPOINTS
  6
CONTINUOUS
 62
    30
 10
70.0
 20
-115.0
 30
0.0
  0
POINT
  8
DEFPOINTS
  6
CONTINUOUS
 62
    30
 10
466.730322
 20
-115.0
 30
0.0
  0
LINE
  8
SIZE
  6
CONTINUOUS
 62
    30
 39
50.0
 10
466.730322
 20
110.0
 30
0.0
 11
466.730322
 21
277.658121
 31
0.0
  0
ENDSEC
  0
EOF
