  0
SECTION
  2
HEADER
  9
$ACADVER
  1
AC1009
  9
$INSBASE
 10
0.0
 20
0.0
 30
0.0
  9
$EXTMIN
 10
-399.25688014977823
 20
-370.74278605955618
 30
-0.0015257624927045
  9
$EXTMAX
 10
1098.522960870203
 20
508.2092364414238
 30
50.001525995323327
  9
$LIMMIN
 10
-2970.0
 20
-2100.0
  9
$LIMMAX
 10
2970.0
 20
2100.0
  9
$ORTHOMODE
 70
     1
  9
$REGENMODE
 70
     0
  9
$FILLMODE
 70
     1
  9
$QTEXTMODE
 70
     0
  9
$MIRRTEXT
 70
     0
  9
$DRAGMODE
 70
     2
  9
$LTSCALE
 40
20.0
  9
$OSMODE
 70
    37
  9
$ATTMODE
 70
     1
  9
$TEXTSIZE
 40
64.0
  9
$TRACEWID
 40
0.05
  9
$TEXTSTYLE
  7
STANDARD
  9
$CLAYER
  8
SIZE
  9
$CELTYPE
  6
CONTINUOUS
  9
$CECOLOR
 62
    30
  9
$DIMSCALE
 40
1.0
  9
$DIMASZ
 40
12.0
  9
$DIMEXO
 40
20.0
  9
$DIMDLI
 40
200.0
  9
$DIMRND
 40
0.0
  9
$DIMDLE
 40
0.0
  9
$DIMEXE
 40
20.0
  9
$DIMTP
 40
0.0
  9
$DIMTM
 40
0.0
  9
$DIMTXT
 40
64.0
  9
$DIMCEN
 40
0.09
  9
$DIMTSZ
 40
0.0
  9
$DIMTOL
 70
     0
  9
$DIMLIM
 70
     0
  9
$DIMTIH
 70
     0
  9
$DIMTOH
 70
     0
  9
$DIMSE1
 70
     0
  9
$DIMSE2
 70
     0
  9
$DIMTAD
 70
     1
  9
$DIMZIN
 70
     8
  9
$DIMBLK
  1
DOT1
  9
$DIMASO
 70
     1
  9
$DIMSHO
 70
     0
  9
$DIMPOST
  1

  9
$DIMAPOST
  1

  9
$DIMALT
 70
     0
  9
$DIMALTD
 70
     2
  9
$DIMALTF
 40
25.399999999999999
  9
$DIMLFAC
 40
1.0
  9
$DIMTOFL
 70
     1
  9
$DIMTVP
 40
0.0
  9
$DIMTIX
 70
     1
  9
$DIMSOXD
 70
     0
  9
$DIMSAH
 70
     1
  9
$DIMBLK1
  1
ORIGIN
  9
$DIMBLK2
  1
ORIGIN
  9
$DIMSTYLE
  2
STANDARD
  9
$DIMCLRD
 70
     7
  9
$DIMCLRE
 70
     7
  9
$DIMCLRT
 70
     7
  9
$DIMTFAC
 40
1.0
  9
$DIMGAP
 40
25.0
  9
$LUNITS
 70
     2
  9
$LUPREC
 70
     4
  9
$SKETCHINC
 40
0.1
  9
$FILLETRAD
 40
4.0
  9
$AUNITS
 70
     1
  9
$AUPREC
 70
     3
  9
$MENU
  1
ACAD
  9
$ELEVATION
 40
0.0
  9
$PELEVATION
 40
0.0
  9
$THICKNESS
 40
50.0
  9
$LIMCHECK
 70
     0
  9
$BLIPMODE
 70
     0
  9
$CHAMFERA
 40
0.0
  9
$CHAMFERB
 40
0.0
  9
$SKPOLY
 70
     0
  9
$TDCREATE
 40
2453018.4744657059
  9
$TDUPDATE
 40
2454809.6813669908
  9
$TDINDWG
 40
0.0328681019
  9
$TDUSRTIMER
 40
0.0328681019
  9
$USRTIMER
 70
     1
  9
$ANGBASE
 50
0.0
  9
$ANGDIR
 70
     0
  9
$PDMODE
 70
     3
  9
$PDSIZE
 40
-2.0
  9
$PLINEWID
 40
0.0
  9
$COORDS
 70
     0
  9
$SPLFRAME
 70
     0
  9
$SPLINETYPE
 70
     6
  9
$SPLINESEGS
 70
     8
  9
$ATTDIA
 70
     0
  9
$ATTREQ
 70
     1
  9
$HANDLING
 70
     1
  9
$HANDSEED
  5
2FD
  9
$SURFTAB1
 70
     6
  9
$SURFTAB2
 70
     6
  9
$SURFTYPE
 70
     6
  9
$SURFU
 70
     6
  9
$SURFV
 70
     6
  9
$UCSNAME
  2

  9
$UCSORG
 10
0.0
 20
0.0
 30
0.0
  9
$UCSXDIR
 10
1.0
 20
0.0
 30
0.0
  9
$UCSYDIR
 10
0.0
 20
1.0
 30
0.0
  9
$PUCSNAME
  2

  9
$PUCSORG
 10
0.0
 20
0.0
 30
0.0
  9
$PUCSXDIR
 10
1.0
 20
0.0
 30
0.0
  9
$PUCSYDIR
 10
0.0
 20
1.0
 30
0.0
  9
$USERI1
 70
     0
  9
$USERI2
 70
     0
  9
$USERI3
 70
     0
  9
$USERI4
 70
     0
  9
$USERI5
 70
     0
  9
$USERR1
 40
20.0
  9
$USERR2
 40
0.0
  9
$USERR3
 40
0.0
  9
$USERR4
 40
0.0
  9
$USERR5
 40
0.0
  9
$WORLDVIEW
 70
     1
  9
$SHADEDGE
 70
     3
  9
$SHADEDIF
 70
    70
  9
$TILEMODE
 70
     1
  9
$MAXACTVP
 70
    48
  9
$PLIMCHECK
 70
     0
  9
$PEXTMIN
 10
-1.0000000000000000E+020
 20
-1.0000000000000000E+020
 30
-1.0000000000000000E+020
  9
$PEXTMAX
 10
1.0000000000000000E+020
 20
1.0000000000000000E+020
 30
1.0000000000000000E+020
  9
$PLIMMIN
 10
0.0
 20
0.0
  9
$PLIMMAX
 10
12.0
 20
9.0
  9
$UNITMODE
 70
     0
  9
$VISRETAIN
 70
     0
  9
$PLINEGEN
 70
     0
  9
$PSLTSCALE
 70
     0
  0
ENDSEC
  0
SECTION
  2
TABLES
  0
TABLE
  2
VPORT
 70
     1
  0
VPORT
  2
*ACTIVE
 70
     0
 10
0.0
 20
0.0
 11
1.0
 21
1.0
 12
364.7834993520874
 22
43.417873209782208
 13
0.0
 23
0.0
 14
1.0
 24
1.0
 15
0.0
 25
0.0
 16
0.0
 26
0.0
 36
1.0
 17
0.0
 27
0.0
 37
0.0
 40
1292.64715479957
 41
1.3098995695839311
 42
50.0
 43
0.0
 44
0.0
 50
0.0
 51
0.0
 71
     0
 72
  1000
 73
     1
 74
     0
 75
     0
 76
     0
 77
     0
 78
     0
  0
ENDTAB
  0
TABLE
  2
LTYPE
 70
     2
  0
LTYPE
  2
CONTINUOUS
 70
     0
  3
実線
 72
    65
 73
     0
 40
0.0
  0
LTYPE
  2
DASHDOT
 70
     0
  3
____ _ ____ _ ____ _ ____ _ ____ _ ____ _ ____
 72
    65
 73
     4
 40
5.5
 49
4.0
 49
-0.6
 49
0.3
 49
-0.6
  0
ENDTAB
  0
TABLE
  2
LAYER
 70
    12
  0
LAYER
  2
0
 70
     0
 62
     7
  6
CONTINUOUS
  0
LAYER
  2
SIZE
 70
     0
 62
    30
  6
CONTINUOUS
  0
LAYER
  2
BASIS
 70
     0
 62
     6
  6
DASHDOT
  0
LAYER
  2
OUTLINE
 70
     0
 62
     3
  6
CONTINUOUS
  0
LAYER
  2
DETAIL
 70
     0
 62
     5
  6
CONTINUOUS
  0
LAYER
  2
ARRANGE
 70
     0
 62
     1
  6
CONTINUOUS
  0
LAYER
  2
DEFPOINTS
 70
     0
 62
     7
  6
CONTINUOUS
  0
LAYER
  2
ETC
 70
     0
 62
    61
  6
CONTINUOUS
  0
LAYER
  2
FIX
 70
     0
 62
    11
  6
CONTINUOUS
  0
LAYER
  2
NOTE
 70
     0
 62
     4
  6
CONTINUOUS
  0
LAYER
  2
SERVICESPACE
 70
     0
 62
     2
  6
DASHDOT
  0
LAYER
  2
SYMBOLLINE
 70
     0
 62
    15
  6
CONTINUOUS
  0
ENDTAB
  0
TABLE
  2
STYLE
 70
     2
  0
STYLE
  2
STANDARD
 70
     0
 40
64.0
 41
0.9
 50
0.0
 71
     0
 42
64.0
  3
SIMPLEX.shx
  4
BIGFONT.shx
  0
STYLE
  2
ANNOTATIVE
 70
     0
 40
0.0
 41
1.0
 50
0.0
 71
     0
 42
0.2
  3
txt
  4

  0
ENDTAB
  0
TABLE
  2
VIEW
 70
     1
  0
VIEW
  2
ALL
 70
     0
 40
4282.6198079999967
 10
0.0
 20
41.309903999999989
 41
5940.0
 11
0.0
 21
0.0
 31
1.0
 12
0.0
 22
0.0
 32
0.0
 42
50.0
 43
0.0
 44
0.0
 50
0.0
 71
     0
  0
ENDTAB
  0
TABLE
  2
UCS
 70
     0
  0
ENDTAB
  0
TABLE
  2
APPID
 70
     4
  0
APPID
  2
ACAD
 70
     0
  0
APPID
  2
ACADANNOTATIVE
 70
     0
  0
APPID
  2
ACAD_MLEADERVER
 70
     0
  0
APPID
  2
AUTOCAD_POSTSCRIPT_FIGURE
 70
     0
  0
ENDTAB
  0
TABLE
  2
DIMSTYLE
 70
     2
  0
DIMSTYLE
  2
STANDARD
 70
     0
  3

  4

  5

  6

  7

 40
1.0
 41
0.18
 42
0.0625
 43
0.38
 44
0.18
 45
0.0
 46
0.0
 47
0.0
 48
0.0
140
0.18
141
0.09
142
0.0
143
25.399999999999999
144
1.0
145
0.0
146
1.0
147
0.09
 71
     0
 72
     0
 73
     1
 74
     1
 75
     0
 76
     0
 77
     0
 78
     0
170
     0
171
     2
172
     0
173
     0
174
     0
175
     0
176
     7
177
     7
178
     7
  0
DIMSTYLE
  2
ANNOTATIVE
 70
     0
  3

  4

  5

  6

  7

 40
1.0
 41
0.18
 42
0.0625
 43
0.38
 44
0.18
 45
0.0
 46
0.0
 47
0.0
 48
0.0
140
0.18
141
0.09
142
0.0
143
25.399999999999999
144
1.0
145
0.0
146
1.0
147
0.09
 71
     0
 72
     0
 73
     1
 74
     1
 75
     0
 76
     0
 77
     0
 78
     0
170
     0
171
     2
172
     0
173
     0
174
     0
175
     0
176
     0
177
     0
178
     0
  0
ENDTAB
  0
ENDSEC
  0
SECTION
  2
BLOCKS
  0
BLOCK
  8
0
  2
$MODEL_SPACE
 70
     0
 10
0.0
 20
0.0
 30
0.0
  3
$MODEL_SPACE
  1

  0
ENDBLK
  5
2A9
  8
0
  0
BLOCK
 67
     1
  8
0
  2
$PAPER_SPACE
 70
     0
 10
0.0
 20
0.0
 30
0.0
  3
$PAPER_SPACE
  1

  0
ENDBLK
  5
2A5
 67
     1
  8
0
  0
BLOCK
  8
0
  2
DOT1
 70
     0
 10
0.0
 20
0.0
 30
0.0
  3
DOT1
  1

  0
CIRCLE
  5
15A
  8
SIZE
  6
CONTINUOUS
 62
     7
 10
0.0
 20
0.0
 30
0.0
 40
3.0
  0
ENDBLK
  5
15B
  8
0
  0
BLOCK
  8
0
  2
_ORIGIN
 70
     0
 10
0.0
 20
0.0
 30
0.0
  3
_ORIGIN
  1

  0
CIRCLE
  5
15E
  8
0
  6
CONTINUOUS
 62
     7
 10
0.0
 20
0.0
 30
0.0
 40
0.5
  0
LINE
  5
15F
  8
0
  6
CONTINUOUS
 62
     7
 10
0.0
 20
0.0
 30
0.0
 11
-1.0
 21
0.0
 31
0.0
  0
ENDBLK
  5
160
  8
0
  0
ENDSEC
  0
SECTION
  2
ENTITIES
  0
LINE
  5
161
  8
DETAIL
  6
CONTINUOUS
 62
     5
 10
-73.5
 20
0.0
 30
0.0
 11
-73.5
 21
52.0
 31
0.0
  0
LINE
  5
162
  8
DETAIL
  6
CONTINUOUS
 62
     5
 10
73.5
 20
0.0
 30
0.0
 11
73.5
 21
52.0
 31
0.0
  0
LINE
  5
163
  8
BASIS
  6
DASHDOT
 62
     6
 10
0.0
 20
85.616950999999986
 30
0.0
 11
0.0
 21
-149.008836
 31
0.0
  0
LINE
  5
164
  8
DETAIL
  6
CONTINUOUS
 62
     5
 10
-110.0
 20
-13.0
 30
0.0
 11
110.0
 21
-13.0
 31
0.0
  0
LINE
  5
165
  8
DETAIL
  6
CONTINUOUS
 62
     5
 10
-115.0
 20
-2.0
 30
0.0
 11
-115.0
 21
-18.0
 31
0.0
  0
LINE
  5
166
  8
DETAIL
  6
CONTINUOUS
 62
     5
 10
115.0
 20
-2.0
 30
0.0
 11
115.0
 21
-18.0
 31
0.0
  0
LINE
  5
167
  8
DETAIL
  6
CONTINUOUS
 62
     5
 10
-113.0
 20
0.0
 30
0.0
 11
113.0
 21
0.0
 31
0.0
  0
ARC
  5
168
  8
DETAIL
  6
CONTINUOUS
 62
     5
 10
-113.0
 20
-2.0
 30
0.0
 40
2.0
 50
90.0
 51
180.0
  0
ARC
  5
169
  8
DETAIL
  6
CONTINUOUS
 62
     5
 10
113.0
 20
-2.0
 30
0.0
 40
2.0
 50
0.0
 51
90.0
  0
LINE
  5
16A
  8
DETAIL
  6
CONTINUOUS
 62
     5
 10
-110.0
 20
-2.0
 30
0.0
 11
-110.0
 21
-13.0
 31
0.0
  0
ARC
  5
16B
  8
DETAIL
  6
CONTINUOUS
 62
     5
 10
-108.0
 20
-2.0
 30
0.0
 40
2.0
 50
90.0
 51
180.0
  0
ARC
  5
16C
  8
DETAIL
  6
CONTINUOUS
 62
     5
 10
108.0
 20
-2.0
 30
0.0
 40
2.0
 50
0.0
 51
90.0
  0
LINE
  5
16D
  8
DETAIL
  6
CONTINUOUS
 62
     5
 10
110.0
 20
-2.0
 30
0.0
 11
110.0
 21
-13.0
 31
0.0
  0
CIRCLE
  5
16E
  8
ARRANGE
  6
CONTINUOUS
 62
     1
 39
50.0
 10
0.0
 20
0.0
 30
0.0
 40
40.0
  0
POINT
  5
16F
  8
ARRANGE
  6
CONTINUOUS
 62
     1
 10
0.0
 20
0.0
 30
0.0
 39
50.0
  0
ARC
  5
170
  8
DETAIL
  6
CONTINUOUS
 62
     5
 10
0.0
 20
-13.498611
 30
0.0
 40
89.501389000000003
 50
179.68080399999991
 51
0.319196
  0
LINE
  5
171
  8
DETAIL
  6
CONTINUOUS
 62
     5
 10
-73.5
 20
52.0
 30
0.0
 11
73.5
 21
52.0
 31
0.0
  0
LINE
  5
172
  8
SIZE
  6
CONTINUOUS
 62
    30
 10
89.500000000000014
 20
-33.0
 30
0.0
 11
89.500000000000014
 21
-247.791494
 31
0.0
  0
LINE
  5
173
  8
SIZE
  6
CONTINUOUS
 62
    30
 10
-89.500000000000014
 20
-33.0
 30
0.0
 11
-89.500000000000014
 21
-247.791494
 31
0.0
  0
LINE
  5
174
  8
SIZE
  6
CONTINUOUS
 62
    30
 10
77.5
 20
-227.791494
 30
0.0
 11
-77.5
 21
-227.791494
 31
0.0
  0
LINE
  5
175
  8
SIZE
  6
CONTINUOUS
 62
    30
 10
360.25523299999992
 20
-227.791494
 30
0.0
 11
89.500000000000014
 21
-227.791494
 31
0.0
  0
TEXT
  5
176
  8
SIZE
  6
CONTINUOUS
 62
    30
 10
134.47809000000001
 20
-202.791494
 30
0.0
 40
64.0
  1
φ179
 41
0.9
 72
     1
 11
241.99808999999999
 21
-202.791494
 31
0.0
  0
CIRCLE
  5
177
  8
SIZE
  6
CONTINUOUS
 62
    30
 10
89.500000000000014
 20
-227.791494
 30
0.0
 40
6.0
  0
LINE
  5
178
  8
SIZE
  6
CONTINUOUS
 62
    30
 10
89.500000000000014
 20
-227.791494
 30
0.0
 11
77.5
 21
-227.791494
 31
0.0
  0
CIRCLE
  5
179
  8
SIZE
  6
CONTINUOUS
 62
    30
 10
-89.500000000000014
 20
-227.791494
 30
0.0
 40
6.0
  0
LINE
  5
17A
  8
SIZE
  6
CONTINUOUS
 62
    30
 10
-89.500000000000014
 20
-227.791494
 30
0.0
 11
-77.5
 21
-227.791494
 31
0.0
  0
POINT
  5
17B
  8
DEFPOINTS
  6
CONTINUOUS
 62
    30
 10
89.500000000000014
 20
-13.0
 30
0.0
  0
POINT
  5
17C
  8
DEFPOINTS
  6
CONTINUOUS
 62
    30
 10
-89.500000000000014
 20
-13.0
 30
0.0
  0
POINT
  5
17D
  8
DEFPOINTS
  6
CONTINUOUS
 62
    30
 10
-89.500000000000014
 20
-227.791494
 30
0.0
  0
LINE
  5
17E
  8
SIZE
  6
CONTINUOUS
 62
    30
 10
115.0
 20
-33.0
 30
0.0
 11
115.0
 21
-370.60723100000001
 31
0.0
  0
LINE
  5
17F
  8
SIZE
  6
CONTINUOUS
 62
    30
 10
-115.0
 20
-38.0
 30
0.0
 11
-115.0
 21
-370.60723100000001
 31
0.0
  0
LINE
  5
180
  8
SIZE
  6
CONTINUOUS
 62
    30
 10
103.0
 20
-350.60723100000001
 30
0.0
 11
-103.0
 21
-350.60723100000001
 31
0.0
  0
CIRCLE
  5
181
  8
SIZE
  6
CONTINUOUS
 62
    30
 10
115.0
 20
-350.60723100000001
 30
0.0
 40
6.0
  0
LINE
  5
182
  8
SIZE
  6
CONTINUOUS
 62
    30
 10
115.0
 20
-350.60723100000001
 30
0.0
 11
103.0
 21
-350.60723100000001
 31
0.0
  0
CIRCLE
  5
183
  8
SIZE
  6
CONTINUOUS
 62
    30
 10
-115.0
 20
-350.60723100000001
 30
0.0
 40
6.0
  0
LINE
  5
184
  8
SIZE
  6
CONTINUOUS
 62
    30
 10
-115.0
 20
-350.60723100000001
 30
0.0
 11
-103.0
 21
-350.60723100000001
 31
0.0
  0
TEXT
  5
185
  8
SIZE
  6
CONTINUOUS
 62
    30
 10
-74.057142857142864
 20
-325.60723100000001
 30
0.0
 40
64.0
  1
230
 41
0.9
 72
     1
 11
0.0
 21
-325.60723100000001
 31
0.0
  0
POINT
  5
186
  8
DEFPOINTS
  6
CONTINUOUS
 62
    30
 10
115.0
 20
-13.0
 30
0.0
  0
POINT
  5
187
  8
DEFPOINTS
  6
CONTINUOUS
 62
    30
 10
-115.0
 20
-18.0
 30
0.0
  0
POINT
  5
188
  8
DEFPOINTS
  6
CONTINUOUS
 62
    30
 10
-115.0
 20
-350.60723100000001
 30
0.0
  0
LINE
  5
189
  8
SIZE
  6
CONTINUOUS
 62
    30
 10
73.5
 20
71.0
 30
0.0
 11
73.5
 21
145.19864699999999
 31
0.0
  0
LINE
  5
18A
  8
SIZE
  6
CONTINUOUS
 62
    30
 10
-73.5
 20
71.0
 30
0.0
 11
-73.5
 21
145.19864699999999
 31
0.0
  0
LINE
  5
18D
  8
SIZE
  6
CONTINUOUS
 62
    30
 10
73.5
 20
125.19864699999999
 30
0.0
 11
-73.5
 21
125.19864699999999
 31
0.0
  0
CIRCLE
  5
18E
  8
SIZE
  6
CONTINUOUS
 62
    30
 10
73.5
 20
125.19864699999999
 30
0.0
 40
6.0
  0
CIRCLE
  5
190
  8
SIZE
  6
CONTINUOUS
 62
    30
 10
-73.5
 20
125.19864699999999
 30
0.0
 40
6.0
  0
TEXT
  5
192
  8
SIZE
  6
CONTINUOUS
 62
    30
 10
-108.89142857142851
 20
150.19864699999999
 30
0.0
 40
64.0
  1
φ147
 41
0.9
 72
     1
 11
0.0
 21
150.19864699999999
 31
0.0
  0
POINT
  5
193
  8
DEFPOINTS
  6
CONTINUOUS
 62
    30
 10
73.5
 20
51.0
 30
0.0
  0
POINT
  5
194
  8
DEFPOINTS
  6
CONTINUOUS
 62
    30
 10
-73.5
 20
51.0
 30
0.0
  0
POINT
  5
195
  8
DEFPOINTS
  6
CONTINUOUS
 62
    30
 10
-73.5
 20
125.19864699999999
 30
0.0
  0
LINE
  5
196
  8
SIZE
  6
CONTINUOUS
 62
    30
 10
110.0
 20
18.0
 30
0.0
 11
110.0
 21
264.177008
 31
0.0
  0
LINE
  5
197
  8
SIZE
  6
CONTINUOUS
 62
    30
 10
-110.0
 20
18.0
 30
0.0
 11
-110.0
 21
264.177008
 31
0.0
  0
LINE
  5
198
  8
SIZE
  6
CONTINUOUS
 62
    30
 10
98.0
 20
244.17700799999989
 30
0.0
 11
-98.0
 21
244.17700799999989
 31
0.0
  0
CIRCLE
  5
199
  8
SIZE
  6
CONTINUOUS
 62
    30
 10
110.0
 20
244.17700799999989
 30
0.0
 40
6.0
  0
LINE
  5
19A
  8
SIZE
  6
CONTINUOUS
 62
    30
 10
110.0
 20
244.17700799999989
 30
0.0
 11
98.0
 21
244.17700799999989
 31
0.0
  0
CIRCLE
  5
19B
  8
SIZE
  6
CONTINUOUS
 62
    30
 10
-110.0
 20
244.17700799999989
 30
0.0
 40
6.0
  0
LINE
  5
19C
  8
SIZE
  6
CONTINUOUS
 62
    30
 10
-110.0
 20
244.17700799999989
 30
0.0
 11
-98.0
 21
244.17700799999989
 31
0.0
  0
TEXT
  5
19D
  8
SIZE
  6
CONTINUOUS
 62
    30
 10
-74.05714285714285
 20
269.17700799999989
 30
0.0
 40
64.0
  1
220
 41
0.9
 72
     1
 11
0.0
 21
269.17700799999989
 31
0.0
  0
POINT
  5
19E
  8
DEFPOINTS
  6
CONTINUOUS
 62
    30
 10
110.0
 20
-2.0
 30
0.0
  0
POINT
  5
19F
  8
DEFPOINTS
  6
CONTINUOUS
 62
    30
 10
-110.0
 20
-2.0
 30
0.0
  0
POINT
  5
1A0
  8
DEFPOINTS
  6
CONTINUOUS
 62
    30
 10
-110.0
 20
244.17700799999989
 30
0.0
  0
LINE
  5
1A1
  8
SIZE
  6
CONTINUOUS
 62
    30
 10
-135.0
 20
-13.0
 30
0.0
 11
-209.10958199999999
 21
-13.0
 31
0.0
  0
LINE
  5
1A2
  8
SIZE
  6
CONTINUOUS
 62
    30
 10
-133.0
 20
0.0
 30
0.0
 11
-209.10958199999999
 21
0.0
 31
0.0
  0
LINE
  5
1A3
  8
SIZE
  6
CONTINUOUS
 62
    30
 10
-189.1095819999999
 20
-25.0
 30
0.0
 11
-189.1095819999999
 21
-37.0
 31
0.0
  0
LINE
  5
1A4
  8
SIZE
  6
CONTINUOUS
 62
    30
 10
-189.1095819999999
 20
12.0
 30
0.0
 11
-189.1095819999999
 21
24.0
 31
0.0
  0
LINE
  5
1A5
  8
SIZE
  6
CONTINUOUS
 62
    30
 10
-189.1095819999999
 20
202.97835399999991
 30
0.0
 11
-189.1095819999999
 21
0.0
 31
0.0
  0
TEXT
  5
1A6
  8
SIZE
  6
CONTINUOUS
 62
    30
 10
-214.1095819999999
 20
95.692638857142867
 30
0.0
 40
64.0
  1
13
 50
90.0
 41
0.9
 72
     1
 11
-214.1095819999999
 21
136.83549600000001
 31
0.0
  0
LINE
  5
1A7
  8
SIZE
  6
CONTINUOUS
 62
    30
 10
-189.1095819999999
 20
-13.0
 30
0.0
 11
-189.1095819999999
 21
0.0
 31
0.0
  0
LINE
  5
1A8
  8
SIZE
  6
CONTINUOUS
 62
    30
 10
-189.1095819999999
 20
-13.0
 30
0.0
 11
-189.1095819999999
 21
0.0
 31
0.0
  0
CIRCLE
  5
1A9
  8
SIZE
  6
CONTINUOUS
 62
    30
 10
-189.1095819999999
 20
-13.0
 30
0.0
 40
6.0
  0
LINE
  5
1AA
  8
SIZE
  6
CONTINUOUS
 62
    30
 10
-189.1095819999999
 20
-13.0
 30
0.0
 11
-189.1095819999999
 21
-25.0
 31
0.0
  0
CIRCLE
  5
1AB
  8
SIZE
  6
CONTINUOUS
 62
    30
 10
-189.1095819999999
 20
0.0
 30
0.0
 40
6.0
  0
LINE
  5
1AC
  8
SIZE
  6
CONTINUOUS
 62
    30
 10
-189.1095819999999
 20
0.0
 30
0.0
 11
-189.1095819999999
 21
12.0
 31
0.0
  0
POINT
  5
1AD
  8
DEFPOINTS
  6
CONTINUOUS
 62
    30
 10
-115.0
 20
-13.0
 30
0.0
  0
POINT
  5
1AE
  8
DEFPOINTS
  6
CONTINUOUS
 62
    30
 10
-113.0
 20
0.0
 30
0.0
  0
POINT
  5
1AF
  8
DEFPOINTS
  6
CONTINUOUS
 62
    30
 10
-189.1095819999999
 20
0.0
 30
0.0
  0
LINE
  5
1B0
  8
SIZE
  6
CONTINUOUS
 62
    30
 10
-93.499999999999986
 20
52.0
 30
0.0
 11
-330.23633699999999
 21
52.0
 31
0.0
  0
LINE
  5
1B1
  8
SIZE
  6
CONTINUOUS
 62
    30
 10
-133.0
 20
0.0
 30
0.0
 11
-330.23633699999999
 21
0.0
 31
0.0
  0
LINE
  5
1B2
  8
SIZE
  6
CONTINUOUS
 62
    30
 10
-310.23633699999988
 20
63.0
 30
0.0
 11
-310.23633699999988
 21
75.0
 31
0.0
  0
LINE
  5
1B3
  8
SIZE
  6
CONTINUOUS
 62
    30
 10
-310.23633699999988
 20
-12.0
 30
0.0
 11
-310.23633699999988
 21
-24.0
 31
0.0
  0
LINE
  5
1B4
  8
SIZE
  6
CONTINUOUS
 62
    30
 10
-310.23633699999988
 20
194.45678199999981
 30
0.0
 11
-310.23633699999988
 21
52.0
 31
0.0
  0
TEXT
  5
1B5
  8
SIZE
  6
CONTINUOUS
 62
    30
 10
-335.23633699999988
 20
88.542496571428515
 30
0.0
 40
64.0
  1
52
 50
90.0
 41
0.9
 72
     1
 11
-335.23633699999988
 21
135.17106799999991
 31
0.0
  0
LINE
  5
1B6
  8
SIZE
  6
CONTINUOUS
 62
    30
 10
-310.23633699999988
 20
51.0
 30
0.0
 11
-310.23633699999988
 21
0.0
 31
0.0
  0
LINE
  5
1B7
  8
SIZE
  6
CONTINUOUS
 62
    30
 10
-310.23633699999988
 20
52.0
 30
0.0
 11
-310.23633699999988
 21
0.0
 31
0.0
  0
CIRCLE
  5
1B8
  8
SIZE
  6
CONTINUOUS
 62
    30
 10
-310.23633699999988
 20
52.0
 30
0.0
 40
6.0
  0
CIRCLE
  5
1BA
  8
SIZE
  6
CONTINUOUS
 62
    30
 10
-310.23633699999988
 20
0.0
 30
0.0
 40
6.0
  0
LINE
  5
1BB
  8
SIZE
  6
CONTINUOUS
 62
    30
 10
-310.23633699999988
 20
0.0
 30
0.0
 11
-310.23633699999988
 21
-12.0
 31
0.0
  0
POINT
  5
1BC
  8
DEFPOINTS
  6
CONTINUOUS
 62
    30
 10
-73.5
 20
51.0
 30
0.0
  0
POINT
  5
1BD
  8
DEFPOINTS
  6
CONTINUOUS
 62
    30
 10
-113.0
 20
0.0
 30
0.0
  0
POINT
  5
1BE
  8
DEFPOINTS
  6
CONTINUOUS
 62
    30
 10
-310.23633699999988
 20
0.0
 30
0.0
  0
LINE
  5
1BF
  8
SIZE
  6
CONTINUOUS
 62
    30
 10
-133.0
 20
0.0
 30
0.0
 11
-330.23633699999999
 21
0.0
 31
0.0
  0
LINE
  5
1C0
  8
SIZE
  6
CONTINUOUS
 62
    30
 10
-20.0
 20
-103.0
 30
0.0
 11
-330.23633699999999
 21
-103.0
 31
0.0
  0
LINE
  5
1C1
  8
SIZE
  6
CONTINUOUS
 62
    30
 10
-310.23633699999988
 20
12.0
 30
0.0
 11
-310.23633699999988
 21
24.0
 31
0.0
  0
LINE
  5
1C2
  8
SIZE
  6
CONTINUOUS
 62
    30
 10
-310.23633699999988
 20
-115.0
 30
0.0
 11
-310.23633699999988
 21
-127.0
 31
0.0
  0
LINE
  5
1C3
  8
SIZE
  6
CONTINUOUS
 62
    30
 10
-310.23633699999988
 20
0.0
 30
0.0
 11
-310.23633699999988
 21
-103.0
 31
0.0
  0
CIRCLE
  5
1C4
  8
SIZE
  6
CONTINUOUS
 62
    30
 10
-310.23633699999988
 20
0.0
 30
0.0
 40
6.0
  0
LINE
  5
1C5
  8
SIZE
  6
CONTINUOUS
 62
    30
 10
-310.23633699999988
 20
0.0
 30
0.0
 11
-310.23633699999988
 21
12.0
 31
0.0
  0
CIRCLE
  5
1C6
  8
SIZE
  6
CONTINUOUS
 62
    30
 10
-310.23633699999988
 20
-103.0
 30
0.0
 40
6.0
  0
LINE
  5
1C7
  8
SIZE
  6
CONTINUOUS
 62
    30
 10
-310.23633699999988
 20
-103.0
 30
0.0
 11
-310.23633699999988
 21
-115.0
 31
0.0
  0
TEXT
  5
1C8
  8
SIZE
  6
CONTINUOUS
 62
    30
 10
-335.23633699999988
 20
-120.0714285714285
 30
0.0
 40
64.0
  1
103
 50
90.0
 41
0.9
 72
     1
 11
-335.23633699999988
 21
-51.5
 31
0.0
  0
POINT
  5
1C9
  8
DEFPOINTS
  6
CONTINUOUS
 62
    30
 10
-113.0
 20
0.0
 30
0.0
  0
POINT
  5
1CA
  8
DEFPOINTS
  6
CONTINUOUS
 62
    30
 10
0.0
 20
-103.0
 30
0.0
  0
POINT
  5
1CB
  8
DEFPOINTS
  6
CONTINUOUS
 62
    30
 10
-310.23633699999988
 20
-103.0
 30
0.0
  0
LINE
  5
1CC
  8
DETAIL
  6
CONTINUOUS
 62
     5
 10
-115.0
 20
-18.0
 30
0.0
 11
-89.388120999999984
 21
-18.0
 31
0.0
  0
LINE
  5
1CD
  8
DETAIL
  6
CONTINUOUS
 62
     5
 10
89.388120999999984
 20
-18.0
 30
0.0
 11
115.0
 21
-18.0
 31
0.0
  0
LINE
  5
1CE
  8
OUTLINE
  6
CONTINUOUS
 62
     3
 10
-110.0
 20
-13.0
 30
0.0
 11
110.0
 21
-13.0
 31
0.0
  0
LINE
  5
1CF
  8
OUTLINE
  6
CONTINUOUS
 62
     3
 10
-73.5
 20
52.0
 30
0.0
 11
73.5
 21
52.0
 31
0.0
  0
ARC
  5
1D0
  8
OUTLINE
  6
CONTINUOUS
 62
     3
 10
0.0
 20
-13.498611
 30
0.0
 40
89.501389000000003
 50
179.68080399999991
 51
0.319196
  0
LINE
  5
1D1
  8
OUTLINE
  6
CONTINUOUS
 62
     3
 10
-113.0
 20
0.0
 30
0.0
 11
113.0
 21
0.0
 31
0.0
  0
ARC
  5
1D2
  8
OUTLINE
  6
CONTINUOUS
 62
     3
 10
-108.0
 20
-2.0
 30
0.0
 40
2.0
 50
90.0
 51
180.0
  0
ARC
  5
1D3
  8
OUTLINE
  6
CONTINUOUS
 62
     3
 10
-113.0
 20
-2.0
 30
0.0
 40
2.0
 50
90.0
 51
180.0
  0
LINE
  5
1D4
  8
OUTLINE
  6
CONTINUOUS
 62
     3
 10
-73.5
 20
0.0
 30
0.0
 11
-73.5
 21
52.0
 31
0.0
  0
LINE
  5
1D5
  8
OUTLINE
  6
CONTINUOUS
 62
     3
 10
-115.0
 20
-18.0
 30
0.0
 11
-89.388120999999984
 21
-18.0
 31
0.0
  0
LINE
  5
1D6
  8
OUTLINE
  6
CONTINUOUS
 62
     3
 10
-110.0
 20
-2.0
 30
0.0
 11
-110.0
 21
-13.0
 31
0.0
  0
LINE
  5
1D7
  8
OUTLINE
  6
CONTINUOUS
 62
     3
 10
-115.0
 20
-2.0
 30
0.0
 11
-115.0
 21
-18.0
 31
0.0
  0
ARC
  5
1D8
  8
OUTLINE
  6
CONTINUOUS
 62
     3
 10
108.0
 20
-2.0
 30
0.0
 40
2.0
 50
0.0
 51
90.0
  0
ARC
  5
1D9
  8
OUTLINE
  6
CONTINUOUS
 62
     3
 10
113.0
 20
-2.0
 30
0.0
 40
2.0
 50
0.0
 51
90.0
  0
LINE
  5
1DA
  8
OUTLINE
  6
CONTINUOUS
 62
     3
 10
73.5
 20
0.0
 30
0.0
 11
73.5
 21
52.0
 31
0.0
  0
LINE
  5
1DB
  8
OUTLINE
  6
CONTINUOUS
 62
     3
 10
89.388120999999984
 20
-18.0
 30
0.0
 11
115.0
 21
-18.0
 31
0.0
  0
LINE
  5
1DC
  8
OUTLINE
  6
CONTINUOUS
 62
     3
 10
110.0
 20
-2.0
 30
0.0
 11
110.0
 21
-13.0
 31
0.0
  0
LINE
  5
1DD
  8
OUTLINE
  6
CONTINUOUS
 62
     3
 10
115.0
 20
-2.0
 30
0.0
 11
115.0
 21
-18.0
 31
0.0
  0
LINE
  5
1DE
  8
SIZE
  6
CONTINUOUS
 62
    30
 10
133.0
 20
0.0
 30
0.0
 11
310.48284200000001
 21
0.0
 31
0.0
  0
LINE
  5
1DF
  8
SIZE
  6
CONTINUOUS
 62
    30
 10
135.0
 20
-18.0
 30
0.0
 11
310.48284200000001
 21
-18.0
 31
0.0
  0
LINE
  5
1E0
  8
SIZE
  6
CONTINUOUS
 62
    30
 10
290.48284200000001
 20
12.0
 30
0.0
 11
290.48284200000001
 21
24.0
 31
0.0
  0
LINE
  5
1E1
  8
SIZE
  6
CONTINUOUS
 62
    30
 10
290.48284200000001
 20
-30.0
 30
0.0
 11
290.48284200000001
 21
-42.0
 31
0.0
  0
LINE
  5
1E2
  8
SIZE
  6
CONTINUOUS
 62
    30
 10
290.48284200000001
 20
171.9344889999999
 30
0.0
 11
290.48284200000001
 21
0.0
 31
0.0
  0
TEXT
  5
1E3
  8
SIZE
  6
CONTINUOUS
 62
    30
 10
265.48284200000001
 20
64.648774857142854
 30
0.0
 40
64.0
  1
18
 50
90.0
 41
0.9
 72
     1
 11
265.48284200000001
 21
105.79163200000001
 31
0.0
  0
LINE
  5
1E4
  8
SIZE
  6
CONTINUOUS
 62
    30
 10
290.48284200000001
 20
0.0
 30
0.0
 11
290.48284200000001
 21
-18.0
 31
0.0
  0
LINE
  5
1E5
  8
SIZE
  6
CONTINUOUS
 62
    30
 10
290.48284200000001
 20
0.0
 30
0.0
 11
290.48284200000001
 21
-18.0
 31
0.0
  0
CIRCLE
  5
1E6
  8
SIZE
  6
CONTINUOUS
 62
    30
 10
290.48284200000001
 20
0.0
 30
0.0
 40
6.0
  0
LINE
  5
1E7
  8
SIZE
  6
CONTINUOUS
 62
    30
 10
290.48284200000001
 20
0.0
 30
0.0
 11
290.48284200000001
 21
12.0
 31
0.0
  0
CIRCLE
  5
1E8
  8
SIZE
  6
CONTINUOUS
 62
    30
 10
290.48284200000001
 20
-18.0
 30
0.0
 40
6.0
  0
LINE
  5
1E9
  8
SIZE
  6
CONTINUOUS
 62
    30
 10
290.48284200000001
 20
-18.0
 30
0.0
 11
290.48284200000001
 21
-30.0
 31
0.0
  0
POINT
  5
1EA
  8
DEFPOINTS
  6
CONTINUOUS
 62
    30
 10
113.0
 20
0.0
 30
0.0
  0
POINT
  5
1EB
  8
DEFPOINTS
  6
CONTINUOUS
 62
    30
 10
115.0
 20
-18.0
 30
0.0
  0
POINT
  5
1EC
  8
DEFPOINTS
  6
CONTINUOUS
 62
    30
 10
290.48284200000001
 20
-18.0
 30
0.0
  0
TEXT
  5
1ED
  8
ETC
  6
CONTINUOUS
 62
    61
 10
416.67443553557598
 20
141.9043088640814
 30
0.0
 40
50.0
  1
P-18DFSDK2
 41
0.9
  0
TEXT
  5
1EE
  8
ETC
  6
CONTINUOUS
 62
    61
 10
416.67443553557598
 20
44.122651864081561
 30
0.0
 40
50.0
  1
P-18DFSQD2-BL
 41
0.9
  0
TEXT
  5
1EF
  8
ETC
  6
CONTINUOUS
 62
    61
 10
416.67443553557598
 20
244.13058786408149
 30
0.0
 40
50.0
  1
P-18DFSD2-BL
 41
0.9
  0
TEXT
  5
1F0
  8
ETC
  6
CONTINUOUS
 62
    61
 10
341.084617535576
 20
444.13852086408161
 30
0.0
 40
64.0
  1
P-18DFSD2-BL_1
 41
0.9
  0
TEXT
  5
1F1
  8
ETC
  6
CONTINUOUS
 62
    61
 10
329.48469453557578
 20
347.57814786408142
 30
0.0
 40
64.0
  1
システム部材
 41
0.9
  0
ENDSEC
  0
EOF
