  0
SECTION
  2
HEADER
  9
$ACADVER
  1
AC1009
  9
$INSBASE
 10
0.0
 20
0.0
 30
0.0
  9
$EXTMIN
 10
-536.11906292629465
 20
-530.96007140232348
 30
-0.0015258207003583
  9
$EXTMAX
 10
843.37922278020778
 20
586.71570625937954
 30
50.000000093132272
  9
$LIMMIN
 10
-2970.0
 20
-2100.0
  9
$LIMMAX
 10
2970.0
 20
2100.0
  9
$ORTHOMODE
 70
     1
  9
$REGENMODE
 70
     0
  9
$FILLMODE
 70
     1
  9
$QTEXTMODE
 70
     0
  9
$MIRRTEXT
 70
     0
  9
$DRAGMODE
 70
     2
  9
$LTSCALE
 40
20.0
  9
$OSMODE
 70
    37
  9
$ATTMODE
 70
     1
  9
$TEXTSIZE
 40
64.0
  9
$TRACEWID
 40
0.05
  9
$TEXTSTYLE
  7
STANDARD
  9
$CLAYER
  8
SIZE
  9
$CELTYPE
  6
CONTINUOUS
  9
$CECOLOR
 62
    30
  9
$DIMSCALE
 40
1.0
  9
$DIMASZ
 40
12.0
  9
$DIMEXO
 40
20.0
  9
$DIMDLI
 40
200.0
  9
$DIMRND
 40
0.0
  9
$DIMDLE
 40
0.0
  9
$DIMEXE
 40
20.0
  9
$DIMTP
 40
0.0
  9
$DIMTM
 40
0.0
  9
$DIMTXT
 40
64.0
  9
$DIMCEN
 40
0.09
  9
$DIMTSZ
 40
0.0
  9
$DIMTOL
 70
     0
  9
$DIMLIM
 70
     0
  9
$DIMTIH
 70
     0
  9
$DIMTOH
 70
     0
  9
$DIMSE1
 70
     0
  9
$DIMSE2
 70
     0
  9
$DIMTAD
 70
     1
  9
$DIMZIN
 70
     8
  9
$DIMBLK
  1
DOT1
  9
$DIMASO
 70
     1
  9
$DIMSHO
 70
     0
  9
$DIMPOST
  1

  9
$DIMAPOST
  1

  9
$DIMALT
 70
     0
  9
$DIMALTD
 70
     2
  9
$DIMALTF
 40
25.399999999999999
  9
$DIMLFAC
 40
1.0
  9
$DIMTOFL
 70
     1
  9
$DIMTVP
 40
0.0
  9
$DIMTIX
 70
     1
  9
$DIMSOXD
 70
     0
  9
$DIMSAH
 70
     1
  9
$DIMBLK1
  1
ORIGIN
  9
$DIMBLK2
  1
ORIGIN
  9
$DIMSTYLE
  2
STANDARD
  9
$DIMCLRD
 70
     0
  9
$DIMCLRE
 70
     0
  9
$DIMCLRT
 70
     0
  9
$DIMTFAC
 40
1.0
  9
$DIMGAP
 40
0.09
  9
$LUNITS
 70
     2
  9
$LUPREC
 70
     4
  9
$SKETCHINC
 40
0.1
  9
$FILLETRAD
 40
1.5
  9
$AUNITS
 70
     1
  9
$AUPREC
 70
     3
  9
$MENU
  1
ACAD
  9
$ELEVATION
 40
0.0
  9
$PELEVATION
 40
0.0
  9
$THICKNESS
 40
50.0
  9
$LIMCHECK
 70
     0
  9
$BLIPMODE
 70
     0
  9
$CHAMFERA
 40
0.0
  9
$CHAMFERB
 40
0.0
  9
$SKPOLY
 70
     0
  9
$TDCREATE
 40
2452321.3961996529
  9
$TDUPDATE
 40
2454839.4246313078
  9
$TDINDWG
 40
0.2961712731
  9
$TDUSRTIMER
 40
0.2961712731
  9
$USRTIMER
 70
     1
  9
$ANGBASE
 50
0.0
  9
$ANGDIR
 70
     0
  9
$PDMODE
 70
     3
  9
$PDSIZE
 40
-2.0
  9
$PLINEWID
 40
0.0
  9
$COORDS
 70
     0
  9
$SPLFRAME
 70
     0
  9
$SPLINETYPE
 70
     6
  9
$SPLINESEGS
 70
     8
  9
$ATTDIA
 70
     0
  9
$ATTREQ
 70
     1
  9
$HANDLING
 70
     1
  9
$HANDSEED
  5
1B0
  9
$SURFTAB1
 70
     6
  9
$SURFTAB2
 70
     6
  9
$SURFTYPE
 70
     6
  9
$SURFU
 70
     6
  9
$SURFV
 70
     6
  9
$UCSNAME
  2

  9
$UCSORG
 10
0.0
 20
0.0
 30
0.0
  9
$UCSXDIR
 10
1.0
 20
0.0
 30
0.0
  9
$UCSYDIR
 10
0.0
 20
1.0
 30
0.0
  9
$PUCSNAME
  2

  9
$PUCSORG
 10
0.0
 20
0.0
 30
0.0
  9
$PUCSXDIR
 10
1.0
 20
0.0
 30
0.0
  9
$PUCSYDIR
 10
0.0
 20
1.0
 30
0.0
  9
$USERI1
 70
     0
  9
$USERI2
 70
     0
  9
$USERI3
 70
     0
  9
$USERI4
 70
     0
  9
$USERI5
 70
     0
  9
$USERR1
 40
20.0
  9
$USERR2
 40
0.0
  9
$USERR3
 40
0.0
  9
$USERR4
 40
0.0
  9
$USERR5
 40
0.0
  9
$WORLDVIEW
 70
     1
  9
$SHADEDGE
 70
     3
  9
$SHADEDIF
 70
    70
  9
$TILEMODE
 70
     1
  9
$MAXACTVP
 70
    64
  9
$PLIMCHECK
 70
     0
  9
$PEXTMIN
 10
1.0000000000000000E+020
 20
1.0000000000000000E+020
 30
1.0000000000000000E+020
  9
$PEXTMAX
 10
-1.0000000000000000E+020
 20
-1.0000000000000000E+020
 30
-1.0000000000000000E+020
  9
$PLIMMIN
 10
0.0
 20
0.0
  9
$PLIMMAX
 10
12.0
 20
9.0
  9
$UNITMODE
 70
     0
  9
$VISRETAIN
 70
     1
  9
$PLINEGEN
 70
     0
  9
$PSLTSCALE
 70
     1
  0
ENDSEC
  0
SECTION
  2
TABLES
  0
TABLE
  2
VPORT
 70
     1
  0
VPORT
  2
*ACTIVE
 70
     0
 10
0.0
 20
0.0
 11
1.0
 21
1.0
 12
153.6300799269566
 22
27.87781742852804
 13
0.0
 23
0.0
 14
1.0
 24
1.0
 15
0.0
 25
0.0
 16
0.0
 26
0.0
 36
1.0
 17
0.0
 27
0.0
 37
0.0
 40
1127.523141341542
 41
1.3426470588235291
 42
50.0
 43
0.0
 44
0.0
 50
0.0
 51
0.0
 71
     0
 72
   100
 73
     1
 74
     0
 75
     0
 76
     0
 77
     0
 78
     0
  0
ENDTAB
  0
TABLE
  2
LTYPE
 70
     4
  0
LTYPE
  2
CONTINUOUS
 70
     0
  3
実線
 72
    65
 73
     0
 40
0.0
  0
LTYPE
  2
DASHDOT
 70
     0
  3
____ _ ____ _ ____ _ ____ _ ____ _ ____ _ ____
 72
    65
 73
     4
 40
5.5
 49
4.0
 49
-0.6
 49
0.3
 49
-0.6
  0
ENDTAB
  0
TABLE
  2
LAYER
 70
    12
  0
LAYER
  2
0
 70
     0
 62
     7
  6
CONTINUOUS
  0
LAYER
  2
SIZE
 70
     0
 62
    30
  6
CONTINUOUS
  0
LAYER
  2
BASIS
 70
     0
 62
     6
  6
DASHDOT
  0
LAYER
  2
OUTLINE
 70
     0
 62
     3
  6
CONTINUOUS
  0
LAYER
  2
DETAIL
 70
     0
 62
     5
  6
CONTINUOUS
  0
LAYER
  2
ARRANGE
 70
     0
 62
     1
  6
CONTINUOUS
  0
LAYER
  2
DEFPOINTS
 70
     0
 62
     7
  6
CONTINUOUS
  0
LAYER
  2
ETC
 70
     0
 62
    61
  6
CONTINUOUS
  0
LAYER
  2
FIX
 70
     0
 62
    11
  6
CONTINUOUS
  0
LAYER
  2
NOTE
 70
     0
 62
     4
  6
CONTINUOUS
  0
LAYER
  2
SERVICESPACE
 70
     0
 62
     2
  6
DASHDOT
  0
LAYER
  2
SYMBOLLINE
 70
     0
 62
    15
  6
CONTINUOUS
  0
ENDTAB
  0
TABLE
  2
STYLE
 70
     2
  0
STYLE
  2
STANDARD
 70
     0
 40
64.0
 41
0.9
 50
0.0
 71
     0
 42
64.0
  3
SIMPLEX.shx
  4
BIGFONT.shx
  0
STYLE
  2
ANNOTATIVE
 70
     0
 40
0.0
 41
1.0
 50
0.0
 71
     0
 42
0.2
  3
txt
  4

  0
ENDTAB
  0
TABLE
  2
VIEW
 70
     1
  0
VIEW
  2
ALL
 70
     0
 40
4282.6198079999986
 10
0.0
 20
41.309903999999989
 41
5940.0
 11
0.0
 21
0.0
 31
1.0
 12
0.0
 22
0.0
 32
0.0
 42
50.0
 43
0.0
 44
0.0
 50
0.0
 71
     0
  0
ENDTAB
  0
TABLE
  2
UCS
 70
     0
  0
ENDTAB
  0
TABLE
  2
APPID
 70
     4
  0
APPID
  2
ACAD
 70
     0
  0
APPID
  2
ACADANNOTATIVE
 70
     0
  0
APPID
  2
ACAD_MLEADERVER
 70
     0
  0
APPID
  2
ACAD_EXEMPT_FROM_CAD_STANDARDS
 70
     0
  0
ENDTAB
  0
TABLE
  2
DIMSTYLE
 70
     3
  0
DIMSTYLE
  2
STANDARD
 70
     0
  3

  4

  5

  6

  7

 40
1.0
 41
0.18
 42
0.0625
 43
0.38
 44
0.18
 45
0.0
 46
0.0
 47
0.0
 48
0.0
140
0.18
141
0.09
142
0.0
143
25.399999999999999
144
1.0
145
0.0
146
1.0
147
0.09
 71
     0
 72
     0
 73
     1
 74
     1
 75
     0
 76
     0
 77
     0
 78
     0
170
     0
171
     2
172
     0
173
     0
174
     0
175
     0
176
     0
177
     0
178
     0
  0
DIMSTYLE
  2
ANNOTATIVE
 70
     0
  3

  4

  5

  6

  7

 40
1.0
 41
0.18
 42
0.0625
 43
0.38
 44
0.18
 45
0.0
 46
0.0
 47
0.0
 48
0.0
140
0.18
141
0.09
142
0.0
143
25.399999999999999
144
1.0
145
0.0
146
1.0
147
0.09
 71
     0
 72
     0
 73
     1
 74
     1
 75
     0
 76
     0
 77
     0
 78
     0
170
     0
171
     2
172
     0
173
     0
174
     0
175
     0
176
     0
177
     0
178
     0
  0
ENDTAB
  0
ENDSEC
  0
SECTION
  2
BLOCKS
  0
BLOCK
  8
0
  2
$MODEL_SPACE
 70
     0
 10
0.0
 20
0.0
 30
0.0
  3
$MODEL_SPACE
  1

  0
ENDBLK
  5
76
  8
0
  0
BLOCK
 67
     1
  8
0
  2
$PAPER_SPACE
 70
     0
 10
0.0
 20
0.0
 30
0.0
  3
$PAPER_SPACE
  1

  0
ENDBLK
  5
72
 67
     1
  8
0
  0
BLOCK
  8
0
  2
DOT1
 70
     0
 10
0.0
 20
0.0
 30
0.0
  3
DOT1
  1

  0
CIRCLE
  5
8B
  8
SIZE
  6
CONTINUOUS
 62
     7
 10
0.0
 20
0.0
 30
0.0
 40
3.0
  0
ENDBLK
  5
8C
  8
0
  0
BLOCK
  8
0
  2
_ORIGIN
 70
     0
 10
0.0
 20
0.0
 30
0.0
  3
_ORIGIN
  1

  0
CIRCLE
  5
8F
  8
0
  6
CONTINUOUS
 62
     7
 10
0.0
 20
0.0
 30
0.0
 40
0.5
  0
LINE
  5
90
  8
0
  6
CONTINUOUS
 62
     7
 10
0.0
 20
0.0
 30
0.0
 11
-1.0
 21
0.0
 31
0.0
  0
ENDBLK
  5
91
  8
0
  0
ENDSEC
  0
SECTION
  2
ENTITIES
  0
LINE
  5
94
  8
BASIS
  6
DASHDOT
 62
     6
 39
50.0
 10
-147.53625299999999
 20
-77.0
 30
0.0
 11
151.300094
 21
-77.0
 31
0.0
  0
LINE
  5
95
  8
DETAIL
  6
CONTINUOUS
 62
     5
 39
50.0
 10
-62.5
 20
-51.0
 30
0.0
 11
-62.5
 21
-121.0
 31
0.0
  0
LINE
  5
96
  8
DETAIL
  6
CONTINUOUS
 62
     5
 39
50.0
 10
-60.5
 20
-123.0
 30
0.0
 11
60.5
 21
-123.0
 31
0.0
  0
LINE
  5
97
  8
DETAIL
  6
CONTINUOUS
 62
     5
 39
50.0
 10
-62.5
 20
-51.0
 30
0.0
 11
62.5
 21
-51.0
 31
0.0
  0
LINE
  5
98
  8
DETAIL
  6
CONTINUOUS
 62
     5
 39
50.0
 10
-40.0
 20
45.0
 30
0.0
 11
40.0
 21
45.0
 31
0.0
  0
LINE
  5
99
  8
DETAIL
  6
CONTINUOUS
 62
     5
 39
50.0
 10
-40.0
 20
44.0
 30
0.0
 11
40.0
 21
44.0
 31
0.0
  0
LINE
  5
9A
  8
BASIS
  6
DASHDOT
 62
     6
 39
50.0
 10
0.0
 20
-147.70728
 30
0.0
 11
0.0
 21
74.167396999999994
 31
0.0
  0
LINE
  5
9B
  8
NOTE
  6
CONTINUOUS
 62
     4
 10
0.0
 20
25.0
 30
0.0
 11
0.0
 21
65.0
 31
0.0
  0
LINE
  5
9C
  8
NOTE
  6
CONTINUOUS
 62
     4
 10
-20.0
 20
45.0
 30
0.0
 11
20.0
 21
45.0
 31
0.0
  0
CIRCLE
  5
9D
  8
FIX
  6
CONTINUOUS
 62
    11
 39
50.0
 10
0.0
 20
45.0
 30
0.0
 40
5.0
  0
TEXT
  5
9E
  8
NOTE
  6
CONTINUOUS
 62
     4
 10
175.55474100000001
 20
191.28910200000001
 30
0.0
 40
64.0
  1
AH φ10×30
 41
0.9
  0
LINE
  5
9F
  8
NOTE
  6
CONTINUOUS
 62
     4
 10
0.0
 20
45.0
 30
0.0
 11
150.054644
 21
166.30821
 31
0.0
  0
LINE
  5
A0
  8
NOTE
  6
CONTINUOUS
 62
     4
 10
24.014517999999999
 20
76.989106000000007
 30
0.0
 11
0.0
 21
45.0
 31
0.0
  0
LINE
  5
A1
  8
NOTE
  6
CONTINUOUS
 62
     4
 10
0.0
 20
45.0
 30
0.0
 11
36.791736
 21
60.696118999999989
 31
0.0
  0
POINT
  5
A2
  8
ARRANGE
  6
CONTINUOUS
 62
     1
 10
0.0
 20
0.0
 30
0.0
 39
50.0
  0
CIRCLE
  5
A3
  8
ARRANGE
  6
CONTINUOUS
 62
     1
 39
50.0
 10
0.0
 20
0.0
 30
0.0
 40
20.0
  0
LINE
  5
A4
  8
DETAIL
  6
CONTINUOUS
 62
     5
 39
50.0
 10
130.0
 20
-2.5
 30
0.0
 11
85.0
 21
-2.5
 31
0.0
  0
LINE
  5
A5
  8
DETAIL
  6
CONTINUOUS
 62
     5
 39
50.0
 10
130.0
 20
-151.5
 30
0.0
 11
85.0
 21
-151.5
 31
0.0
  0
LINE
  5
A6
  8
DETAIL
  6
CONTINUOUS
 62
     5
 39
50.0
 10
-130.0
 20
-151.5
 30
0.0
 11
-130.0
 21
-2.5
 31
0.0
  0
LINE
  5
A7
  8
DETAIL
  6
CONTINUOUS
 62
     5
 39
50.0
 10
130.0
 20
-151.5
 30
0.0
 11
130.0
 21
-2.5
 31
0.0
  0
LINE
  5
A8
  8
DETAIL
  6
CONTINUOUS
 62
     5
 39
50.0
 10
-85.0
 20
-151.5
 30
0.0
 11
-85.0
 21
-2.5
 31
0.0
  0
LINE
  5
A9
  8
DETAIL
  6
CONTINUOUS
 62
     5
 39
50.0
 10
-75.0
 20
-151.5
 30
0.0
 11
-75.0
 21
-2.5
 31
0.0
  0
ARC
  5
AA
  8
DETAIL
  6
CONTINUOUS
 62
     5
 39
50.0
 10
-80.0
 20
-6.25
 30
0.0
 40
6.25
 50
36.869897999999999
 51
143.13010199999999
  0
ARC
  5
AB
  8
DETAIL
  6
CONTINUOUS
 62
     5
 39
50.0
 10
-80.0
 20
-147.75
 30
0.0
 40
6.25
 50
216.86989800000001
 51
323.13010200000002
  0
LINE
  5
AC
  8
DETAIL
  6
CONTINUOUS
 62
     5
 39
50.0
 10
75.0
 20
-151.5
 30
0.0
 11
75.0
 21
-2.5
 31
0.0
  0
LINE
  5
AD
  8
DETAIL
  6
CONTINUOUS
 62
     5
 39
50.0
 10
85.0
 20
-151.5
 30
0.0
 11
85.0
 21
-2.5
 31
0.0
  0
ARC
  5
AE
  8
DETAIL
  6
CONTINUOUS
 62
     5
 39
50.0
 10
80.0
 20
-147.75
 30
0.0
 40
6.25
 50
216.86989800000001
 51
323.13010200000002
  0
ARC
  5
AF
  8
DETAIL
  6
CONTINUOUS
 62
     5
 39
50.0
 10
80.0
 20
-6.25
 30
0.0
 40
6.25
 50
36.869897999999999
 51
143.13010199999999
  0
LINE
  5
B0
  8
DETAIL
  6
CONTINUOUS
 62
     5
 39
50.0
 10
-85.0
 20
-2.5
 30
0.0
 11
-130.0
 21
-2.5
 31
0.0
  0
LINE
  5
B1
  8
DETAIL
  6
CONTINUOUS
 62
     5
 39
50.0
 10
-85.0
 20
-151.5
 30
0.0
 11
-130.0
 21
-151.5
 31
0.0
  0
LINE
  5
B2
  8
DETAIL
  6
CONTINUOUS
 62
     5
 39
50.0
 10
75.0
 20
-2.5
 30
0.0
 11
-75.0
 21
-2.5
 31
0.0
  0
LINE
  5
B3
  8
DETAIL
  6
CONTINUOUS
 62
     5
 39
50.0
 10
75.0
 20
-151.5
 30
0.0
 11
-75.0
 21
-151.5
 31
0.0
  0
LINE
  5
B4
  8
DETAIL
  6
CONTINUOUS
 62
     5
 39
50.0
 10
-40.0
 20
-2.5
 30
0.0
 11
-40.0
 21
45.0
 31
0.0
  0
LINE
  5
B5
  8
DETAIL
  6
CONTINUOUS
 62
     5
 39
50.0
 10
40.0
 20
-2.5
 30
0.0
 11
40.0
 21
45.0
 31
0.0
  0
LINE
  5
B6
  8
DETAIL
  6
CONTINUOUS
 62
     5
 39
50.0
 10
62.5
 20
-121.0
 30
0.0
 11
62.5
 21
-51.0
 31
0.0
  0
LINE
  5
B7
  8
DETAIL
  6
CONTINUOUS
 62
     5
 39
50.0
 10
-61.0
 20
-51.0
 30
0.0
 11
-61.0
 21
-43.0
 31
0.0
  0
LINE
  5
B8
  8
DETAIL
  6
CONTINUOUS
 62
     5
 39
50.0
 10
61.0
 20
-51.0
 30
0.0
 11
61.0
 21
-43.0
 31
0.0
  0
LINE
  5
B9
  8
DETAIL
  6
CONTINUOUS
 62
     5
 39
50.0
 10
-59.0
 20
-41.0
 30
0.0
 11
59.0
 21
-41.0
 31
0.0
  0
LINE
  5
BA
  8
DETAIL
  6
CONTINUOUS
 62
     5
 39
50.0
 10
49.5
 20
-123.0
 30
0.0
 11
49.5
 21
-51.0
 31
0.0
  0
LINE
  5
BB
  8
DETAIL
  6
CONTINUOUS
 62
     5
 39
50.0
 10
-49.5
 20
-51.0
 30
0.0
 11
-49.5
 21
-123.0
 31
0.0
  0
LINE
  5
BC
  8
DETAIL
  6
CONTINUOUS
 62
     5
 39
50.0
 10
-62.5
 20
-114.0
 30
0.0
 11
-49.5
 21
-114.0
 31
0.0
  0
LINE
  5
BD
  8
DETAIL
  6
CONTINUOUS
 62
     5
 39
50.0
 10
49.5
 20
-114.0
 30
0.0
 11
62.5
 21
-114.0
 31
0.0
  0
LINE
  5
BE
  8
DETAIL
  6
CONTINUOUS
 62
     5
 39
50.0
 10
-62.5
 20
-121.0
 30
0.0
 11
-60.5
 21
-123.0
 31
0.0
  0
LINE
  5
BF
  8
DETAIL
  6
CONTINUOUS
 62
     5
 39
50.0
 10
60.5
 20
-123.0
 30
0.0
 11
62.5
 21
-121.0
 31
0.0
  0
LINE
  5
C0
  8
DETAIL
  6
CONTINUOUS
 62
     5
 39
50.0
 10
-61.0
 20
-43.0
 30
0.0
 11
-59.0
 21
-41.0
 31
0.0
  0
LINE
  5
C1
  8
DETAIL
  6
CONTINUOUS
 62
     5
 39
50.0
 10
59.0
 20
-41.0
 30
0.0
 11
61.0
 21
-43.0
 31
0.0
  0
LINE
  5
C2
  8
DETAIL
  6
CONTINUOUS
 62
     5
 39
50.0
 10
-62.5
 20
-81.0
 30
0.0
 11
-49.5
 21
-81.0
 31
0.0
  0
LINE
  5
C3
  8
DETAIL
  6
CONTINUOUS
 62
     5
 39
50.0
 10
-62.5
 20
-98.0
 30
0.0
 11
-49.5
 21
-98.0
 31
0.0
  0
LINE
  5
C4
  8
DETAIL
  6
CONTINUOUS
 62
     5
 39
50.0
 10
62.5
 20
-81.0
 30
0.0
 11
49.5
 21
-81.0
 31
0.0
  0
LINE
  5
C5
  8
DETAIL
  6
CONTINUOUS
 62
     5
 39
50.0
 10
62.5
 20
-98.0
 30
0.0
 11
49.5
 21
-98.0
 31
0.0
  0
LINE
  5
C6
  8
SIZE
  6
CONTINUOUS
 62
    30
 10
40.0
 20
65.0
 30
0.0
 11
40.0
 21
165.968827
 31
0.0
  0
LINE
  5
C7
  8
SIZE
  6
CONTINUOUS
 62
    30
 10
-40.0
 20
65.0
 30
0.0
 11
-40.0
 21
165.968827
 31
0.0
  0
LINE
  5
C8
  8
SIZE
  6
CONTINUOUS
 62
    30
 10
52.0
 20
145.968827
 30
0.0
 11
64.0
 21
145.968827
 31
0.0
  0
LINE
  5
C9
  8
SIZE
  6
CONTINUOUS
 62
    30
 10
-52.0
 20
145.968827
 30
0.0
 11
-64.0
 21
145.968827
 31
0.0
  0
LINE
  5
CA
  8
SIZE
  6
CONTINUOUS
 62
    30
 10
40.0
 20
145.968827
 30
0.0
 11
-40.0
 21
145.968827
 31
0.0
  0
CIRCLE
  5
CB
  8
SIZE
  6
CONTINUOUS
 62
    30
 10
40.0
 20
145.968827
 30
0.0
 40
6.0
  0
LINE
  5
CC
  8
SIZE
  6
CONTINUOUS
 62
    30
 10
40.0
 20
145.968827
 30
0.0
 11
52.0
 21
145.968827
 31
0.0
  0
CIRCLE
  5
CD
  8
SIZE
  6
CONTINUOUS
 62
    30
 10
-40.0
 20
145.968827
 30
0.0
 40
6.0
  0
LINE
  5
CE
  8
SIZE
  6
CONTINUOUS
 62
    30
 10
-40.0
 20
145.968827
 30
0.0
 11
-52.0
 21
145.968827
 31
0.0
  0
TEXT
  5
CF
  8
SIZE
  6
CONTINUOUS
 62
    30
 10
-46.628571428571419
 20
170.968827
 30
0.0
 40
64.0
  1
80
 41
0.9
 72
     1
 11
0.0
 21
170.968827
 31
0.0
  0
POINT
  5
D2
  8
DEFPOINTS
  6
CONTINUOUS
 62
    30
 10
-40.0
 20
145.968827
 30
0.0
  0
LINE
  5
D3
  8
SIZE
  6
CONTINUOUS
 62
    30
 10
-150.0
 20
-2.5
 30
0.0
 11
-346.85931099999999
 21
-2.5
 31
0.0
  0
LINE
  5
D4
  8
SIZE
  6
CONTINUOUS
 62
    30
 10
-150.0
 20
-151.5
 30
0.0
 11
-346.85931099999999
 21
-151.5
 31
0.0
  0
LINE
  5
D5
  8
SIZE
  6
CONTINUOUS
 62
    30
 10
-326.85931099999999
 20
-14.5
 30
0.0
 11
-326.85931099999999
 21
-139.5
 31
0.0
  0
LINE
  5
D6
  8
SIZE
  6
CONTINUOUS
 62
    30
 10
-326.85931099999999
 20
264.18887000000001
 30
0.0
 11
-326.85931099999999
 21
-2.5
 31
0.0
  0
TEXT
  5
D7
  8
SIZE
  6
CONTINUOUS
 62
    30
 10
-351.85931099999999
 20
38.411726999999999
 30
0.0
 40
64.0
  1
φ149
 50
90.0
 41
0.9
 72
     1
 11
-351.85931099999999
 21
145.931727
 31
0.0
  0
CIRCLE
  5
D8
  8
SIZE
  6
CONTINUOUS
 62
    30
 10
-326.85931099999999
 20
-2.5
 30
0.0
 40
6.0
  0
LINE
  5
D9
  8
SIZE
  6
CONTINUOUS
 62
    30
 10
-326.85931099999999
 20
-2.5
 30
0.0
 11
-326.85931099999999
 21
-14.5
 31
0.0
  0
CIRCLE
  5
DA
  8
SIZE
  6
CONTINUOUS
 62
    30
 10
-326.85931099999999
 20
-151.5
 30
0.0
 40
6.0
  0
LINE
  5
DB
  8
SIZE
  6
CONTINUOUS
 62
    30
 10
-326.85931099999999
 20
-151.5
 30
0.0
 11
-326.85931099999999
 21
-139.5
 31
0.0
  0
POINT
  5
DE
  8
DEFPOINTS
  6
CONTINUOUS
 62
    30
 10
-326.85931099999999
 20
-151.5
 30
0.0
  0
LINE
  5
DF
  8
SIZE
  6
CONTINUOUS
 62
    30
 10
-130.0
 20
-171.5
 30
0.0
 11
-130.0
 21
-317.25374599999998
 31
0.0
  0
LINE
  5
E0
  8
SIZE
  6
CONTINUOUS
 62
    30
 10
-85.0
 20
-171.5
 30
0.0
 11
-85.0
 21
-317.25374599999998
 31
0.0
  0
LINE
  5
E1
  8
SIZE
  6
CONTINUOUS
 62
    30
 10
-142.0
 20
-297.25374599999998
 30
0.0
 11
-154.0
 21
-297.25374599999998
 31
0.0
  0
LINE
  5
E3
  8
SIZE
  6
CONTINUOUS
 62
    30
 10
-299.71633200000002
 20
-297.25374599999998
 30
0.0
 11
-130.0
 21
-297.25374599999998
 31
0.0
  0
TEXT
  5
E4
  8
SIZE
  6
CONTINUOUS
 62
    30
 10
-274.71633142857138
 20
-389.9417321264873
 30
0.0
 40
64.0
  1
45
 41
0.9
 72
     1
 11
-228.08776
 21
-389.9417321264873
 31
0.0
  0
LINE
  5
E5
  8
SIZE
  6
CONTINUOUS
 62
    30
 10
-130.0
 20
-297.25374599999998
 30
0.0
 11
-85.0
 21
-297.25374599999998
 31
0.0
  0
LINE
  5
E6
  8
SIZE
  6
CONTINUOUS
 62
    30
 10
-130.0
 20
-297.25374599999998
 30
0.0
 11
-85.0
 21
-297.25374599999998
 31
0.0
  0
CIRCLE
  5
E7
  8
SIZE
  6
CONTINUOUS
 62
    30
 10
-130.0
 20
-297.25374599999998
 30
0.0
 40
6.0
  0
LINE
  5
E8
  8
SIZE
  6
CONTINUOUS
 62
    30
 10
-130.0
 20
-297.25374599999998
 30
0.0
 11
-142.0
 21
-297.25374599999998
 31
0.0
  0
CIRCLE
  5
E9
  8
SIZE
  6
CONTINUOUS
 62
    30
 10
-85.0
 20
-297.25374599999998
 30
0.0
 40
6.0
  0
POINT
  5
ED
  8
DEFPOINTS
  6
CONTINUOUS
 62
    30
 10
-85.0
 20
-297.25374599999998
 30
0.0
  0
LINE
  5
EE
  8
SIZE
  6
CONTINUOUS
 62
    30
 10
85.0
 20
-171.5
 30
0.0
 11
85.0
 21
-317.25374599999998
 31
0.0
  0
LINE
  5
EF
  8
SIZE
  6
CONTINUOUS
 62
    30
 10
130.0
 20
-171.5
 30
0.0
 11
130.0
 21
-317.25374599999998
 31
0.0
  0
LINE
  5
F1
  8
SIZE
  6
CONTINUOUS
 62
    30
 10
142.0
 20
-297.25374599999998
 30
0.0
 11
154.0
 21
-297.25374599999998
 31
0.0
  0
LINE
  5
F2
  8
SIZE
  6
CONTINUOUS
 62
    30
 10
298.69662499999998
 20
-297.25374599999998
 30
0.0
 11
130.0
 21
-297.25374599999998
 31
0.0
  0
TEXT
  5
F3
  8
SIZE
  6
CONTINUOUS
 62
    30
 10
180.43948257142861
 20
-388.13991290360411
 30
0.0
 40
64.0
  1
45
 41
0.9
 72
     1
 11
227.06805399999999
 21
-388.13991290360411
 31
0.0
  0
LINE
  5
F4
  8
SIZE
  6
CONTINUOUS
 62
    30
 10
85.0
 20
-297.25374599999998
 30
0.0
 11
130.0
 21
-297.25374599999998
 31
0.0
  0
LINE
  5
F5
  8
SIZE
  6
CONTINUOUS
 62
    30
 10
85.0
 20
-297.25374599999998
 30
0.0
 11
130.0
 21
-297.25374599999998
 31
0.0
  0
CIRCLE
  5
F6
  8
SIZE
  6
CONTINUOUS
 62
    30
 10
85.0
 20
-297.25374599999998
 30
0.0
 40
6.0
  0
CIRCLE
  5
F8
  8
SIZE
  6
CONTINUOUS
 62
    30
 10
130.0
 20
-297.25374599999998
 30
0.0
 40
6.0
  0
LINE
  5
F9
  8
SIZE
  6
CONTINUOUS
 62
    30
 10
130.0
 20
-297.25374599999998
 30
0.0
 11
142.0
 21
-297.25374599999998
 31
0.0
  0
POINT
  5
FC
  8
DEFPOINTS
  6
CONTINUOUS
 62
    30
 10
130.0
 20
-297.25374599999998
 30
0.0
  0
LINE
  5
FD
  8
SIZE
  6
CONTINUOUS
 62
    30
 10
62.5
 20
-137.0
 30
0.0
 11
62.5
 21
-317.25369999999998
 31
0.0
  0
LINE
  5
FE
  8
SIZE
  6
CONTINUOUS
 62
    30
 10
-62.5
 20
-137.0
 30
0.0
 11
-62.5
 21
-317.25369999999998
 31
0.0
  0
LINE
  5
101
  8
SIZE
  6
CONTINUOUS
 62
    30
 10
62.5
 20
-297.25369999999998
 30
0.0
 11
-62.5
 21
-297.25369999999998
 31
0.0
  0
CIRCLE
  5
102
  8
SIZE
  6
CONTINUOUS
 62
    30
 10
62.5
 20
-297.25369999999998
 30
0.0
 40
6.0
  0
CIRCLE
  5
104
  8
SIZE
  6
CONTINUOUS
 62
    30
 10
-62.5
 20
-297.25369999999998
 30
0.0
 40
6.0
  0
TEXT
  5
106
  8
SIZE
  6
CONTINUOUS
 62
    30
 10
-68.571428571428569
 20
-390.38546915181121
 30
0.0
 40
64.0
  1
125
 41
0.9
 72
     1
 11
0.0
 21
-390.38546915181121
 31
0.0
  0
LINE
  5
10A
  8
SIZE
  6
CONTINUOUS
 62
    30
 10
-130.0
 20
-171.5
 30
0.0
 11
-130.0
 21
-465.0
 31
0.0
  0
LINE
  5
10B
  8
SIZE
  6
CONTINUOUS
 62
    30
 10
130.0
 20
-171.5
 30
0.0
 11
130.0
 21
-465.0
 31
0.0
  0
LINE
  5
10C
  8
SIZE
  6
CONTINUOUS
 62
    30
 10
-130.0
 20
-439.35020823673079
 30
0.0
 11
130.0
 21
-439.35020823673079
 31
0.0
  0
CIRCLE
  5
10D
  8
SIZE
  6
CONTINUOUS
 62
    30
 10
-130.0
 20
-439.35020823673079
 30
0.0
 40
6.0
  0
CIRCLE
  5
10F
  8
SIZE
  6
CONTINUOUS
 62
    30
 10
130.0
 20
-439.35020823673079
 30
0.0
 40
6.0
  0
TEXT
  5
111
  8
SIZE
  6
CONTINUOUS
 62
    30
 10
-74.05714285714285
 20
-530.8522709109543
 30
0.0
 40
64.0
  1
260
 41
0.9
 72
     1
 11
0.0
 21
-530.8522709109543
 31
0.0
  0
POINT
  5
114
  8
DEFPOINTS
  6
CONTINUOUS
 62
    30
 10
130.0
 20
-487.74789099999998
 30
0.0
  0
LINE
  5
115
  8
SIZE
  6
CONTINUOUS
 62
    30
 10
-100.0
 20
-154.0
 30
0.0
 11
-466.68699299999992
 21
-154.0
 31
0.0
  0
LINE
  5
116
  8
SIZE
  6
CONTINUOUS
 62
    30
 10
-167.53625299999999
 20
-77.0
 30
0.0
 11
-466.68699299999992
 21
-77.0
 31
0.0
  0
LINE
  5
117
  8
SIZE
  6
CONTINUOUS
 62
    30
 10
-446.68699299999992
 20
-142.0
 30
0.0
 11
-446.68699299999992
 21
-89.0
 31
0.0
  0
LINE
  5
118
  8
SIZE
  6
CONTINUOUS
 62
    30
 10
-446.68699299999992
 20
-326.24062700000002
 30
0.0
 11
-446.68699299999992
 21
-154.0
 31
0.0
  0
TEXT
  5
119
  8
SIZE
  6
CONTINUOUS
 62
    30
 10
-471.68699299999992
 20
-301.24062742857137
 30
0.0
 40
64.0
  1
77
 50
90.0
 41
0.9
 72
     1
 11
-471.68699299999992
 21
-254.612056
 31
0.0
  0
CIRCLE
  5
11A
  8
SIZE
  6
CONTINUOUS
 62
    30
 10
-446.68699299999992
 20
-154.0
 30
0.0
 40
6.0
  0
LINE
  5
11B
  8
SIZE
  6
CONTINUOUS
 62
    30
 10
-446.68699299999992
 20
-154.0
 30
0.0
 11
-446.68699299999992
 21
-142.0
 31
0.0
  0
CIRCLE
  5
11C
  8
SIZE
  6
CONTINUOUS
 62
    30
 10
-446.68699299999992
 20
-77.0
 30
0.0
 40
6.0
  0
LINE
  5
11D
  8
SIZE
  6
CONTINUOUS
 62
    30
 10
-446.68699299999992
 20
-77.0
 30
0.0
 11
-446.68699299999992
 21
-89.0
 31
0.0
  0
POINT
  5
11F
  8
DEFPOINTS
  6
CONTINUOUS
 62
    30
 10
-147.53625299999999
 20
-77.0
 30
0.0
  0
POINT
  5
120
  8
DEFPOINTS
  6
CONTINUOUS
 62
    30
 10
-446.68699299999992
 20
-77.0
 30
0.0
  0
LINE
  5
121
  8
SIZE
  6
CONTINUOUS
 62
    30
 10
-167.53625299999999
 20
-77.0
 30
0.0
 11
-466.68699299999992
 21
-77.0
 31
0.0
  0
LINE
  5
122
  8
SIZE
  6
CONTINUOUS
 62
    30
 10
-60.0
 20
45.0
 30
0.0
 11
-466.68699299999992
 21
45.0
 31
0.0
  0
LINE
  5
123
  8
SIZE
  6
CONTINUOUS
 62
    30
 10
-446.68699299999992
 20
-65.0
 30
0.0
 11
-446.68699299999992
 21
33.0
 31
0.0
  0
LINE
  5
124
  8
SIZE
  6
CONTINUOUS
 62
    30
 10
-446.68699299999992
 20
251.12712500000001
 30
0.0
 11
-446.68699299999992
 21
45.0
 31
0.0
  0
TEXT
  5
125
  8
SIZE
  6
CONTINUOUS
 62
    30
 10
-471.68699299999992
 20
88.984267428571414
 30
0.0
 40
64.0
  1
122
 50
90.0
 41
0.9
 72
     1
 11
-471.68699299999992
 21
157.55569600000001
 31
0.0
  0
CIRCLE
  5
126
  8
SIZE
  6
CONTINUOUS
 62
    30
 10
-446.68699299999992
 20
-77.0
 30
0.0
 40
6.0
  0
LINE
  5
127
  8
SIZE
  6
CONTINUOUS
 62
    30
 10
-446.68699299999992
 20
-77.0
 30
0.0
 11
-446.68699299999992
 21
-65.0
 31
0.0
  0
CIRCLE
  5
128
  8
SIZE
  6
CONTINUOUS
 62
    30
 10
-446.68699299999992
 20
45.0
 30
0.0
 40
6.0
  0
LINE
  5
129
  8
SIZE
  6
CONTINUOUS
 62
    30
 10
-446.68699299999992
 20
45.0
 30
0.0
 11
-446.68699299999992
 21
33.0
 31
0.0
  0
POINT
  5
12A
  8
DEFPOINTS
  6
CONTINUOUS
 62
    30
 10
-147.53625299999999
 20
-77.0
 30
0.0
  0
POINT
  5
12C
  8
DEFPOINTS
  6
CONTINUOUS
 62
    30
 10
-446.68699299999992
 20
45.0
 30
0.0
  0
LINE
  5
12D
  8
SIZE
  6
CONTINUOUS
 62
    30
 10
80.5
 20
-123.0
 30
0.0
 11
446.81270399999988
 21
-123.0
 31
0.0
  0
LINE
  5
12E
  8
SIZE
  6
CONTINUOUS
 62
    30
 10
171.300094
 20
-77.0
 30
0.0
 11
446.81270399999988
 21
-77.0
 31
0.0
  0
LINE
  5
12F
  8
SIZE
  6
CONTINUOUS
 62
    30
 10
426.812704
 20
-131.0
 30
0.0
 11
426.812704
 21
-143.0
 31
0.0
  0
LINE
  5
130
  8
SIZE
  6
CONTINUOUS
 62
    30
 10
426.812704
 20
-65.0
 30
0.0
 11
426.812704
 21
-53.0
 31
0.0
  0
LINE
  5
131
  8
SIZE
  6
CONTINUOUS
 62
    30
 10
426.812704
 20
-293.80397199999999
 30
0.0
 11
426.812704
 21
-119.0
 31
0.0
  0
TEXT
  5
132
  8
SIZE
  6
CONTINUOUS
 62
    30
 10
401.812704
 20
-267.43254385714289
 30
0.0
 40
64.0
  1
46
 50
90.0
 41
0.9
 72
     1
 11
401.812704
 21
-222.17540099999999
 31
0.0
  0
LINE
  5
133
  8
SIZE
  6
CONTINUOUS
 62
    30
 10
426.812704
 20
-119.0
 30
0.0
 11
426.812704
 21
-77.0
 31
0.0
  0
LINE
  5
134
  8
SIZE
  6
CONTINUOUS
 62
    30
 10
426.812704
 20
-119.0
 30
0.0
 11
426.812704
 21
-77.0
 31
0.0
  0
CIRCLE
  5
135
  8
SIZE
  6
CONTINUOUS
 62
    30
 10
426.812704
 20
-123.0
 30
0.0
 40
6.0
  0
LINE
  5
136
  8
SIZE
  6
CONTINUOUS
 62
    30
 10
426.812704
 20
-119.0
 30
0.0
 11
426.812704
 21
-131.0
 31
0.0
  0
CIRCLE
  5
137
  8
SIZE
  6
CONTINUOUS
 62
    30
 10
426.812704
 20
-77.0
 30
0.0
 40
6.0
  0
LINE
  5
138
  8
SIZE
  6
CONTINUOUS
 62
    30
 10
426.812704
 20
-77.0
 30
0.0
 11
426.812704
 21
-65.0
 31
0.0
  0
POINT
  5
13A
  8
DEFPOINTS
  6
CONTINUOUS
 62
    30
 10
151.300094
 20
-77.0
 30
0.0
  0
POINT
  5
13B
  8
DEFPOINTS
  6
CONTINUOUS
 62
    30
 10
426.812704
 20
-77.0
 30
0.0
  0
LINE
  5
13C
  8
SIZE
  6
CONTINUOUS
 62
    30
 10
171.300094
 20
-77.0
 30
0.0
 11
446.81270399999988
 21
-77.0
 31
0.0
  0
LINE
  5
13D
  8
SIZE
  6
CONTINUOUS
 62
    30
 10
82.5
 20
-51.0
 30
0.0
 11
446.81270399999988
 21
-51.0
 31
0.0
  0
LINE
  5
13E
  8
SIZE
  6
CONTINUOUS
 62
    30
 10
426.812704
 20
-89.0
 30
0.0
 11
426.812704
 21
-101.0
 31
0.0
  0
LINE
  5
13F
  8
SIZE
  6
CONTINUOUS
 62
    30
 10
426.812704
 20
-39.0
 30
0.0
 11
426.812704
 21
-27.0
 31
0.0
  0
LINE
  5
140
  8
SIZE
  6
CONTINUOUS
 62
    30
 10
426.812704
 20
123.172906
 30
0.0
 11
426.812704
 21
-51.0
 31
0.0
  0
TEXT
  5
141
  8
SIZE
  6
CONTINUOUS
 62
    30
 10
401.812704
 20
7.6586211428571502
 30
0.0
 40
64.0
  1
26
 50
90.0
 41
0.9
 72
     1
 11
401.812704
 21
52.915764000000003
 31
0.0
  0
LINE
  5
142
  8
SIZE
  6
CONTINUOUS
 62
    30
 10
426.812704
 20
-77.0
 30
0.0
 11
426.812704
 21
-51.0
 31
0.0
  0
LINE
  5
143
  8
SIZE
  6
CONTINUOUS
 62
    30
 10
426.812704
 20
-77.0
 30
0.0
 11
426.812704
 21
-51.0
 31
0.0
  0
CIRCLE
  5
144
  8
SIZE
  6
CONTINUOUS
 62
    30
 10
426.812704
 20
-77.0
 30
0.0
 40
6.0
  0
LINE
  5
145
  8
SIZE
  6
CONTINUOUS
 62
    30
 10
426.812704
 20
-77.0
 30
0.0
 11
426.812704
 21
-89.0
 31
0.0
  0
CIRCLE
  5
146
  8
SIZE
  6
CONTINUOUS
 62
    30
 10
426.812704
 20
-51.0
 30
0.0
 40
6.0
  0
LINE
  5
147
  8
SIZE
  6
CONTINUOUS
 62
    30
 10
426.812704
 20
-51.0
 30
0.0
 11
426.812704
 21
-39.0
 31
0.0
  0
POINT
  5
148
  8
DEFPOINTS
  6
CONTINUOUS
 62
    30
 10
151.300094
 20
-77.0
 30
0.0
  0
POINT
  5
14A
  8
DEFPOINTS
  6
CONTINUOUS
 62
    30
 10
426.812704
 20
-51.0
 30
0.0
  0
LINE
  5
14B
  8
NOTE
  6
CONTINUOUS
 62
     4
 10
-38.0
 20
-71.0
 30
0.0
 11
-38.0
 21
-31.0
 31
0.0
  0
LINE
  5
14C
  8
NOTE
  6
CONTINUOUS
 62
     4
 10
-58.0
 20
-51.0
 30
0.0
 11
-18.0
 21
-51.0
 31
0.0
  0
LINE
  5
14D
  8
NOTE
  6
CONTINUOUS
 62
     4
 10
-281.00180799999998
 20
106.012248
 30
0.0
 11
-150.791618
 21
106.012248
 31
0.0
  0
TEXT
  5
14E
  8
NOTE
  6
CONTINUOUS
 62
     4
 10
-255.501711
 20
131.9931399999999
 30
0.0
 40
64.0
  1
EL
 41
0.9
  0
LINE
  5
14F
  8
NOTE
  6
CONTINUOUS
 62
     4
 10
-38.0
 20
-51.0
 30
0.0
 11
-150.791618
 21
106.012248
 31
0.0
  0
LINE
  5
150
  8
NOTE
  6
CONTINUOUS
 62
     4
 10
-70.952542000000008
 20
-28.325565000000001
 30
0.0
 11
-38.0
 21
-51.0
 31
0.0
  0
LINE
  5
151
  8
NOTE
  6
CONTINUOUS
 62
     4
 10
-38.0
 20
-51.0
 30
0.0
 11
-55.20051999999999
 21
-14.887092000000001
 31
0.0
  0
LINE
  5
152
  8
NOTE
  6
CONTINUOUS
 62
     4
 10
150.054644
 20
166.30821
 30
0.0
 11
671.18242999999995
 21
166.30821
 31
0.0
  0
LINE
  5
153
  8
OUTLINE
  6
CONTINUOUS
 62
     3
 39
50.0
 10
75.0
 20
-2.5
 30
0.0
 11
-75.0
 21
-2.5
 31
0.0
  0
LINE
  5
154
  8
OUTLINE
  6
CONTINUOUS
 62
     3
 39
50.0
 10
75.0
 20
-151.5
 30
0.0
 11
-75.0
 21
-151.5
 31
0.0
  0
ARC
  5
155
  8
OUTLINE
  6
CONTINUOUS
 62
     3
 39
50.0
 10
-80.0
 20
-6.25
 30
0.0
 40
6.25
 50
36.869897999999999
 51
143.13010199999999
  0
LINE
  5
156
  8
OUTLINE
  6
CONTINUOUS
 62
     3
 39
50.0
 10
-85.0
 20
-2.5
 30
0.0
 11
-130.0
 21
-2.5
 31
0.0
  0
LINE
  5
157
  8
OUTLINE
  6
CONTINUOUS
 62
     3
 39
50.0
 10
-85.0
 20
-151.5
 30
0.0
 11
-130.0
 21
-151.5
 31
0.0
  0
ARC
  5
158
  8
OUTLINE
  6
CONTINUOUS
 62
     3
 39
50.0
 10
-80.0
 20
-147.75
 30
0.0
 40
6.25
 50
216.86989800000001
 51
323.13010200000002
  0
LINE
  5
159
  8
OUTLINE
  6
CONTINUOUS
 62
     3
 39
50.0
 10
-130.0
 20
-151.5
 30
0.0
 11
-130.0
 21
-2.5
 31
0.0
  0
LINE
  5
15A
  8
OUTLINE
  6
CONTINUOUS
 62
     3
 39
50.0
 10
-75.0
 20
-151.5
 30
0.0
 11
-75.0
 21
-2.5
 31
0.0
  0
LINE
  5
15B
  8
OUTLINE
  6
CONTINUOUS
 62
     3
 39
50.0
 10
-85.0
 20
-151.5
 30
0.0
 11
-85.0
 21
-2.5
 31
0.0
  0
ARC
  5
15C
  8
OUTLINE
  6
CONTINUOUS
 62
     3
 39
50.0
 10
80.0
 20
-6.25
 30
0.0
 40
6.25
 50
36.869897999999999
 51
143.13010199999999
  0
LINE
  5
15D
  8
OUTLINE
  6
CONTINUOUS
 62
     3
 39
50.0
 10
130.0
 20
-2.5
 30
0.0
 11
85.0
 21
-2.5
 31
0.0
  0
ARC
  5
15E
  8
OUTLINE
  6
CONTINUOUS
 62
     3
 39
50.0
 10
80.0
 20
-147.75
 30
0.0
 40
6.25
 50
216.86989800000001
 51
323.13010200000002
  0
LINE
  5
15F
  8
OUTLINE
  6
CONTINUOUS
 62
     3
 39
50.0
 10
130.0
 20
-151.5
 30
0.0
 11
85.0
 21
-151.5
 31
0.0
  0
LINE
  5
160
  8
OUTLINE
  6
CONTINUOUS
 62
     3
 39
50.0
 10
130.0
 20
-151.5
 30
0.0
 11
130.0
 21
-2.5
 31
0.0
  0
LINE
  5
161
  8
OUTLINE
  6
CONTINUOUS
 62
     3
 39
50.0
 10
85.0
 20
-151.5
 30
0.0
 11
85.0
 21
-2.5
 31
0.0
  0
LINE
  5
162
  8
OUTLINE
  6
CONTINUOUS
 62
     3
 39
50.0
 10
75.0
 20
-151.5
 30
0.0
 11
75.0
 21
-2.5
 31
0.0
  0
TEXT
  5
16A
  8
ETC
  6
CONTINUOUS
 62
    61
 10
225.91795298219509
 20
522.53424395573336
 30
0.0
 40
64.0
  1
P-18DUEQ4_5
 41
0.9
  0
TEXT
  5
16B
  8
ETC
  6
CONTINUOUS
 62
    61
 10
218.00224598219509
 20
434.11100095573329
 30
0.0
 40
64.0
  1
システム部材
 41
0.9
  0
TEXT
  5
16C
  8
ETC
  6
CONTINUOUS
 62
    61
 10
293.77910863733632
 20
344.62817165244132
 30
0.0
 40
64.0
  1
P-18DUEQ4
 41
0.9
  0
ENDSEC
  0
EOF
